  0
SECTION
  2
HEADER
  9
$ACADVER
  1
AC1014
  9
$ACADMAINTVER
 70
     9
  9
$DWGCODEPAGE
  3
ANSI_1252
  9
$INSBASE
 10
0.0
 20
0.0
 30
0.0
  9
$EXTMIN
 10
0.0
 20
0.0
 30
0.0
  9
$EXTMAX
 10
279.4
 20
215.9
 30
0.0
  9
$LIMMIN
 10
0.0
 20
0.0
  9
$LIMMAX
 10
279.4
 20
215.9
  9
$ORTHOMODE
 70
     0
  9
$REGENMODE
 70
     1
  9
$FILLMODE
 70
     1
  9
$QTEXTMODE
 70
     0
  9
$MIRRTEXT
 70
     1
  9
$DRAGMODE
 70
     2
  9
$LTSCALE
 40
1.0
  9
$OSMODE
 70
    37
  9
$ATTMODE
 70
     1
  9
$TEXTSIZE
 40
3.5
  9
$TRACEWID
 40
1.0
  9
$TEXTSTYLE
  7
STANDARD
  9
$CLAYER
  8
0
  9
$CELTYPE
  6
BYLAYER
  9
$CECOLOR
 62
   256
  9
$CELTSCALE
 40
1.0
  9
$DELOBJ
 70
     1
  9
$DISPSILH
 70
     0
  9
$DIMSCALE
 40
1.0
  9
$DIMASZ
 40
3.302
  9
$DIMEXO
 40
1.0
  9
$DIMDLI
 40
3.75
  9
$DIMRND
 40
0.0
  9
$DIMDLE
 40
0.0
  9
$DIMEXE
 40
1.0
  9
$DIMTP
 40
0.0
  9
$DIMTM
 40
0.0
  9
$DIMTXT
 40
3.5
  9
$DIMCEN
 40
2.5
  9
$DIMTSZ
 40
0.0
  9
$DIMTOL
 70
     0
  9
$DIMLIM
 70
     0
  9
$DIMTIH
 70
     1
  9
$DIMTOH
 70
     1
  9
$DIMSE1
 70
     0
  9
$DIMSE2
 70
     0
  9
$DIMTAD
 70
     1
  9
$DIMZIN
 70
     1
  9
$DIMBLK
  1

  9
$DIMASO
 70
     1
  9
$DIMSHO
 70
     1
  9
$DIMPOST
  1

  9
$DIMAPOST
  1

  9
$DIMALT
 70
     0
  9
$DIMALTD
 70
     3
  9
$DIMALTF
 40
0.0393700787
  9
$DIMLFAC
 40
5.0
  9
$DIMTOFL
 70
     1
  9
$DIMTVP
 40
0.0
  9
$DIMTIX
 70
     0
  9
$DIMSOXD
 70
     0
  9
$DIMSAH
 70
     0
  9
$DIMBLK1
  1

  9
$DIMBLK2
  1

  9
$DIMSTYLE
  2
ISO-25
  9
$DIMCLRD
 70
     0
  9
$DIMCLRE
 70
     0
  9
$DIMCLRT
 70
     0
  9
$DIMTFAC
 40
1.0
  9
$DIMGAP
 40
1.524
  9
$DIMJUST
 70
     0
  9
$DIMSD1
 70
     0
  9
$DIMSD2
 70
     0
  9
$DIMTOLJ
 70
     0
  9
$DIMTZIN
 70
     1
  9
$DIMALTZ
 70
     0
  9
$DIMALTTZ
 70
     0
  9
$DIMFIT
 70
     3
  9
$DIMUPT
 70
     0
  9
$DIMUNIT
 70
     2
  9
$DIMDEC
 70
     2
  9
$DIMTDEC
 70
     2
  9
$DIMALTU
 70
     2
  9
$DIMALTTD
 70
     3
  9
$DIMTXSTY
  7
STANDARD
  9
$DIMAUNIT
 70
     0
  9
$LUNITS
 70
     2
  9
$LUPREC
 70
     2
  9
$SKETCHINC
 40
1.0
  9
$FILLETRAD
 40
0.0
  9
$AUNITS
 70
     0
  9
$AUPREC
 70
     2
  9
$MENU
  1
.
  9
$ELEVATION
 40
0.0
  9
$PELEVATION
 40
0.0
  9
$THICKNESS
 40
0.0
  9
$LIMCHECK
 70
     0
  9
$CHAMFERA
 40
0.0
  9
$CHAMFERB
 40
0.0
  9
$CHAMFERC
 40
0.0
  9
$CHAMFERD
 40
0.0
  9
$SKPOLY
 70
     0
  9
$TDCREATE
 40
2459594.481293287
  9
$TDUPDATE
 40
2459594.481294086
  9
$TDINDWG
 40
0.0000000116
  9
$TDUSRTIMER
 40
0.0000000116
  9
$USRTIMER
 70
     1
  9
$ANGBASE
 50
0.0
  9
$ANGDIR
 70
     0
  9
$PDMODE
 70
     0
  9
$PDSIZE
 40
-1.0
  9
$PLINEWID
 40
0.0
  9
$COORDS
 70
     1
  9
$SPLFRAME
 70
     0
  9
$SPLINETYPE
 70
     6
  9
$SPLINESEGS
 70
     8
  9
$ATTDIA
 70
     0
  9
$ATTREQ
 70
     1
  9
$HANDLING
 70
     1
  9
$HANDSEED
  5
66B
  9
$SURFTAB1
 70
     6
  9
$SURFTAB2
 70
     6
  9
$SURFTYPE
 70
     6
  9
$SURFU
 70
     6
  9
$SURFV
 70
     6
  9
$UCSNAME
  2

  9
$UCSORG
 10
0.0
 20
0.0
 30
0.0
  9
$UCSXDIR
 10
1.0
 20
0.0
 30
0.0
  9
$UCSYDIR
 10
0.0
 20
1.0
 30
0.0
  9
$PUCSNAME
  2

  9
$PUCSORG
 10
0.0
 20
0.0
 30
0.0
  9
$PUCSXDIR
 10
1.0
 20
0.0
 30
0.0
  9
$PUCSYDIR
 10
0.0
 20
1.0
 30
0.0
  9
$USERI1
 70
     0
  9
$USERI2
 70
     0
  9
$USERI3
 70
     0
  9
$USERI4
 70
     0
  9
$USERI5
 70
     0
  9
$USERR1
 40
0.0
  9
$USERR2
 40
0.0
  9
$USERR3
 40
0.0
  9
$USERR4
 40
0.0
  9
$USERR5
 40
0.0
  9
$WORLDVIEW
 70
     1
  9
$SHADEDGE
 70
     3
  9
$SHADEDIF
 70
    70
  9
$TILEMODE
 70
     1
  9
$MAXACTVP
 70
    64
  9
$PINSBASE
 10
0.0
 20
0.0
 30
0.0
  9
$PLIMCHECK
 70
     0
  9
$PEXTMIN
 10
1.0000000000E+20
 20
1.0000000000E+20
 30
1.0000000000E+20
  9
$PEXTMAX
 10
-1.0000000000E+20
 20
-1.0000000000E+20
 30
-1.0000000000E+20
  9
$PLIMMIN
 10
0.0
 20
0.0
  9
$PLIMMAX
 10
420.0
 20
297.0
  9
$UNITMODE
 70
     0
  9
$VISRETAIN
 70
     1
  9
$PLINEGEN
 70
     0
  9
$PSLTSCALE
 70
     1
  9
$TREEDEPTH
 70
  3020
  9
$PICKSTYLE
 70
     1
  9
$CMLSTYLE
  2
STANDARD
  9
$CMLJUST
 70
     0
  9
$CMLSCALE
 40
20.0
  9
$PROXYGRAPHICS
 70
     1
  9
$MEASUREMENT
 70
     1
  0
ENDSEC
  0
SECTION
  2
CLASSES
  0
CLASS
  1
ACDBDICTIONARYWDFLT
  2
AcDbDictionaryWithDefault
  3
ObjectDBX Classes
 90
        0
280
     0
281
     0
  0
CLASS
  1
VISUALSTYLE
  2
AcDbVisualStyle
  3
ObjectDBX Classes
 90
     4095
280
     0
281
     0
  0
CLASS
  1
MATERIAL
  2
AcDbMaterial
  3
ObjectDBX Classes
 90
     1153
280
     0
281
     0
  0
CLASS
  1
SCALE
  2
AcDbScale
  3
ObjectDBX Classes
 90
     1153
280
     0
281
     0
  0
CLASS
  1
TABLESTYLE
  2
AcDbTableStyle
  3
ObjectDBX Classes
 90
     4095
280
     0
281
     0
  0
CLASS
  1
MLEADERSTYLE
  2
AcDbMLeaderStyle
  3
ACDB_MLEADERSTYLE_CLASS
 90
     4095
280
     0
281
     0
  0
CLASS
  1
SUN
  2
AcDbSun
  3
SCENEOE
 90
     1153
280
     0
281
     0
  0
CLASS
  1
XRECORD
  2
AcDbXrecord
  3
ObjectDBX Classes
 90
        0
280
     0
281
     0
  0
CLASS
  1
LWPOLYLINE
  2
AcDbPolyline
  3
ObjectDBX Classes
 90
        0
280
     0
281
     1
  0
CLASS
  1
HATCH
  2
AcDbHatch
  3
ObjectDBX Classes
 90
        0
280
     0
281
     1
  0
ENDSEC
  0
SECTION
  2
TABLES
  0
TABLE
  2
VPORT
  5
8
330
0
100
AcDbSymbolTable
 70
     1
  0
VPORT
  5
29
330
8
100
AcDbSymbolTableRecord
100
AcDbViewportTableRecord
  2
*ACTIVE
 70
     0
 10
0.0
 20
0.0
 11
1.0
 21
1.0
 12
139.7
 22
107.95
 13
0.0
 23
0.0
 14
10.0
 24
10.0
 15
10.0
 25
10.0
 16
0.0
 26
0.0
 36
1.0
 17
0.0
 27
0.0
 37
0.0
 40
215.9
 41
1.2941176471
 42
50.0
 43
0.0
 44
0.0
 50
0.0
 51
0.0
 71
     0
 72
  2000
 73
     1
 74
     3
 75
     0
 76
     0
 77
     0
 78
     0
  0
ENDTAB
  0
TABLE
  2
LTYPE
  5
5
330
0
100
AcDbSymbolTable
 70
     6
  0
LTYPE
  5
14
330
5
100
AcDbSymbolTableRecord
100
AcDbLinetypeTableRecord
  2
BYBLOCK
 70
     0
  3

 72
    65
 73
     0
 40
0.0
  0
LTYPE
  5
15
330
5
100
AcDbSymbolTableRecord
100
AcDbLinetypeTableRecord
  2
BYLAYER
 70
     0
  3

 72
    65
 73
     0
 40
0.0
  0
LTYPE
  5
16
330
5
100
AcDbSymbolTableRecord
100
AcDbLinetypeTableRecord
  2
CONTINUOUS
 70
     0
  3
Solid line
 72
    65
 73
     0
 40
0.0
  0
LTYPE
  5
5E
330
5
100
AcDbSymbolTableRecord
100
AcDbLinetypeTableRecord
  2
HIDDEN
 70
     0
  3
Hidden __ __ __ __ __ __ __ __ __ __ __ __ __ __
 72
    65
 73
     2
 40
1.905
 49
1.27
 74
     0
 49
-0.635
 74
     0
  0
LTYPE
  5
5F
330
5
100
AcDbSymbolTableRecord
100
AcDbLinetypeTableRecord
  2
PHANTOM
 70
     0
  3
Phantom ______  __  __  ______  __  __  ______
 72
    65
 73
     6
 40
12.7
 49
6.35
 74
     0
 49
-1.27
 74
     0
 49
1.27
 74
     0
 49
-1.27
 74
     0
 49
1.27
 74
     0
 49
-1.27
 74
     0
  0
LTYPE
  5
60
330
5
100
AcDbSymbolTableRecord
100
AcDbLinetypeTableRecord
  2
CENTER
 70
     0
  3
Center ____ _ ____ _ ____ _ ____ _ ____ _ ____
 72
    65
 73
     4
 40
10.16
 49
6.35
 74
     0
 49
-1.27
 74
     0
 49
1.27
 74
     0
 49
-1.27
 74
     0
  0
LTYPE
  5
61
330
5
100
AcDbSymbolTableRecord
100
AcDbLinetypeTableRecord
  2
CENTERX2
 70
     0
  3
Center (2x) ________  __  ________  __  _____
 72
    65
 73
     4
 40
20.32
 49
12.7
 74
     0
 49
-2.54
 74
     0
 49
2.54
 74
     0
 49
-2.54
 74
     0
  0
LTYPE
  5
62
330
5
100
AcDbSymbolTableRecord
100
AcDbLinetypeTableRecord
  2
DOT2
 70
     0
  3
Dot (.5x) ........................................
 72
    65
 73
     2
 40
0.635
 49
0.0
 74
     0
 49
-0.635
 74
     0
  0
ENDTAB
  0
TABLE
  2
LAYER
  5
2
330
0
100
AcDbSymbolTable
 70
     1
  0
LAYER
  5
10
330
2
100
AcDbSymbolTableRecord
100
AcDbLayerTableRecord
  2
0
 70
     0
 62
     7
  6
CONTINUOUS
  0
ENDTAB
  0
TABLE
  2
STYLE
  5
3
330
0
100
AcDbSymbolTable
 70
     1
  0
STYLE
  5
11
330
3
100
AcDbSymbolTableRecord
100
AcDbTextStyleTableRecord
  2
STANDARD
 70
     0
 40
0.0
 41
1.0
 50
0.0
 71
     0
 42
3.5
  3
GOTHIC.TTF
  4

1001
ACAD
1000
CENTURY GOTHIC
1071
       34
  0
ENDTAB
  0
TABLE
  2
VIEW
  5
6
330
0
100
AcDbSymbolTable
 70
     0
  0
ENDTAB
  0
TABLE
  2
UCS
  5
7
330
0
100
AcDbSymbolTable
 70
     0
  0
ENDTAB
  0
TABLE
  2
APPID
  5
9
330
0
100
AcDbSymbolTable
 70
     1
  0
APPID
  5
12
330
9
100
AcDbSymbolTableRecord
100
AcDbRegAppTableRecord
  2
ACAD
 70
     0
  0
ENDTAB
  0
TABLE
  2
DIMSTYLE
  5
A
330
0
100
AcDbSymbolTable
 70
     1
  0
DIMSTYLE
105
27
330
A
100
AcDbSymbolTableRecord
100
AcDbDimStyleTableRecord
  2
ISO-25
 70
     0
  3

  4

  5

  6

  7

 40
1.0
 41
2.5
 42
0.625
 43
3.75
 44
1.25
 45
0.0
 46
0.0
 47
0.0
 48
0.0
140
2.5
141
2.5
142
0.0
143
0.0393700787
144
1.0
145
0.0
146
1.0
147
0.625
 71
     0
 72
     0
 73
     0
 74
     0
 75
     0
 76
     0
 77
     1
 78
     8
170
     0
171
     3
172
     1
173
     0
174
     0
175
     0
176
     0
177
     0
178
     0
270
     2
271
     2
272
     2
273
     2
274
     3
340
11
275
     0
280
     0
281
     0
282
     0
283
     0
284
     8
285
     0
286
     0
287
     3
288
     0
  0
ENDTAB
  0
TABLE
  2
BLOCK_RECORD
  5
1
330
0
100
AcDbSymbolTable
 70
     1
  0
BLOCK_RECORD
  5
1F
330
1
100
AcDbSymbolTableRecord
100
AcDbBlockTableRecord
  2
*MODEL_SPACE
  0
BLOCK_RECORD
  5
1B
330
1
100
AcDbSymbolTableRecord
100
AcDbBlockTableRecord
  2
*PAPER_SPACE
  0
BLOCK_RECORD
  5
23
330
1
100
AcDbSymbolTableRecord
100
AcDbBlockTableRecord
  2
*PAPER_SPACE0
  0
ENDTAB
  0
ENDSEC
  0
SECTION
  2
BLOCKS
  0
BLOCK
  5
20
330
1F
100
AcDbEntity
  8
0
100
AcDbBlockBegin
  2
*MODEL_SPACE
 70
     0
 10
0.0
 20
0.0
 30
0.0
  3
*MODEL_SPACE
  1

  0
ENDBLK
  5
21
330
1F
100
AcDbEntity
  8
0
100
AcDbBlockEnd
  0
BLOCK
  5
1C
330
1B
100
AcDbEntity
 67
     1
  8
0
100
AcDbBlockBegin
  2
*PAPER_SPACE
 70
     0
 10
0.0
 20
0.0
 30
0.0
  3
*PAPER_SPACE
  1

  0
ENDBLK
  5
1D
330
1B
100
AcDbEntity
 67
     1
  8
0
100
AcDbBlockEnd
  0
BLOCK
  5
24
330
23
100
AcDbEntity
  8
0
100
AcDbBlockBegin
  2
*PAPER_SPACE0
 70
     0
 10
0.0
 20
0.0
 30
0.0
  3
*PAPER_SPACE0
  1

  0
ENDBLK
  5
25
330
23
100
AcDbEntity
  8
0
100
AcDbBlockEnd
  0
ENDSEC
  0
SECTION
  2
ENTITIES
  0
LINE
  5
63
330
1F
100
AcDbEntity
  8
0
  6
CONTINUOUS
 62
     7
100
AcDbLine
 10
26.510335739
 20
141.9977269973
 30
0.0
 11
26.5881495729
 21
141.9977269973
 31
0.0
  0
LINE
  5
64
330
1F
100
AcDbEntity
  8
0
  6
CONTINUOUS
 62
     7
100
AcDbLine
 10
26.510335739
 20
141.9977269973
 30
0.0
 11
26.510335739
 21
142.1533546651
 31
0.0
  0
LINE
  5
65
330
1F
100
AcDbEntity
  8
0
  6
CONTINUOUS
 62
     7
100
AcDbLine
 10
39.6055837992
 20
141.9993266564
 30
0.0
 11
39.5277700003
 21
141.9992528004
 31
0.0
  0
LINE
  5
66
330
1F
100
AcDbEntity
  8
0
  6
CONTINUOUS
 62
     7
100
AcDbLine
 10
39.6055837992
 20
141.9993266564
 30
0.0
 11
39.6054360871
 21
142.1549542541
 31
0.0
  0
LINE
  5
67
330
1F
100
AcDbEntity
  8
0
  6
CONTINUOUS
 62
     7
100
AcDbLine
 10
32.1055871774
 20
141.9922081237
 30
0.0
 11
32.1834009763
 21
141.9922819798
 31
0.0
  0
LINE
  5
68
330
1F
100
AcDbEntity
  8
0
  6
CONTINUOUS
 62
     7
100
AcDbLine
 10
32.1055871774
 20
141.9922081237
 30
0.0
 11
32.1057348895
 21
141.836580526
 31
0.0
  0
LINE
  5
69
330
1F
100
AcDbEntity
  8
0
  6
CONTINUOUS
 62
     7
100
AcDbLine
 10
39.6055837992
 20
141.9993266564
 30
0.0
 11
39.683397598
 21
141.9994005124
 31
0.0
  0
LINE
  5
6A
330
1F
100
AcDbEntity
  8
0
  6
CONTINUOUS
 62
     7
100
AcDbLine
 10
39.6055837992
 20
141.9993266564
 30
0.0
 11
39.6057315113
 21
141.8436990587
 31
0.0
  0
LINE
  5
6B
330
1F
100
AcDbEntity
  8
0
  6
CONTINUOUS
 62
     7
100
AcDbLine
 10
39.6055837992
 20
141.9993266564
 30
0.0
 11
39.5277700003
 21
141.9992528004
 31
0.0
  0
LINE
  5
6C
330
1F
100
AcDbEntity
  8
0
  6
CONTINUOUS
 62
     7
100
AcDbLine
 10
39.6055837992
 20
141.9993266564
 30
0.0
 11
39.6057315113
 21
141.8436990587
 31
0.0
  0
LINE
  5
6D
330
1F
100
AcDbEntity
  8
0
  6
CONTINUOUS
 62
     7
100
AcDbLine
 10
45.43348442
 20
106.314786067
 30
0.0
 11
45.5112982539
 21
106.314786067
 31
0.0
  0
LINE
  5
6E
330
1F
100
AcDbEntity
  8
0
  6
CONTINUOUS
 62
     7
100
AcDbLine
 10
45.43348442
 20
106.314786067
 30
0.0
 11
45.43348442
 21
106.4704137348
 31
0.0
  0
LINE
  5
6F
330
1F
100
AcDbEntity
  8
0
  6
CONTINUOUS
 62
     7
100
AcDbLine
 10
39.6055837992
 20
63.9993266564
 30
0.0
 11
39.5337049804
 21
63.9695201445
 31
0.0
  0
LINE
  5
70
330
1F
100
AcDbEntity
  8
0
  6
CONTINUOUS
 62
     7
100
AcDbLine
 10
39.6055837992
 20
63.9993266564
 30
0.0
 11
39.5459707754
 21
64.143084294
 31
0.0
  0
LINE
  5
71
330
1F
100
AcDbEntity
  8
0
  6
CONTINUOUS
 62
     7
100
AcDbLine
 10
39.6055837992
 20
63.9993266564
 30
0.0
 11
39.6833976331
 21
63.9993266564
 31
0.0
  0
LINE
  5
72
330
1F
100
AcDbEntity
  8
0
  6
CONTINUOUS
 62
     7
100
AcDbLine
 10
39.6055837992
 20
63.9993266564
 30
0.0
 11
39.6055837992
 21
64.1549543242
 31
0.0
  0
LINE
  5
73
330
1F
100
AcDbEntity
  8
0
  6
CONTINUOUS
 62
     7
100
AcDbLine
 10
45.43348442
 20
106.314786067
 30
0.0
 11
45.5112982539
 21
106.314786067
 31
0.0
  0
LINE
  5
74
330
1F
100
AcDbEntity
  8
0
  6
CONTINUOUS
 62
     7
100
AcDbLine
 10
45.43348442
 20
106.314786067
 30
0.0
 11
45.43348442
 21
106.4704137348
 31
0.0
  0
LINE
  5
75
330
1F
100
AcDbEntity
  8
0
  6
CONTINUOUS
 62
     7
100
AcDbLine
 10
32.1055871774
 20
141.9922081237
 30
0.0
 11
32.1834009763
 21
141.9922819798
 31
0.0
  0
LINE
  5
76
330
1F
100
AcDbEntity
  8
0
  6
CONTINUOUS
 62
     7
100
AcDbLine
 10
32.1055871774
 20
141.9922081237
 30
0.0
 11
32.1054394653
 21
142.1478357214
 31
0.0
  0
LINE
  5
77
330
1F
100
AcDbEntity
  8
0
  6
CONTINUOUS
 62
     7
100
AcDbLine
 10
14.6552067964
 20
56.7457793064
 30
0.0
 11
14.6552067964
 21
56.6679654725
 31
0.0
  0
LINE
  5
78
330
1F
100
AcDbEntity
  8
0
  6
CONTINUOUS
 62
     7
100
AcDbLine
 10
14.6552067964
 20
56.7457793064
 30
0.0
 11
14.8108344642
 21
56.7457793064
 31
0.0
  0
POINT
  5
79
330
1F
100
AcDbEntity
  8
0
  6
CONTINUOUS
 62
     7
100
AcDbPoint
 10
26.510335739
 20
141.9977269973
 30
0.0
  0
POINT
  5
7A
330
1F
100
AcDbEntity
  8
0
  6
CONTINUOUS
 62
     7
100
AcDbPoint
 10
39.6055837992
 20
141.9993266564
 30
0.0
  0
POINT
  5
7B
330
1F
100
AcDbEntity
  8
0
  6
CONTINUOUS
 62
     7
100
AcDbPoint
 10
32.1055871774
 20
141.9922081237
 30
0.0
  0
POINT
  5
7C
330
1F
100
AcDbEntity
  8
0
  6
CONTINUOUS
 62
     7
100
AcDbPoint
 10
39.6055837992
 20
141.9993266564
 30
0.0
  0
POINT
  5
7D
330
1F
100
AcDbEntity
  8
0
  6
CONTINUOUS
 62
     7
100
AcDbPoint
 10
39.6055837992
 20
141.9993266564
 30
0.0
  0
POINT
  5
7E
330
1F
100
AcDbEntity
  8
0
  6
CONTINUOUS
 62
     7
100
AcDbPoint
 10
45.43348442
 20
106.314786067
 30
0.0
  0
POINT
  5
7F
330
1F
100
AcDbEntity
  8
0
  6
CONTINUOUS
 62
     7
100
AcDbPoint
 10
39.6055837992
 20
63.9993266564
 30
0.0
  0
POINT
  5
80
330
1F
100
AcDbEntity
  8
0
  6
CONTINUOUS
 62
     7
100
AcDbPoint
 10
39.6055837992
 20
63.9993266564
 30
0.0
  0
POINT
  5
81
330
1F
100
AcDbEntity
  8
0
  6
CONTINUOUS
 62
     7
100
AcDbPoint
 10
45.43348442
 20
106.314786067
 30
0.0
  0
POINT
  5
82
330
1F
100
AcDbEntity
  8
0
  6
CONTINUOUS
 62
     7
100
AcDbPoint
 10
32.1055871774
 20
141.9922081237
 30
0.0
  0
POINT
  5
83
330
1F
100
AcDbEntity
  8
0
  6
CONTINUOUS
 62
     7
100
AcDbPoint
 10
14.6552067964
 20
56.7457793064
 30
0.0
  0
LINE
  5
84
330
1F
100
AcDbEntity
  8
0
  6
CONTINUOUS
 62
     7
100
AcDbLine
 10
52.2971611492
 20
62.2704247016
 30
0.0
 11
52.3804171942
 21
62.3893266564
 31
0.0
  0
LINE
  5
85
330
1F
100
AcDbEntity
  8
0
  6
CONTINUOUS
 62
     7
100
AcDbLine
 10
52.3804171942
 20
65.6093266564
 30
0.0
 11
52.2971611492
 21
65.7282286112
 31
0.0
  0
LINE
  5
86
330
1F
100
AcDbEntity
  8
0
  6
CONTINUOUS
 62
     7
100
AcDbLine
 10
52.5038271513
 20
62.2130789722
 30
0.0
 11
52.6055837992
 21
62.3893266564
 31
0.0
  0
LINE
  5
87
330
1F
100
AcDbEntity
  8
0
  6
CONTINUOUS
 62
     7
100
AcDbLine
 10
52.6055837992
 20
65.6093266564
 30
0.0
 11
52.5038271513
 21
65.7855743406
 31
0.0
  0
LINE
  5
88
330
1F
100
AcDbEntity
  8
0
  6
CONTINUOUS
 62
     7
100
AcDbLine
 10
52.5038271513
 20
65.7855743406
 30
0.0
 11
52.3804171942
 21
65.6093266564
 31
0.0
  0
LINE
  5
89
330
1F
100
AcDbEntity
  8
0
  6
CONTINUOUS
 62
     7
100
AcDbLine
 10
52.3804171942
 20
62.3893266564
 30
0.0
 11
52.5038271513
 21
62.2130789722
 31
0.0
  0
LINE
  5
8A
330
1F
100
AcDbEntity
  8
0
  6
CONTINUOUS
 62
     7
100
AcDbLine
 10
52.3804171942
 20
65.6093266564
 30
0.0
 11
52.3804171942
 21
65.4828919734
 31
0.0
  0
LINE
  5
8B
330
1F
100
AcDbEntity
  8
0
  6
CONTINUOUS
 62
     7
100
AcDbLine
 10
52.3804171942
 20
62.5157613394
 30
0.0
 11
52.3804171942
 21
62.3893266564
 31
0.0
  0
LINE
  5
8C
330
1F
100
AcDbEntity
  8
0
  6
CONTINUOUS
 62
     7
100
AcDbLine
 10
52.6055837992
 20
65.6093266564
 30
0.0
 11
52.6055837992
 21
62.3893266564
 31
0.0
  0
LINE
  5
8D
330
1F
100
AcDbEntity
  8
0
  6
CONTINUOUS
 62
     7
100
AcDbLine
 10
52.5038271513
 20
62.2130789722
 30
0.0
 11
52.5038271513
 21
62.9985680607
 31
0.0
  0
LINE
  5
8E
330
1F
100
AcDbEntity
  8
0
  6
CONTINUOUS
 62
     7
100
AcDbLine
 10
52.5038271513
 20
65.0172548102
 30
0.0
 11
52.5038271513
 21
65.7855743406
 31
0.0
  0
LINE
  5
8F
330
1F
100
AcDbEntity
  8
0
  6
CONTINUOUS
 62
     7
100
AcDbLine
 10
24.6055905557
 20
141.9850895911
 30
0.0
 11
14.60559506
 21
141.9755982142
 31
0.0
  0
LINE
  5
90
330
1F
100
AcDbEntity
  8
0
  6
CONTINUOUS
 62
     7
100
AcDbLine
 10
24.6055905557
 20
141.9850895911
 30
0.0
 11
24.6103362441
 21
136.9850918432
 31
0.0
  0
LINE
  5
91
330
1F
100
AcDbEntity
  8
0
  6
CONTINUOUS
 62
     7
100
AcDbLine
 10
24.6103362441
 20
136.9850918432
 30
0.0
 11
19.6103384963
 21
136.9803461548
 31
0.0
  0
ARC
  5
92
330
1F
100
AcDbEntity
  8
0
  6
CONTINUOUS
 62
     7
100
AcDbCircle
 10
19.6055928078
 20
141.9803439026
 30
0.0
 40
5.000000000000002
100
AcDbArc
 50
180.0543815919
 51
270.0543815919
  0
LINE
  5
93
330
1F
100
AcDbEntity
  8
0
  6
CONTINUOUS
 62
     7
100
AcDbLine
 10
24.6008448672
 20
146.9850873389
 30
0.0
 11
24.6055905557
 21
141.9850895911
 31
0.0
  0
ARC
  5
94
330
1F
100
AcDbEntity
  8
0
  6
CONTINUOUS
 62
     7
100
AcDbCircle
 10
19.6055928078
 20
141.9803439026
 30
0.0
 40
5.000000000000011
100
AcDbArc
 50
90.0543815919
 51
180.0543815919
  0
LINE
  5
95
330
1F
100
AcDbEntity
  8
0
  6
CONTINUOUS
 62
     7
100
AcDbLine
 10
19.6008471194
 20
146.9803416505
 30
0.0
 11
24.6008448672
 21
146.9850873389
 31
0.0
  0
LINE
  5
96
330
1F
100
AcDbEntity
  8
0
  6
CONTINUOUS
 62
     7
100
AcDbLine
 10
149.6007885633
 20
147.10372955
 30
0.0
 11
149.6055342517
 21
142.1037318022
 31
0.0
  0
LINE
  5
97
330
1F
100
AcDbEntity
  8
0
  6
CONTINUOUS
 62
     7
100
AcDbLine
 10
149.6055342517
 20
142.1037318022
 30
0.0
 11
24.6055905557
 21
141.9850895911
 31
0.0
  0
LINE
  5
98
330
1F
100
AcDbEntity
  8
0
  6
CONTINUOUS
 62
     7
100
AcDbLine
 10
24.6008448672
 20
146.9850873389
 30
0.0
 11
149.6007885633
 21
147.10372955
 31
0.0
  0
LINE
  5
99
330
1F
100
AcDbEntity
  8
0
  6
CONTINUOUS
 62
     7
100
AcDbLine
 10
149.6055342517
 20
142.1037318022
 30
0.0
 11
149.6102799402
 21
137.1037340543
 31
0.0
  0
LINE
  5
9A
330
1F
100
AcDbEntity
  8
0
  6
CONTINUOUS
 62
     7
100
AcDbLine
 10
149.6102799402
 20
137.1037340543
 30
0.0
 11
24.6103362441
 21
136.9850918432
 31
0.0
  0
ARC
  5
9B
330
1F
100
AcDbEntity
  8
0
  6
CONTINUOUS
 62
     7
100
AcDbCircle
 10
154.6055319996
 20
142.1084774906
 30
0.0
 40
5.000000000000011
100
AcDbArc
 50
0.0543815919
 51
90.0543815919
  0
LINE
  5
9C
330
1F
100
AcDbEntity
  8
0
  6
CONTINUOUS
 62
     7
100
AcDbLine
 10
159.6055297474
 20
142.1132231791
 30
0.0
 11
149.6055342517
 21
142.1037318022
 31
0.0
  0
LINE
  5
9D
330
1F
100
AcDbEntity
  8
0
  6
CONTINUOUS
 62
     7
100
AcDbLine
 10
149.6007885633
 20
147.10372955
 30
0.0
 11
154.6007863111
 21
147.1084752385
 31
0.0
  0
ARC
  5
9E
330
1F
100
AcDbEntity
  8
0
  6
CONTINUOUS
 62
     7
100
AcDbCircle
 10
154.6055319996
 20
142.1084774906
 30
0.0
 40
5.000000000000011
100
AcDbArc
 50
270.0543815919
 51
0.0543815919
  0
LINE
  5
9F
330
1F
100
AcDbEntity
  8
0
  6
CONTINUOUS
 62
     7
100
AcDbLine
 10
154.610277688
 20
137.1084797428
 30
0.0
 11
149.6102799402
 21
137.1037340543
 31
0.0
  0
LINE
  5
A0
330
1F
100
AcDbEntity
  8
0
  6
CONTINUOUS
 62
     7
100
AcDbLine
 10
19.6055837992
 20
63.9993266564
 30
0.0
 11
14.6055837992
 21
63.9993266564
 31
0.0
  0
LINE
  5
A1
330
1F
100
AcDbEntity
  8
0
  6
CONTINUOUS
 62
     7
100
AcDbLine
 10
19.6055837992
 20
58.9993266564
 30
0.0
 11
19.6055837992
 21
63.9993266564
 31
0.0
  0
ARC
  5
A2
330
1F
100
AcDbEntity
  8
0
  6
CONTINUOUS
 62
     7
100
AcDbCircle
 10
19.6055837992
 20
63.9993266564
 30
0.0
 40
5.000000000000004
100
AcDbArc
 50
180.0
 51
270.0
  0
LINE
  5
A3
330
1F
100
AcDbEntity
  8
0
  6
CONTINUOUS
 62
     7
100
AcDbLine
 10
47.6055837992
 20
58.9993266564
 30
0.0
 11
47.6055837992
 21
63.9993266564
 31
0.0
  0
LINE
  5
A4
330
1F
100
AcDbEntity
  8
0
  6
CONTINUOUS
 62
     7
100
AcDbLine
 10
47.6055837992
 20
63.9993266564
 30
0.0
 11
52.6055837992
 21
63.9993266564
 31
0.0
  0
ARC
  5
A5
330
1F
100
AcDbEntity
  8
0
  6
CONTINUOUS
 62
     7
100
AcDbCircle
 10
47.6055837992
 20
63.9993266564
 30
0.0
 40
5.0
100
AcDbArc
 50
270.0
 51
0.0
  0
LINE
  5
A6
330
1F
100
AcDbEntity
  8
0
  6
CONTINUOUS
 62
     7
100
AcDbLine
 10
47.6055837992
 20
58.9993266564
 30
0.0
 11
19.6055837992
 21
58.9993266564
 31
0.0
  0
LINE
  5
A7
330
1F
100
AcDbEntity
  8
0
  6
CONTINUOUS
 62
     7
100
AcDbLine
 10
47.6055837992
 20
63.9993266564
 30
0.0
 11
19.6055837992
 21
63.9993266564
 31
0.0
  0
LINE
  5
A8
330
1F
100
AcDbEntity
  8
0
  6
CONTINUOUS
 62
     7
100
AcDbLine
 10
19.6055837992
 20
63.9993266564
 30
0.0
 11
19.6055837992
 21
68.9993266564
 31
0.0
  0
LINE
  5
A9
330
1F
100
AcDbEntity
  8
0
  6
CONTINUOUS
 62
     7
100
AcDbLine
 10
19.6055837992
 20
68.9993266564
 30
0.0
 11
47.6055837992
 21
68.9993266564
 31
0.0
  0
LINE
  5
AA
330
1F
100
AcDbEntity
  8
0
  6
CONTINUOUS
 62
     7
100
AcDbLine
 10
47.6055837992
 20
63.9993266564
 30
0.0
 11
47.6055837992
 21
68.9993266564
 31
0.0
  0
ARC
  5
AB
330
1F
100
AcDbEntity
  8
0
  6
CONTINUOUS
 62
     7
100
AcDbCircle
 10
19.6055837992
 20
63.9993266564
 30
0.0
 40
5.000000000000014
100
AcDbArc
 50
90.0
 51
180.0
  0
ARC
  5
AC
330
1F
100
AcDbEntity
  8
0
  6
CONTINUOUS
 62
     7
100
AcDbCircle
 10
47.6055837992
 20
63.9993266564
 30
0.0
 40
5.000000000000014
100
AcDbArc
 50
0.0
 51
90.0
  0
ARC
  5
AD
330
1F
100
AcDbEntity
  8
0
  6
CONTINUOUS
 62
     7
100
AcDbCircle
 10
39.6055837992
 20
63.9993266564
 30
0.0
 40
6.000000000000014
100
AcDbArc
 50
236.4426902381
 51
270.0
  0
ARC
  5
AE
330
1F
100
AcDbEntity
  8
0
  6
CONTINUOUS
 62
     7
100
AcDbCircle
 10
39.6055837992
 20
63.9993266564
 30
0.0
 40
6.000000000000007
100
AcDbArc
 50
56.4426902381
 51
123.5573097619
  0
ARC
  5
AF
330
1F
100
AcDbEntity
  8
0
  6
CONTINUOUS
 62
     7
100
AcDbCircle
 10
39.6055837992
 20
63.9993266564
 30
0.0
 40
6.000000000000014
100
AcDbArc
 50
270.0
 51
303.5573097619
  0
ARC
  5
B0
330
1F
100
AcDbEntity
  8
0
  6
CONTINUOUS
 62
     7
100
AcDbCircle
 10
39.6055837992
 20
141.9993266564
 30
0.0
 40
6.000000000000001
100
AcDbArc
 50
56.49707183
 51
90.0543815919
  0
ARC
  5
B1
330
1F
100
AcDbEntity
  8
0
  6
CONTINUOUS
 62
     7
100
AcDbCircle
 10
39.6055837992
 20
141.9993266564
 30
0.0
 40
6.000000000000003
100
AcDbArc
 50
236.49707183
 51
303.6116913538
  0
ARC
  5
B2
330
1F
100
AcDbEntity
  8
0
  6
CONTINUOUS
 62
     7
100
AcDbCircle
 10
39.6055837992
 20
141.9993266564
 30
0.0
 40
6.000000000000001
100
AcDbArc
 50
90.0543815919
 51
123.6116913538
  0
LINE
  5
B3
330
1F
100
AcDbEntity
  8
0
  6
CONTINUOUS
 62
     7
100
AcDbLine
 10
47.6055837992
 20
150.9993266564
 30
0.0
 11
19.6055837992
 21
150.9993266564
 31
0.0
  0
LINE
  5
B4
330
1F
100
AcDbEntity
  8
0
  6
CONTINUOUS
 62
     7
100
AcDbLine
 10
19.6055837992
 20
38.9993266564
 30
0.0
 11
47.6055837992
 21
38.9993266564
 31
0.0
  0
LINE
  5
B5
330
1F
100
AcDbEntity
  8
0
  6
CONTINUOUS
 62
     7
100
AcDbLine
 10
14.6055837992
 20
145.9993266564
 30
0.0
 11
14.6055837992
 21
43.9993266564
 31
0.0
  0
LINE
  5
B6
330
1F
100
AcDbEntity
  8
0
  6
CONTINUOUS
 62
     7
100
AcDbLine
 10
52.6055837992
 20
43.9993266564
 30
0.0
 11
52.6055837992
 21
62.3893266564
 31
0.0
  0
LINE
  5
B7
330
1F
100
AcDbEntity
  8
0
  6
CONTINUOUS
 62
     7
100
AcDbLine
 10
52.6055837992
 20
65.6093266564
 30
0.0
 11
52.6055837992
 21
137.0116631998
 31
0.0
  0
ARC
  5
B8
330
1F
100
AcDbEntity
  8
0
  6
CONTINUOUS
 62
     7
100
AcDbCircle
 10
19.6055837992
 20
43.9993266564
 30
0.0
 40
4.999999999999993
100
AcDbArc
 50
180.0
 51
270.0
  0
ARC
  5
B9
330
1F
100
AcDbEntity
  8
0
  6
CONTINUOUS
 62
     7
100
AcDbCircle
 10
47.6055837992
 20
145.9993266564
 30
0.0
 40
5.000000000000002
100
AcDbArc
 50
11.6801805458
 51
90.0
  0
ARC
  5
BA
330
1F
100
AcDbEntity
  8
0
  6
CONTINUOUS
 62
     7
100
AcDbCircle
 10
47.6055837992
 20
43.9993266564
 30
0.0
 40
5.000000000000007
100
AcDbArc
 50
270.0
 51
0.0
  0
ARC
  5
BB
330
1F
100
AcDbEntity
  8
0
  6
CONTINUOUS
 62
     7
100
AcDbCircle
 10
19.6055837992
 20
145.9993266564
 30
0.0
 40
5.000000000000004
100
AcDbArc
 50
90.0
 51
180.0
  0
LINE
  5
BC
330
1F
100
AcDbEntity
  8
0
  6
CONTINUOUS
 62
     7
100
AcDbLine
 10
-115.3120438648
 20
141.9993266564
 30
0.0
 11
-115.3120438648
 21
141.9994005124
 31
0.0
  0
LINE
  5
BD
330
1F
100
AcDbEntity
  8
0
  6
CONTINUOUS
 62
     7
100
AcDbLine
 10
-115.3120438648
 20
141.9993266564
 30
0.0
 11
-115.156416197
 21
141.9993266564
 31
0.0
  0
LINE
  5
BE
330
1F
100
AcDbEntity
  8
0
  6
CONTINUOUS
 62
     7
100
AcDbLine
 10
-158.1787069298
 20
141.9993266564
 30
0.0
 11
-158.1787069298
 21
141.9695201445
 31
0.0
  0
LINE
  5
BF
330
1F
100
AcDbEntity
  8
0
  6
CONTINUOUS
 62
     7
100
AcDbLine
 10
-158.1787069298
 20
141.9993266564
 30
0.0
 11
-158.3343345976
 21
141.9993266564
 31
0.0
  0
LINE
  5
C0
330
1F
100
AcDbEntity
  8
0
  6
CONTINUOUS
 62
     7
100
AcDbLine
 10
-115.1787069298
 20
141.9993266564
 30
0.0
 11
-115.1787069298
 21
141.9695201445
 31
0.0
  0
LINE
  5
C1
330
1F
100
AcDbEntity
  8
0
  6
CONTINUOUS
 62
     7
100
AcDbLine
 10
-115.1787069298
 20
141.9993266564
 30
0.0
 11
-115.023079262
 21
141.9993266564
 31
0.0
  0
LINE
  5
C2
330
1F
100
AcDbEntity
  8
0
  6
CONTINUOUS
 62
     7
100
AcDbLine
 10
-158.1787069298
 20
63.9993266564
 30
0.0
 11
-158.1787069298
 21
63.9695201445
 31
0.0
  0
LINE
  5
C3
330
1F
100
AcDbEntity
  8
0
  6
CONTINUOUS
 62
     7
100
AcDbLine
 10
-158.1787069298
 20
63.9993266564
 30
0.0
 11
-158.3343345976
 21
63.9993266564
 31
0.0
  0
LINE
  5
C4
330
1F
100
AcDbEntity
  8
0
  6
CONTINUOUS
 62
     7
100
AcDbLine
 10
-158.0453699948
 20
141.9993266564
 30
0.0
 11
-158.0453699948
 21
141.9992528004
 31
0.0
  0
LINE
  5
C5
330
1F
100
AcDbEntity
  8
0
  6
CONTINUOUS
 62
     7
100
AcDbLine
 10
-158.0453699948
 20
141.9993266564
 30
0.0
 11
-158.2009976626
 21
141.9993266564
 31
0.0
  0
LINE
  5
C6
330
1F
100
AcDbEntity
  8
0
  6
CONTINUOUS
 62
     7
100
AcDbLine
 10
-115.1787069298
 20
63.9993266564
 30
0.0
 11
-115.1787069298
 21
63.9695201445
 31
0.0
  0
LINE
  5
C7
330
1F
100
AcDbEntity
  8
0
  6
CONTINUOUS
 62
     7
100
AcDbLine
 10
-115.1787069298
 20
63.9993266564
 30
0.0
 11
-115.023079262
 21
63.9993266564
 31
0.0
  0
POINT
  5
C8
330
1F
100
AcDbEntity
  8
0
  6
CONTINUOUS
 62
     7
100
AcDbPoint
 10
-115.3120438648
 20
141.9993266564
 30
0.0
  0
POINT
  5
C9
330
1F
100
AcDbEntity
  8
0
  6
CONTINUOUS
 62
     7
100
AcDbPoint
 10
-158.1787069298
 20
141.9993266564
 30
0.0
  0
POINT
  5
CA
330
1F
100
AcDbEntity
  8
0
  6
CONTINUOUS
 62
     7
100
AcDbPoint
 10
-115.1787069298
 20
141.9993266564
 30
0.0
  0
POINT
  5
CB
330
1F
100
AcDbEntity
  8
0
  6
CONTINUOUS
 62
     7
100
AcDbPoint
 10
-158.1787069298
 20
63.9993266564
 30
0.0
  0
POINT
  5
CC
330
1F
100
AcDbEntity
  8
0
  6
CONTINUOUS
 62
     7
100
AcDbPoint
 10
-158.0453699948
 20
141.9993266564
 30
0.0
  0
POINT
  5
CD
330
1F
100
AcDbEntity
  8
0
  6
CONTINUOUS
 62
     7
100
AcDbPoint
 10
-115.1787069298
 20
63.9993266564
 30
0.0
  0
LINE
  5
CE
330
1F
100
AcDbEntity
  8
0
  6
CONTINUOUS
 62
     7
100
AcDbLine
 10
-145.7602794357
 20
143.9993266564
 30
0.0
 11
-145.7887069298
 21
143.9993266564
 31
0.0
  0
LINE
  5
CF
330
1F
100
AcDbEntity
  8
0
  6
CONTINUOUS
 62
     7
100
AcDbLine
 10
-145.7887069298
 20
139.9993266564
 30
0.0
 11
-145.7602794357
 21
139.9993266564
 31
0.0
  0
LINE
  5
D0
330
1F
100
AcDbEntity
  8
0
  6
CONTINUOUS
 62
     7
100
AcDbLine
 10
-145.7602794357
 20
139.9993266564
 30
0.0
 11
-145.4871984958
 21
140.3893266564
 31
0.0
  0
LINE
  5
D1
330
1F
100
AcDbEntity
  8
0
  6
CONTINUOUS
 62
     7
100
AcDbLine
 10
-145.4871984958
 20
143.6093266564
 30
0.0
 11
-145.7602794357
 21
143.9993266564
 31
0.0
  0
LINE
  5
D2
330
1F
100
AcDbEntity
  8
0
  6
CONTINUOUS
 62
     7
100
AcDbLine
 10
-145.7887069298
 20
143.9993266564
 30
0.0
 11
-146.1787069298
 21
143.6093266564
 31
0.0
  0
LINE
  5
D3
330
1F
100
AcDbEntity
  8
0
  6
CONTINUOUS
 62
     7
100
AcDbLine
 10
-146.1787069298
 20
140.3893266564
 30
0.0
 11
-145.7887069298
 21
139.9993266564
 31
0.0
  0
LINE
  5
D4
330
1F
100
AcDbEntity
  8
0
  6
CONTINUOUS
 62
     7
100
AcDbLine
 10
-145.2141175559
 20
143.9993266564
 30
0.0
 11
-145.4871984958
 21
143.6093266564
 31
0.0
  0
LINE
  5
D5
330
1F
100
AcDbEntity
  8
0
  6
CONTINUOUS
 62
     7
100
AcDbLine
 10
-145.4871984958
 20
140.3893266564
 30
0.0
 11
-145.2141175559
 21
139.9993266564
 31
0.0
  0
LINE
  5
D6
330
1F
100
AcDbEntity
  8
0
  6
CONTINUOUS
 62
     7
100
AcDbLine
 10
-145.0687700018
 20
143.9993266564
 30
0.0
 11
-145.2141175559
 21
143.9993266564
 31
0.0
  0
LINE
  5
D7
330
1F
100
AcDbEntity
  8
0
  6
CONTINUOUS
 62
     7
100
AcDbLine
 10
-145.2141175559
 20
139.9993266564
 30
0.0
 11
-145.0687700018
 21
139.9993266564
 31
0.0
  0
LINE
  5
D8
330
1F
100
AcDbEntity
  8
0
  6
CONTINUOUS
 62
     7
100
AcDbLine
 10
-144.522608122
 20
143.9993266564
 30
0.0
 11
-144.7956890619
 21
143.6093266564
 31
0.0
  0
LINE
  5
D9
330
1F
100
AcDbEntity
  8
0
  6
CONTINUOUS
 62
     7
100
AcDbLine
 10
-144.7956890619
 20
140.3893266564
 30
0.0
 11
-144.522608122
 21
139.9993266564
 31
0.0
  0
LINE
  5
DA
330
1F
100
AcDbEntity
  8
0
  6
CONTINUOUS
 62
     7
100
AcDbLine
 10
-145.0687700018
 20
139.9993266564
 30
0.0
 11
-144.7956890619
 21
140.3893266564
 31
0.0
  0
LINE
  5
DB
330
1F
100
AcDbEntity
  8
0
  6
CONTINUOUS
 62
     7
100
AcDbLine
 10
-144.7956890619
 20
143.6093266564
 30
0.0
 11
-145.0687700018
 21
143.9993266564
 31
0.0
  0
LINE
  5
DC
330
1F
100
AcDbEntity
  8
0
  6
CONTINUOUS
 62
     7
100
AcDbLine
 10
-144.3772605678
 20
139.9993266564
 30
0.0
 11
-144.1041796279
 21
140.3893266564
 31
0.0
  0
LINE
  5
DD
330
1F
100
AcDbEntity
  8
0
  6
CONTINUOUS
 62
     7
100
AcDbLine
 10
-144.1041796279
 20
143.6093266564
 30
0.0
 11
-144.3772605678
 21
143.9993266564
 31
0.0
  0
LINE
  5
DE
330
1F
100
AcDbEntity
  8
0
  6
CONTINUOUS
 62
     7
100
AcDbLine
 10
-144.3772605678
 20
143.9993266564
 30
0.0
 11
-144.522608122
 21
143.9993266564
 31
0.0
  0
LINE
  5
DF
330
1F
100
AcDbEntity
  8
0
  6
CONTINUOUS
 62
     7
100
AcDbLine
 10
-144.522608122
 20
139.9993266564
 30
0.0
 11
-144.3772605678
 21
139.9993266564
 31
0.0
  0
LINE
  5
E0
330
1F
100
AcDbEntity
  8
0
  6
CONTINUOUS
 62
     7
100
AcDbLine
 10
-143.6857511339
 20
143.9993266564
 30
0.0
 11
-143.831098688
 21
143.9993266564
 31
0.0
  0
LINE
  5
E1
330
1F
100
AcDbEntity
  8
0
  6
CONTINUOUS
 62
     7
100
AcDbLine
 10
-143.831098688
 20
139.9993266564
 30
0.0
 11
-143.6857511339
 21
139.9993266564
 31
0.0
  0
LINE
  5
E2
330
1F
100
AcDbEntity
  8
0
  6
CONTINUOUS
 62
     7
100
AcDbLine
 10
-143.831098688
 20
143.9993266564
 30
0.0
 11
-144.1041796279
 21
143.6093266564
 31
0.0
  0
LINE
  5
E3
330
1F
100
AcDbEntity
  8
0
  6
CONTINUOUS
 62
     7
100
AcDbLine
 10
-144.1041796279
 20
140.3893266564
 30
0.0
 11
-143.831098688
 21
139.9993266564
 31
0.0
  0
LINE
  5
E4
330
1F
100
AcDbEntity
  8
0
  6
CONTINUOUS
 62
     7
100
AcDbLine
 10
-143.6857511339
 20
139.9993266564
 30
0.0
 11
-143.412670194
 21
140.3893266564
 31
0.0
  0
LINE
  5
E5
330
1F
100
AcDbEntity
  8
0
  6
CONTINUOUS
 62
     7
100
AcDbLine
 10
-143.412670194
 20
143.6093266564
 30
0.0
 11
-143.6857511339
 21
143.9993266564
 31
0.0
  0
LINE
  5
E6
330
1F
100
AcDbEntity
  8
0
  6
CONTINUOUS
 62
     7
100
AcDbLine
 10
-143.139589254
 20
143.9993266564
 30
0.0
 11
-143.412670194
 21
143.6093266564
 31
0.0
  0
LINE
  5
E7
330
1F
100
AcDbEntity
  8
0
  6
CONTINUOUS
 62
     7
100
AcDbLine
 10
-143.412670194
 20
140.3893266564
 30
0.0
 11
-143.139589254
 21
139.9993266564
 31
0.0
  0
LINE
  5
E8
330
1F
100
AcDbEntity
  8
0
  6
CONTINUOUS
 62
     7
100
AcDbLine
 10
-142.9942416999
 20
139.9993266564
 30
0.0
 11
-142.72116076
 21
140.3893266564
 31
0.0
  0
LINE
  5
E9
330
1F
100
AcDbEntity
  8
0
  6
CONTINUOUS
 62
     7
100
AcDbLine
 10
-142.72116076
 20
143.6093266564
 30
0.0
 11
-142.9942416999
 21
143.9993266564
 31
0.0
  0
LINE
  5
EA
330
1F
100
AcDbEntity
  8
0
  6
CONTINUOUS
 62
     7
100
AcDbLine
 10
-142.9942416999
 20
143.9993266564
 30
0.0
 11
-143.139589254
 21
143.9993266564
 31
0.0
  0
LINE
  5
EB
330
1F
100
AcDbEntity
  8
0
  6
CONTINUOUS
 62
     7
100
AcDbLine
 10
-143.139589254
 20
139.9993266564
 30
0.0
 11
-142.9942416999
 21
139.9993266564
 31
0.0
  0
LINE
  5
EC
330
1F
100
AcDbEntity
  8
0
  6
CONTINUOUS
 62
     7
100
AcDbLine
 10
-142.4480798201
 20
143.9993266564
 30
0.0
 11
-142.72116076
 21
143.6093266564
 31
0.0
  0
LINE
  5
ED
330
1F
100
AcDbEntity
  8
0
  6
CONTINUOUS
 62
     7
100
AcDbLine
 10
-142.72116076
 20
140.3893266564
 30
0.0
 11
-142.4480798201
 21
139.9993266564
 31
0.0
  0
LINE
  5
EE
330
1F
100
AcDbEntity
  8
0
  6
CONTINUOUS
 62
     7
100
AcDbLine
 10
-142.3027322659
 20
143.9993266564
 30
0.0
 11
-142.4480798201
 21
143.9993266564
 31
0.0
  0
LINE
  5
EF
330
1F
100
AcDbEntity
  8
0
  6
CONTINUOUS
 62
     7
100
AcDbLine
 10
-142.4480798201
 20
139.9993266564
 30
0.0
 11
-142.3027322659
 21
139.9993266564
 31
0.0
  0
LINE
  5
F0
330
1F
100
AcDbEntity
  8
0
  6
CONTINUOUS
 62
     7
100
AcDbLine
 10
-142.3027322659
 20
139.9993266564
 30
0.0
 11
-142.029651326
 21
140.3893266564
 31
0.0
  0
LINE
  5
F1
330
1F
100
AcDbEntity
  8
0
  6
CONTINUOUS
 62
     7
100
AcDbLine
 10
-142.029651326
 20
143.6093266564
 30
0.0
 11
-142.3027322659
 21
143.9993266564
 31
0.0
  0
LINE
  5
F2
330
1F
100
AcDbEntity
  8
0
  6
CONTINUOUS
 62
     7
100
AcDbLine
 10
-141.7565703861
 20
143.9993266564
 30
0.0
 11
-142.029651326
 21
143.6093266564
 31
0.0
  0
LINE
  5
F3
330
1F
100
AcDbEntity
  8
0
  6
CONTINUOUS
 62
     7
100
AcDbLine
 10
-142.029651326
 20
140.3893266564
 30
0.0
 11
-141.7565703861
 21
139.9993266564
 31
0.0
  0
LINE
  5
F4
330
1F
100
AcDbEntity
  8
0
  6
CONTINUOUS
 62
     7
100
AcDbLine
 10
-141.0650609522
 20
143.9993266564
 30
0.0
 11
-141.3381418921
 21
143.6093266564
 31
0.0
  0
LINE
  5
F5
330
1F
100
AcDbEntity
  8
0
  6
CONTINUOUS
 62
     7
100
AcDbLine
 10
-141.3381418921
 20
140.3893266564
 30
0.0
 11
-141.0650609522
 21
139.9993266564
 31
0.0
  0
LINE
  5
F6
330
1F
100
AcDbEntity
  8
0
  6
CONTINUOUS
 62
     7
100
AcDbLine
 10
-141.611222832
 20
143.9993266564
 30
0.0
 11
-141.7565703861
 21
143.9993266564
 31
0.0
  0
LINE
  5
F7
330
1F
100
AcDbEntity
  8
0
  6
CONTINUOUS
 62
     7
100
AcDbLine
 10
-141.7565703861
 20
139.9993266564
 30
0.0
 11
-141.611222832
 21
139.9993266564
 31
0.0
  0
LINE
  5
F8
330
1F
100
AcDbEntity
  8
0
  6
CONTINUOUS
 62
     7
100
AcDbLine
 10
-141.611222832
 20
139.9993266564
 30
0.0
 11
-141.3381418921
 21
140.3893266564
 31
0.0
  0
LINE
  5
F9
330
1F
100
AcDbEntity
  8
0
  6
CONTINUOUS
 62
     7
100
AcDbLine
 10
-141.3381418921
 20
143.6093266564
 30
0.0
 11
-141.611222832
 21
143.9993266564
 31
0.0
  0
LINE
  5
FA
330
1F
100
AcDbEntity
  8
0
  6
CONTINUOUS
 62
     7
100
AcDbLine
 10
-140.919713398
 20
139.9993266564
 30
0.0
 11
-140.6466324581
 21
140.3893266564
 31
0.0
  0
LINE
  5
FB
330
1F
100
AcDbEntity
  8
0
  6
CONTINUOUS
 62
     7
100
AcDbLine
 10
-140.6466324581
 20
143.6093266564
 30
0.0
 11
-140.919713398
 21
143.9993266564
 31
0.0
  0
LINE
  5
FC
330
1F
100
AcDbEntity
  8
0
  6
CONTINUOUS
 62
     7
100
AcDbLine
 10
-140.919713398
 20
143.9993266564
 30
0.0
 11
-141.0650609522
 21
143.9993266564
 31
0.0
  0
LINE
  5
FD
330
1F
100
AcDbEntity
  8
0
  6
CONTINUOUS
 62
     7
100
AcDbLine
 10
-141.0650609522
 20
139.9993266564
 30
0.0
 11
-140.919713398
 21
139.9993266564
 31
0.0
  0
LINE
  5
FE
330
1F
100
AcDbEntity
  8
0
  6
CONTINUOUS
 62
     7
100
AcDbLine
 10
-140.228203964
 20
143.9993266564
 30
0.0
 11
-140.3735515182
 21
143.9993266564
 31
0.0
  0
LINE
  5
FF
330
1F
100
AcDbEntity
  8
0
  6
CONTINUOUS
 62
     7
100
AcDbLine
 10
-140.3735515182
 20
139.9993266564
 30
0.0
 11
-140.228203964
 21
139.9993266564
 31
0.0
  0
LINE
  5
100
330
1F
100
AcDbEntity
  8
0
  6
CONTINUOUS
 62
     7
100
AcDbLine
 10
-140.3735515182
 20
143.9993266564
 30
0.0
 11
-140.6466324581
 21
143.6093266564
 31
0.0
  0
LINE
  5
101
330
1F
100
AcDbEntity
  8
0
  6
CONTINUOUS
 62
     7
100
AcDbLine
 10
-140.6466324581
 20
140.3893266564
 30
0.0
 11
-140.3735515182
 21
139.9993266564
 31
0.0
  0
LINE
  5
102
330
1F
100
AcDbEntity
  8
0
  6
CONTINUOUS
 62
     7
100
AcDbLine
 10
-140.228203964
 20
139.9993266564
 30
0.0
 11
-139.9551230241
 21
140.3893266564
 31
0.0
  0
LINE
  5
103
330
1F
100
AcDbEntity
  8
0
  6
CONTINUOUS
 62
     7
100
AcDbLine
 10
-139.9551230241
 20
143.6093266564
 30
0.0
 11
-140.228203964
 21
143.9993266564
 31
0.0
  0
LINE
  5
104
330
1F
100
AcDbEntity
  8
0
  6
CONTINUOUS
 62
     7
100
AcDbLine
 10
-139.6820420842
 20
143.9993266564
 30
0.0
 11
-139.9551230241
 21
143.6093266564
 31
0.0
  0
LINE
  5
105
330
1F
100
AcDbEntity
  8
0
  6
CONTINUOUS
 62
     7
100
AcDbLine
 10
-139.9551230241
 20
140.3893266564
 30
0.0
 11
-139.6820420842
 21
139.9993266564
 31
0.0
  0
LINE
  5
106
330
1F
100
AcDbEntity
  8
0
  6
CONTINUOUS
 62
     7
100
AcDbLine
 10
-139.5366945301
 20
139.9993266564
 30
0.0
 11
-139.2636135902
 21
140.3893266564
 31
0.0
  0
LINE
  5
107
330
1F
100
AcDbEntity
  8
0
  6
CONTINUOUS
 62
     7
100
AcDbLine
 10
-139.2636135902
 20
143.6093266564
 30
0.0
 11
-139.5366945301
 21
143.9993266564
 31
0.0
  0
LINE
  5
108
330
1F
100
AcDbEntity
  8
0
  6
CONTINUOUS
 62
     7
100
AcDbLine
 10
-139.5366945301
 20
143.9993266564
 30
0.0
 11
-139.6820420842
 21
143.9993266564
 31
0.0
  0
LINE
  5
109
330
1F
100
AcDbEntity
  8
0
  6
CONTINUOUS
 62
     7
100
AcDbLine
 10
-139.6820420842
 20
139.9993266564
 30
0.0
 11
-139.5366945301
 21
139.9993266564
 31
0.0
  0
LINE
  5
10A
330
1F
100
AcDbEntity
  8
0
  6
CONTINUOUS
 62
     7
100
AcDbLine
 10
-138.8451850961
 20
139.9993266564
 30
0.0
 11
-138.5721041562
 21
140.3893266564
 31
0.0
  0
LINE
  5
10B
330
1F
100
AcDbEntity
  8
0
  6
CONTINUOUS
 62
     7
100
AcDbLine
 10
-138.5721041562
 20
143.6093266564
 30
0.0
 11
-138.8451850961
 21
143.9993266564
 31
0.0
  0
LINE
  5
10C
330
1F
100
AcDbEntity
  8
0
  6
CONTINUOUS
 62
     7
100
AcDbLine
 10
-138.9905326503
 20
143.9993266564
 30
0.0
 11
-139.2636135902
 21
143.6093266564
 31
0.0
  0
LINE
  5
10D
330
1F
100
AcDbEntity
  8
0
  6
CONTINUOUS
 62
     7
100
AcDbLine
 10
-139.2636135902
 20
140.3893266564
 30
0.0
 11
-138.9905326503
 21
139.9993266564
 31
0.0
  0
LINE
  5
10E
330
1F
100
AcDbEntity
  8
0
  6
CONTINUOUS
 62
     7
100
AcDbLine
 10
-138.8451850961
 20
143.9993266564
 30
0.0
 11
-138.9905326503
 21
143.9993266564
 31
0.0
  0
LINE
  5
10F
330
1F
100
AcDbEntity
  8
0
  6
CONTINUOUS
 62
     7
100
AcDbLine
 10
-138.9905326503
 20
139.9993266564
 30
0.0
 11
-138.8451850961
 21
139.9993266564
 31
0.0
  0
LINE
  5
110
330
1F
100
AcDbEntity
  8
0
  6
CONTINUOUS
 62
     7
100
AcDbLine
 10
-138.1536756622
 20
143.9993266564
 30
0.0
 11
-138.2990232163
 21
143.9993266564
 31
0.0
  0
LINE
  5
111
330
1F
100
AcDbEntity
  8
0
  6
CONTINUOUS
 62
     7
100
AcDbLine
 10
-138.2990232163
 20
139.9993266564
 30
0.0
 11
-138.1536756622
 21
139.9993266564
 31
0.0
  0
LINE
  5
112
330
1F
100
AcDbEntity
  8
0
  6
CONTINUOUS
 62
     7
100
AcDbLine
 10
-138.2990232163
 20
143.9993266564
 30
0.0
 11
-138.5721041562
 21
143.6093266564
 31
0.0
  0
LINE
  5
113
330
1F
100
AcDbEntity
  8
0
  6
CONTINUOUS
 62
     7
100
AcDbLine
 10
-138.5721041562
 20
140.3893266564
 30
0.0
 11
-138.2990232163
 21
139.9993266564
 31
0.0
  0
LINE
  5
114
330
1F
100
AcDbEntity
  8
0
  6
CONTINUOUS
 62
     7
100
AcDbLine
 10
-137.6075137824
 20
143.9993266564
 30
0.0
 11
-137.8805947223
 21
143.6093266564
 31
0.0
  0
LINE
  5
115
330
1F
100
AcDbEntity
  8
0
  6
CONTINUOUS
 62
     7
100
AcDbLine
 10
-137.8805947223
 20
140.3893266564
 30
0.0
 11
-137.6075137824
 21
139.9993266564
 31
0.0
  0
LINE
  5
116
330
1F
100
AcDbEntity
  8
0
  6
CONTINUOUS
 62
     7
100
AcDbLine
 10
-138.1536756622
 20
139.9993266564
 30
0.0
 11
-137.8805947223
 21
140.3893266564
 31
0.0
  0
LINE
  5
117
330
1F
100
AcDbEntity
  8
0
  6
CONTINUOUS
 62
     7
100
AcDbLine
 10
-137.8805947223
 20
143.6093266564
 30
0.0
 11
-138.1536756622
 21
143.9993266564
 31
0.0
  0
LINE
  5
118
330
1F
100
AcDbEntity
  8
0
  6
CONTINUOUS
 62
     7
100
AcDbLine
 10
-137.4621662282
 20
139.9993266564
 30
0.0
 11
-137.1890852883
 21
140.3893266564
 31
0.0
  0
LINE
  5
119
330
1F
100
AcDbEntity
  8
0
  6
CONTINUOUS
 62
     7
100
AcDbLine
 10
-137.1890852883
 20
143.6093266564
 30
0.0
 11
-137.4621662282
 21
143.9993266564
 31
0.0
  0
LINE
  5
11A
330
1F
100
AcDbEntity
  8
0
  6
CONTINUOUS
 62
     7
100
AcDbLine
 10
-137.4621662282
 20
143.9993266564
 30
0.0
 11
-137.6075137824
 21
143.9993266564
 31
0.0
  0
LINE
  5
11B
330
1F
100
AcDbEntity
  8
0
  6
CONTINUOUS
 62
     7
100
AcDbLine
 10
-137.6075137824
 20
139.9993266564
 30
0.0
 11
-137.4621662282
 21
139.9993266564
 31
0.0
  0
LINE
  5
11C
330
1F
100
AcDbEntity
  8
0
  6
CONTINUOUS
 62
     7
100
AcDbLine
 10
-136.7706567942
 20
143.9993266564
 30
0.0
 11
-136.9160043484
 21
143.9993266564
 31
0.0
  0
LINE
  5
11D
330
1F
100
AcDbEntity
  8
0
  6
CONTINUOUS
 62
     7
100
AcDbLine
 10
-136.9160043484
 20
139.9993266564
 30
0.0
 11
-136.7706567942
 21
139.9993266564
 31
0.0
  0
LINE
  5
11E
330
1F
100
AcDbEntity
  8
0
  6
CONTINUOUS
 62
     7
100
AcDbLine
 10
-136.9160043484
 20
143.9993266564
 30
0.0
 11
-137.1890852883
 21
143.6093266564
 31
0.0
  0
LINE
  5
11F
330
1F
100
AcDbEntity
  8
0
  6
CONTINUOUS
 62
     7
100
AcDbLine
 10
-137.1890852883
 20
140.3893266564
 30
0.0
 11
-136.9160043484
 21
139.9993266564
 31
0.0
  0
LINE
  5
120
330
1F
100
AcDbEntity
  8
0
  6
CONTINUOUS
 62
     7
100
AcDbLine
 10
-136.7706567942
 20
139.9993266564
 30
0.0
 11
-136.4975758543
 21
140.3893266564
 31
0.0
  0
LINE
  5
121
330
1F
100
AcDbEntity
  8
0
  6
CONTINUOUS
 62
     7
100
AcDbLine
 10
-136.4975758543
 20
143.6093266564
 30
0.0
 11
-136.7706567942
 21
143.9993266564
 31
0.0
  0
LINE
  5
122
330
1F
100
AcDbEntity
  8
0
  6
CONTINUOUS
 62
     7
100
AcDbLine
 10
-136.2244949144
 20
143.9993266564
 30
0.0
 11
-136.4975758543
 21
143.6093266564
 31
0.0
  0
LINE
  5
123
330
1F
100
AcDbEntity
  8
0
  6
CONTINUOUS
 62
     7
100
AcDbLine
 10
-136.4975758543
 20
140.3893266564
 30
0.0
 11
-136.2244949144
 21
139.9993266564
 31
0.0
  0
LINE
  5
124
330
1F
100
AcDbEntity
  8
0
  6
CONTINUOUS
 62
     7
100
AcDbLine
 10
-136.0791473603
 20
143.9993266564
 30
0.0
 11
-136.2244949144
 21
143.9993266564
 31
0.0
  0
LINE
  5
125
330
1F
100
AcDbEntity
  8
0
  6
CONTINUOUS
 62
     7
100
AcDbLine
 10
-136.2244949144
 20
139.9993266564
 30
0.0
 11
-136.0791473603
 21
139.9993266564
 31
0.0
  0
LINE
  5
126
330
1F
100
AcDbEntity
  8
0
  6
CONTINUOUS
 62
     7
100
AcDbLine
 10
-136.0791473603
 20
139.9993266564
 30
0.0
 11
-135.8060664204
 21
140.3893266564
 31
0.0
  0
LINE
  5
127
330
1F
100
AcDbEntity
  8
0
  6
CONTINUOUS
 62
     7
100
AcDbLine
 10
-135.8060664204
 20
143.6093266564
 30
0.0
 11
-136.0791473603
 21
143.9993266564
 31
0.0
  0
LINE
  5
128
330
1F
100
AcDbEntity
  8
0
  6
CONTINUOUS
 62
     7
100
AcDbLine
 10
-135.3876379263
 20
139.9993266564
 30
0.0
 11
-135.1145569864
 21
140.3893266564
 31
0.0
  0
LINE
  5
129
330
1F
100
AcDbEntity
  8
0
  6
CONTINUOUS
 62
     7
100
AcDbLine
 10
-135.1145569864
 20
143.6093266564
 30
0.0
 11
-135.3876379263
 21
143.9993266564
 31
0.0
  0
LINE
  5
12A
330
1F
100
AcDbEntity
  8
0
  6
CONTINUOUS
 62
     7
100
AcDbLine
 10
-135.3876379263
 20
143.9993266564
 30
0.0
 11
-135.5329854805
 21
143.9993266564
 31
0.0
  0
LINE
  5
12B
330
1F
100
AcDbEntity
  8
0
  6
CONTINUOUS
 62
     7
100
AcDbLine
 10
-135.5329854805
 20
139.9993266564
 30
0.0
 11
-135.3876379263
 21
139.9993266564
 31
0.0
  0
LINE
  5
12C
330
1F
100
AcDbEntity
  8
0
  6
CONTINUOUS
 62
     7
100
AcDbLine
 10
-135.5329854805
 20
143.9993266564
 30
0.0
 11
-135.8060664204
 21
143.6093266564
 31
0.0
  0
LINE
  5
12D
330
1F
100
AcDbEntity
  8
0
  6
CONTINUOUS
 62
     7
100
AcDbLine
 10
-135.8060664204
 20
140.3893266564
 30
0.0
 11
-135.5329854805
 21
139.9993266564
 31
0.0
  0
LINE
  5
12E
330
1F
100
AcDbEntity
  8
0
  6
CONTINUOUS
 62
     7
100
AcDbLine
 10
-134.8414760465
 20
143.9993266564
 30
0.0
 11
-135.1145569864
 21
143.6093266564
 31
0.0
  0
LINE
  5
12F
330
1F
100
AcDbEntity
  8
0
  6
CONTINUOUS
 62
     7
100
AcDbLine
 10
-135.1145569864
 20
140.3893266564
 30
0.0
 11
-134.8414760465
 21
139.9993266564
 31
0.0
  0
LINE
  5
130
330
1F
100
AcDbEntity
  8
0
  6
CONTINUOUS
 62
     7
100
AcDbLine
 10
-134.6961284923
 20
143.9993266564
 30
0.0
 11
-134.8414760465
 21
143.9993266564
 31
0.0
  0
LINE
  5
131
330
1F
100
AcDbEntity
  8
0
  6
CONTINUOUS
 62
     7
100
AcDbLine
 10
-134.8414760465
 20
139.9993266564
 30
0.0
 11
-134.6961284923
 21
139.9993266564
 31
0.0
  0
LINE
  5
132
330
1F
100
AcDbEntity
  8
0
  6
CONTINUOUS
 62
     7
100
AcDbLine
 10
-134.1499666125
 20
143.9993266564
 30
0.0
 11
-134.4230475524
 21
143.6093266564
 31
0.0
  0
LINE
  5
133
330
1F
100
AcDbEntity
  8
0
  6
CONTINUOUS
 62
     7
100
AcDbLine
 10
-134.4230475524
 20
140.3893266564
 30
0.0
 11
-134.1499666125
 21
139.9993266564
 31
0.0
  0
LINE
  5
134
330
1F
100
AcDbEntity
  8
0
  6
CONTINUOUS
 62
     7
100
AcDbLine
 10
-134.6961284923
 20
139.9993266564
 30
0.0
 11
-134.4230475524
 21
140.3893266564
 31
0.0
  0
LINE
  5
135
330
1F
100
AcDbEntity
  8
0
  6
CONTINUOUS
 62
     7
100
AcDbLine
 10
-134.4230475524
 20
143.6093266564
 30
0.0
 11
-134.6961284923
 21
143.9993266564
 31
0.0
  0
LINE
  5
136
330
1F
100
AcDbEntity
  8
0
  6
CONTINUOUS
 62
     7
100
AcDbLine
 10
-134.0046190584
 20
139.9993266564
 30
0.0
 11
-133.7315381185
 21
140.3893266564
 31
0.0
  0
LINE
  5
137
330
1F
100
AcDbEntity
  8
0
  6
CONTINUOUS
 62
     7
100
AcDbLine
 10
-133.7315381185
 20
143.6093266564
 30
0.0
 11
-134.0046190584
 21
143.9993266564
 31
0.0
  0
LINE
  5
138
330
1F
100
AcDbEntity
  8
0
  6
CONTINUOUS
 62
     7
100
AcDbLine
 10
-134.0046190584
 20
143.9993266564
 30
0.0
 11
-134.1499666125
 21
143.9993266564
 31
0.0
  0
LINE
  5
139
330
1F
100
AcDbEntity
  8
0
  6
CONTINUOUS
 62
     7
100
AcDbLine
 10
-134.1499666125
 20
139.9993266564
 30
0.0
 11
-134.0046190584
 21
139.9993266564
 31
0.0
  0
LINE
  5
13A
330
1F
100
AcDbEntity
  8
0
  6
CONTINUOUS
 62
     7
100
AcDbLine
 10
-133.3131096244
 20
143.9993266564
 30
0.0
 11
-133.4584571786
 21
143.9993266564
 31
0.0
  0
LINE
  5
13B
330
1F
100
AcDbEntity
  8
0
  6
CONTINUOUS
 62
     7
100
AcDbLine
 10
-133.4584571786
 20
139.9993266564
 30
0.0
 11
-133.3131096244
 21
139.9993266564
 31
0.0
  0
LINE
  5
13C
330
1F
100
AcDbEntity
  8
0
  6
CONTINUOUS
 62
     7
100
AcDbLine
 10
-133.4584571786
 20
143.9993266564
 30
0.0
 11
-133.7315381185
 21
143.6093266564
 31
0.0
  0
LINE
  5
13D
330
1F
100
AcDbEntity
  8
0
  6
CONTINUOUS
 62
     7
100
AcDbLine
 10
-133.7315381185
 20
140.3893266564
 30
0.0
 11
-133.4584571786
 21
139.9993266564
 31
0.0
  0
LINE
  5
13E
330
1F
100
AcDbEntity
  8
0
  6
CONTINUOUS
 62
     7
100
AcDbLine
 10
-133.3131096244
 20
139.9993266564
 30
0.0
 11
-133.0400286845
 21
140.3893266564
 31
0.0
  0
LINE
  5
13F
330
1F
100
AcDbEntity
  8
0
  6
CONTINUOUS
 62
     7
100
AcDbLine
 10
-133.0400286845
 20
143.6093266564
 30
0.0
 11
-133.3131096244
 21
143.9993266564
 31
0.0
  0
LINE
  5
140
330
1F
100
AcDbEntity
  8
0
  6
CONTINUOUS
 62
     7
100
AcDbLine
 10
-132.7669477446
 20
143.9993266564
 30
0.0
 11
-133.0400286845
 21
143.6093266564
 31
0.0
  0
LINE
  5
141
330
1F
100
AcDbEntity
  8
0
  6
CONTINUOUS
 62
     7
100
AcDbLine
 10
-133.0400286845
 20
140.3893266564
 30
0.0
 11
-132.7669477446
 21
139.9993266564
 31
0.0
  0
LINE
  5
142
330
1F
100
AcDbEntity
  8
0
  6
CONTINUOUS
 62
     7
100
AcDbLine
 10
-132.0754383107
 20
143.9993266564
 30
0.0
 11
-132.3485192506
 21
143.6093266564
 31
0.0
  0
LINE
  5
143
330
1F
100
AcDbEntity
  8
0
  6
CONTINUOUS
 62
     7
100
AcDbLine
 10
-132.3485192506
 20
140.3893266564
 30
0.0
 11
-132.0754383107
 21
139.9993266564
 31
0.0
  0
LINE
  5
144
330
1F
100
AcDbEntity
  8
0
  6
CONTINUOUS
 62
     7
100
AcDbLine
 10
-132.6216001905
 20
139.9993266564
 30
0.0
 11
-132.3485192506
 21
140.3893266564
 31
0.0
  0
LINE
  5
145
330
1F
100
AcDbEntity
  8
0
  6
CONTINUOUS
 62
     7
100
AcDbLine
 10
-132.3485192506
 20
143.6093266564
 30
0.0
 11
-132.6216001905
 21
143.9993266564
 31
0.0
  0
LINE
  5
146
330
1F
100
AcDbEntity
  8
0
  6
CONTINUOUS
 62
     7
100
AcDbLine
 10
-132.6216001905
 20
143.9993266564
 30
0.0
 11
-132.7669477446
 21
143.9993266564
 31
0.0
  0
LINE
  5
147
330
1F
100
AcDbEntity
  8
0
  6
CONTINUOUS
 62
     7
100
AcDbLine
 10
-132.7669477446
 20
139.9993266564
 30
0.0
 11
-132.6216001905
 21
139.9993266564
 31
0.0
  0
LINE
  5
148
330
1F
100
AcDbEntity
  8
0
  6
CONTINUOUS
 62
     7
100
AcDbLine
 10
-131.9300907565
 20
143.9993266564
 30
0.0
 11
-132.0754383107
 21
143.9993266564
 31
0.0
  0
LINE
  5
149
330
1F
100
AcDbEntity
  8
0
  6
CONTINUOUS
 62
     7
100
AcDbLine
 10
-132.0754383107
 20
139.9993266564
 30
0.0
 11
-131.9300907565
 21
139.9993266564
 31
0.0
  0
LINE
  5
14A
330
1F
100
AcDbEntity
  8
0
  6
CONTINUOUS
 62
     7
100
AcDbLine
 10
-131.9300907565
 20
139.9993266564
 30
0.0
 11
-131.6570098166
 21
140.3893266564
 31
0.0
  0
LINE
  5
14B
330
1F
100
AcDbEntity
  8
0
  6
CONTINUOUS
 62
     7
100
AcDbLine
 10
-131.6570098166
 20
143.6093266564
 30
0.0
 11
-131.9300907565
 21
143.9993266564
 31
0.0
  0
LINE
  5
14C
330
1F
100
AcDbEntity
  8
0
  6
CONTINUOUS
 62
     7
100
AcDbLine
 10
-131.2385813225
 20
143.9993266564
 30
0.0
 11
-131.3839288767
 21
143.9993266564
 31
0.0
  0
LINE
  5
14D
330
1F
100
AcDbEntity
  8
0
  6
CONTINUOUS
 62
     7
100
AcDbLine
 10
-131.3839288767
 20
139.9993266564
 30
0.0
 11
-131.2385813225
 21
139.9993266564
 31
0.0
  0
LINE
  5
14E
330
1F
100
AcDbEntity
  8
0
  6
CONTINUOUS
 62
     7
100
AcDbLine
 10
-131.3839288767
 20
143.9993266564
 30
0.0
 11
-131.6570098166
 21
143.6093266564
 31
0.0
  0
LINE
  5
14F
330
1F
100
AcDbEntity
  8
0
  6
CONTINUOUS
 62
     7
100
AcDbLine
 10
-131.6570098166
 20
140.3893266564
 30
0.0
 11
-131.3839288767
 21
139.9993266564
 31
0.0
  0
LINE
  5
150
330
1F
100
AcDbEntity
  8
0
  6
CONTINUOUS
 62
     7
100
AcDbLine
 10
-130.6924194427
 20
143.9993266564
 30
0.0
 11
-130.9655003826
 21
143.6093266564
 31
0.0
  0
LINE
  5
151
330
1F
100
AcDbEntity
  8
0
  6
CONTINUOUS
 62
     7
100
AcDbLine
 10
-130.9655003826
 20
140.3893266564
 30
0.0
 11
-130.6924194427
 21
139.9993266564
 31
0.0
  0
LINE
  5
152
330
1F
100
AcDbEntity
  8
0
  6
CONTINUOUS
 62
     7
100
AcDbLine
 10
-131.2385813225
 20
139.9993266564
 30
0.0
 11
-130.9655003826
 21
140.3893266564
 31
0.0
  0
LINE
  5
153
330
1F
100
AcDbEntity
  8
0
  6
CONTINUOUS
 62
     7
100
AcDbLine
 10
-130.9655003826
 20
143.6093266564
 30
0.0
 11
-131.2385813225
 21
143.9993266564
 31
0.0
  0
LINE
  5
154
330
1F
100
AcDbEntity
  8
0
  6
CONTINUOUS
 62
     7
100
AcDbLine
 10
-130.5470718886
 20
139.9993266564
 30
0.0
 11
-130.2739909487
 21
140.3893266564
 31
0.0
  0
LINE
  5
155
330
1F
100
AcDbEntity
  8
0
  6
CONTINUOUS
 62
     7
100
AcDbLine
 10
-130.2739909487
 20
143.6093266564
 30
0.0
 11
-130.5470718886
 21
143.9993266564
 31
0.0
  0
LINE
  5
156
330
1F
100
AcDbEntity
  8
0
  6
CONTINUOUS
 62
     7
100
AcDbLine
 10
-130.5470718886
 20
143.9993266564
 30
0.0
 11
-130.6924194427
 21
143.9993266564
 31
0.0
  0
LINE
  5
157
330
1F
100
AcDbEntity
  8
0
  6
CONTINUOUS
 62
     7
100
AcDbLine
 10
-130.6924194427
 20
139.9993266564
 30
0.0
 11
-130.5470718886
 21
139.9993266564
 31
0.0
  0
LINE
  5
158
330
1F
100
AcDbEntity
  8
0
  6
CONTINUOUS
 62
     7
100
AcDbLine
 10
-129.8555624546
 20
143.9993266564
 30
0.0
 11
-130.0009100088
 21
143.9993266564
 31
0.0
  0
LINE
  5
159
330
1F
100
AcDbEntity
  8
0
  6
CONTINUOUS
 62
     7
100
AcDbLine
 10
-130.0009100088
 20
139.9993266564
 30
0.0
 11
-129.8555624546
 21
139.9993266564
 31
0.0
  0
LINE
  5
15A
330
1F
100
AcDbEntity
  8
0
  6
CONTINUOUS
 62
     7
100
AcDbLine
 10
-130.0009100088
 20
143.9993266564
 30
0.0
 11
-130.2739909487
 21
143.6093266564
 31
0.0
  0
LINE
  5
15B
330
1F
100
AcDbEntity
  8
0
  6
CONTINUOUS
 62
     7
100
AcDbLine
 10
-130.2739909487
 20
140.3893266564
 30
0.0
 11
-130.0009100088
 21
139.9993266564
 31
0.0
  0
LINE
  5
15C
330
1F
100
AcDbEntity
  8
0
  6
CONTINUOUS
 62
     7
100
AcDbLine
 10
-129.8555624546
 20
139.9993266564
 30
0.0
 11
-129.5824815147
 21
140.3893266564
 31
0.0
  0
LINE
  5
15D
330
1F
100
AcDbEntity
  8
0
  6
CONTINUOUS
 62
     7
100
AcDbLine
 10
-129.5824815147
 20
143.6093266564
 30
0.0
 11
-129.8555624546
 21
143.9993266564
 31
0.0
  0
LINE
  5
15E
330
1F
100
AcDbEntity
  8
0
  6
CONTINUOUS
 62
     7
100
AcDbLine
 10
-129.3094005748
 20
143.9993266564
 30
0.0
 11
-129.5824815147
 21
143.6093266564
 31
0.0
  0
LINE
  5
15F
330
1F
100
AcDbEntity
  8
0
  6
CONTINUOUS
 62
     7
100
AcDbLine
 10
-129.5824815147
 20
140.3893266564
 30
0.0
 11
-129.3094005748
 21
139.9993266564
 31
0.0
  0
LINE
  5
160
330
1F
100
AcDbEntity
  8
0
  6
CONTINUOUS
 62
     7
100
AcDbLine
 10
-128.6178911408
 20
143.9993266564
 30
0.0
 11
-128.8909720807
 21
143.6093266564
 31
0.0
  0
LINE
  5
161
330
1F
100
AcDbEntity
  8
0
  6
CONTINUOUS
 62
     7
100
AcDbLine
 10
-128.8909720807
 20
140.3893266564
 30
0.0
 11
-128.6178911408
 21
139.9993266564
 31
0.0
  0
LINE
  5
162
330
1F
100
AcDbEntity
  8
0
  6
CONTINUOUS
 62
     7
100
AcDbLine
 10
-129.1640530206
 20
143.9993266564
 30
0.0
 11
-129.3094005748
 21
143.9993266564
 31
0.0
  0
LINE
  5
163
330
1F
100
AcDbEntity
  8
0
  6
CONTINUOUS
 62
     7
100
AcDbLine
 10
-129.3094005748
 20
139.9993266564
 30
0.0
 11
-129.1640530206
 21
139.9993266564
 31
0.0
  0
LINE
  5
164
330
1F
100
AcDbEntity
  8
0
  6
CONTINUOUS
 62
     7
100
AcDbLine
 10
-129.1640530206
 20
139.9993266564
 30
0.0
 11
-128.8909720807
 21
140.3893266564
 31
0.0
  0
LINE
  5
165
330
1F
100
AcDbEntity
  8
0
  6
CONTINUOUS
 62
     7
100
AcDbLine
 10
-128.8909720807
 20
143.6093266564
 30
0.0
 11
-129.1640530206
 21
143.9993266564
 31
0.0
  0
LINE
  5
166
330
1F
100
AcDbEntity
  8
0
  6
CONTINUOUS
 62
     7
100
AcDbLine
 10
-128.4725435867
 20
139.9993266564
 30
0.0
 11
-128.1994626468
 21
140.3893266564
 31
0.0
  0
LINE
  5
167
330
1F
100
AcDbEntity
  8
0
  6
CONTINUOUS
 62
     7
100
AcDbLine
 10
-128.1994626468
 20
143.6093266564
 30
0.0
 11
-128.4725435867
 21
143.9993266564
 31
0.0
  0
LINE
  5
168
330
1F
100
AcDbEntity
  8
0
  6
CONTINUOUS
 62
     7
100
AcDbLine
 10
-128.4725435867
 20
143.9993266564
 30
0.0
 11
-128.6178911408
 21
143.9993266564
 31
0.0
  0
LINE
  5
169
330
1F
100
AcDbEntity
  8
0
  6
CONTINUOUS
 62
     7
100
AcDbLine
 10
-128.6178911408
 20
139.9993266564
 30
0.0
 11
-128.4725435867
 21
139.9993266564
 31
0.0
  0
LINE
  5
16A
330
1F
100
AcDbEntity
  8
0
  6
CONTINUOUS
 62
     7
100
AcDbLine
 10
-127.9263817069
 20
143.9993266564
 30
0.0
 11
-128.1994626468
 21
143.6093266564
 31
0.0
  0
LINE
  5
16B
330
1F
100
AcDbEntity
  8
0
  6
CONTINUOUS
 62
     7
100
AcDbLine
 10
-128.1994626468
 20
140.3893266564
 30
0.0
 11
-127.9263817069
 21
139.9993266564
 31
0.0
  0
LINE
  5
16C
330
1F
100
AcDbEntity
  8
0
  6
CONTINUOUS
 62
     7
100
AcDbLine
 10
-127.7810341527
 20
143.9993266564
 30
0.0
 11
-127.9263817069
 21
143.9993266564
 31
0.0
  0
LINE
  5
16D
330
1F
100
AcDbEntity
  8
0
  6
CONTINUOUS
 62
     7
100
AcDbLine
 10
-127.9263817069
 20
139.9993266564
 30
0.0
 11
-127.7810341527
 21
139.9993266564
 31
0.0
  0
LINE
  5
16E
330
1F
100
AcDbEntity
  8
0
  6
CONTINUOUS
 62
     7
100
AcDbLine
 10
-127.7810341527
 20
139.9993266564
 30
0.0
 11
-127.5079532128
 21
140.3893266564
 31
0.0
  0
LINE
  5
16F
330
1F
100
AcDbEntity
  8
0
  6
CONTINUOUS
 62
     7
100
AcDbLine
 10
-127.5079532128
 20
143.6093266564
 30
0.0
 11
-127.7810341527
 21
143.9993266564
 31
0.0
  0
LINE
  5
170
330
1F
100
AcDbEntity
  8
0
  6
CONTINUOUS
 62
     7
100
AcDbLine
 10
-127.2348722729
 20
143.9993266564
 30
0.0
 11
-127.5079532128
 21
143.6093266564
 31
0.0
  0
LINE
  5
171
330
1F
100
AcDbEntity
  8
0
  6
CONTINUOUS
 62
     7
100
AcDbLine
 10
-127.5079532128
 20
140.3893266564
 30
0.0
 11
-127.2348722729
 21
139.9993266564
 31
0.0
  0
LINE
  5
172
330
1F
100
AcDbEntity
  8
0
  6
CONTINUOUS
 62
     7
100
AcDbLine
 10
-127.0895247188
 20
139.9993266564
 30
0.0
 11
-126.8164437789
 21
140.3893266564
 31
0.0
  0
LINE
  5
173
330
1F
100
AcDbEntity
  8
0
  6
CONTINUOUS
 62
     7
100
AcDbLine
 10
-126.8164437789
 20
143.6093266564
 30
0.0
 11
-127.0895247188
 21
143.9993266564
 31
0.0
  0
LINE
  5
174
330
1F
100
AcDbEntity
  8
0
  6
CONTINUOUS
 62
     7
100
AcDbLine
 10
-127.0895247188
 20
143.9993266564
 30
0.0
 11
-127.2348722729
 21
143.9993266564
 31
0.0
  0
LINE
  5
175
330
1F
100
AcDbEntity
  8
0
  6
CONTINUOUS
 62
     7
100
AcDbLine
 10
-127.2348722729
 20
139.9993266564
 30
0.0
 11
-127.0895247188
 21
139.9993266564
 31
0.0
  0
LINE
  5
176
330
1F
100
AcDbEntity
  8
0
  6
CONTINUOUS
 62
     7
100
AcDbLine
 10
-126.543362839
 20
143.9993266564
 30
0.0
 11
-126.8164437789
 21
143.6093266564
 31
0.0
  0
LINE
  5
177
330
1F
100
AcDbEntity
  8
0
  6
CONTINUOUS
 62
     7
100
AcDbLine
 10
-126.8164437789
 20
140.3893266564
 30
0.0
 11
-126.543362839
 21
139.9993266564
 31
0.0
  0
LINE
  5
178
330
1F
100
AcDbEntity
  8
0
  6
CONTINUOUS
 62
     7
100
AcDbLine
 10
-126.3980152848
 20
139.9993266564
 30
0.0
 11
-126.1249343449
 21
140.3893266564
 31
0.0
  0
LINE
  5
179
330
1F
100
AcDbEntity
  8
0
  6
CONTINUOUS
 62
     7
100
AcDbLine
 10
-126.1249343449
 20
143.6093266564
 30
0.0
 11
-126.3980152848
 21
143.9993266564
 31
0.0
  0
LINE
  5
17A
330
1F
100
AcDbEntity
  8
0
  6
CONTINUOUS
 62
     7
100
AcDbLine
 10
-126.3980152848
 20
143.9993266564
 30
0.0
 11
-126.543362839
 21
143.9993266564
 31
0.0
  0
LINE
  5
17B
330
1F
100
AcDbEntity
  8
0
  6
CONTINUOUS
 62
     7
100
AcDbLine
 10
-126.543362839
 20
139.9993266564
 30
0.0
 11
-126.3980152848
 21
139.9993266564
 31
0.0
  0
LINE
  5
17C
330
1F
100
AcDbEntity
  8
0
  6
CONTINUOUS
 62
     7
100
AcDbLine
 10
-125.851853405
 20
143.9993266564
 30
0.0
 11
-126.1249343449
 21
143.6093266564
 31
0.0
  0
LINE
  5
17D
330
1F
100
AcDbEntity
  8
0
  6
CONTINUOUS
 62
     7
100
AcDbLine
 10
-126.1249343449
 20
140.3893266564
 30
0.0
 11
-125.851853405
 21
139.9993266564
 31
0.0
  0
LINE
  5
17E
330
1F
100
AcDbEntity
  8
0
  6
CONTINUOUS
 62
     7
100
AcDbLine
 10
-125.7065058508
 20
143.9993266564
 30
0.0
 11
-125.851853405
 21
143.9993266564
 31
0.0
  0
LINE
  5
17F
330
1F
100
AcDbEntity
  8
0
  6
CONTINUOUS
 62
     7
100
AcDbLine
 10
-125.851853405
 20
139.9993266564
 30
0.0
 11
-125.7065058508
 21
139.9993266564
 31
0.0
  0
LINE
  5
180
330
1F
100
AcDbEntity
  8
0
  6
CONTINUOUS
 62
     7
100
AcDbLine
 10
-125.7065058508
 20
139.9993266564
 30
0.0
 11
-125.4334249109
 21
140.3893266564
 31
0.0
  0
LINE
  5
181
330
1F
100
AcDbEntity
  8
0
  6
CONTINUOUS
 62
     7
100
AcDbLine
 10
-125.4334249109
 20
143.6093266564
 30
0.0
 11
-125.7065058508
 21
143.9993266564
 31
0.0
  0
LINE
  5
182
330
1F
100
AcDbEntity
  8
0
  6
CONTINUOUS
 62
     7
100
AcDbLine
 10
-125.160343971
 20
143.9993266564
 30
0.0
 11
-125.4334249109
 21
143.6093266564
 31
0.0
  0
LINE
  5
183
330
1F
100
AcDbEntity
  8
0
  6
CONTINUOUS
 62
     7
100
AcDbLine
 10
-125.4334249109
 20
140.3893266564
 30
0.0
 11
-125.160343971
 21
139.9993266564
 31
0.0
  0
LINE
  5
184
330
1F
100
AcDbEntity
  8
0
  6
CONTINUOUS
 62
     7
100
AcDbLine
 10
-125.0149964169
 20
143.9993266564
 30
0.0
 11
-125.160343971
 21
143.9993266564
 31
0.0
  0
LINE
  5
185
330
1F
100
AcDbEntity
  8
0
  6
CONTINUOUS
 62
     7
100
AcDbLine
 10
-125.160343971
 20
139.9993266564
 30
0.0
 11
-125.0149964169
 21
139.9993266564
 31
0.0
  0
LINE
  5
186
330
1F
100
AcDbEntity
  8
0
  6
CONTINUOUS
 62
     7
100
AcDbLine
 10
-125.0149964169
 20
139.9993266564
 30
0.0
 11
-124.741915477
 21
140.3893266564
 31
0.0
  0
LINE
  5
187
330
1F
100
AcDbEntity
  8
0
  6
CONTINUOUS
 62
     7
100
AcDbLine
 10
-124.741915477
 20
143.6093266564
 30
0.0
 11
-125.0149964169
 21
143.9993266564
 31
0.0
  0
LINE
  5
188
330
1F
100
AcDbEntity
  8
0
  6
CONTINUOUS
 62
     7
100
AcDbLine
 10
-124.4688345371
 20
143.9993266564
 30
0.0
 11
-124.741915477
 21
143.6093266564
 31
0.0
  0
LINE
  5
189
330
1F
100
AcDbEntity
  8
0
  6
CONTINUOUS
 62
     7
100
AcDbLine
 10
-124.741915477
 20
140.3893266564
 30
0.0
 11
-124.4688345371
 21
139.9993266564
 31
0.0
  0
LINE
  5
18A
330
1F
100
AcDbEntity
  8
0
  6
CONTINUOUS
 62
     7
100
AcDbLine
 10
-124.3234869829
 20
143.9993266564
 30
0.0
 11
-124.4688345371
 21
143.9993266564
 31
0.0
  0
LINE
  5
18B
330
1F
100
AcDbEntity
  8
0
  6
CONTINUOUS
 62
     7
100
AcDbLine
 10
-124.4688345371
 20
139.9993266564
 30
0.0
 11
-124.3234869829
 21
139.9993266564
 31
0.0
  0
LINE
  5
18C
330
1F
100
AcDbEntity
  8
0
  6
CONTINUOUS
 62
     7
100
AcDbLine
 10
-124.3234869829
 20
139.9993266564
 30
0.0
 11
-124.050406043
 21
140.3893266564
 31
0.0
  0
LINE
  5
18D
330
1F
100
AcDbEntity
  8
0
  6
CONTINUOUS
 62
     7
100
AcDbLine
 10
-124.050406043
 20
143.6093266564
 30
0.0
 11
-124.3234869829
 21
143.9993266564
 31
0.0
  0
LINE
  5
18E
330
1F
100
AcDbEntity
  8
0
  6
CONTINUOUS
 62
     7
100
AcDbLine
 10
-123.7773251031
 20
143.9993266564
 30
0.0
 11
-124.050406043
 21
143.6093266564
 31
0.0
  0
LINE
  5
18F
330
1F
100
AcDbEntity
  8
0
  6
CONTINUOUS
 62
     7
100
AcDbLine
 10
-124.050406043
 20
140.3893266564
 30
0.0
 11
-123.7773251031
 21
139.9993266564
 31
0.0
  0
LINE
  5
190
330
1F
100
AcDbEntity
  8
0
  6
CONTINUOUS
 62
     7
100
AcDbLine
 10
-123.6319775489
 20
139.9993266564
 30
0.0
 11
-123.358896609
 21
140.3893266564
 31
0.0
  0
LINE
  5
191
330
1F
100
AcDbEntity
  8
0
  6
CONTINUOUS
 62
     7
100
AcDbLine
 10
-123.358896609
 20
143.6093266564
 30
0.0
 11
-123.6319775489
 21
143.9993266564
 31
0.0
  0
LINE
  5
192
330
1F
100
AcDbEntity
  8
0
  6
CONTINUOUS
 62
     7
100
AcDbLine
 10
-123.6319775489
 20
143.9993266564
 30
0.0
 11
-123.7773251031
 21
143.9993266564
 31
0.0
  0
LINE
  5
193
330
1F
100
AcDbEntity
  8
0
  6
CONTINUOUS
 62
     7
100
AcDbLine
 10
-123.7773251031
 20
139.9993266564
 30
0.0
 11
-123.6319775489
 21
139.9993266564
 31
0.0
  0
LINE
  5
194
330
1F
100
AcDbEntity
  8
0
  6
CONTINUOUS
 62
     7
100
AcDbLine
 10
-122.940468115
 20
139.9993266564
 30
0.0
 11
-122.6673871751
 21
140.3893266564
 31
0.0
  0
LINE
  5
195
330
1F
100
AcDbEntity
  8
0
  6
CONTINUOUS
 62
     7
100
AcDbLine
 10
-122.6673871751
 20
143.6093266564
 30
0.0
 11
-122.940468115
 21
143.9993266564
 31
0.0
  0
LINE
  5
196
330
1F
100
AcDbEntity
  8
0
  6
CONTINUOUS
 62
     7
100
AcDbLine
 10
-123.0858156691
 20
143.9993266564
 30
0.0
 11
-123.358896609
 21
143.6093266564
 31
0.0
  0
LINE
  5
197
330
1F
100
AcDbEntity
  8
0
  6
CONTINUOUS
 62
     7
100
AcDbLine
 10
-123.358896609
 20
140.3893266564
 30
0.0
 11
-123.0858156691
 21
139.9993266564
 31
0.0
  0
LINE
  5
198
330
1F
100
AcDbEntity
  8
0
  6
CONTINUOUS
 62
     7
100
AcDbLine
 10
-122.940468115
 20
143.9993266564
 30
0.0
 11
-123.0858156691
 21
143.9993266564
 31
0.0
  0
LINE
  5
199
330
1F
100
AcDbEntity
  8
0
  6
CONTINUOUS
 62
     7
100
AcDbLine
 10
-123.0858156691
 20
139.9993266564
 30
0.0
 11
-122.940468115
 21
139.9993266564
 31
0.0
  0
LINE
  5
19A
330
1F
100
AcDbEntity
  8
0
  6
CONTINUOUS
 62
     7
100
AcDbLine
 10
-122.3943062352
 20
143.9993266564
 30
0.0
 11
-122.6673871751
 21
143.6093266564
 31
0.0
  0
LINE
  5
19B
330
1F
100
AcDbEntity
  8
0
  6
CONTINUOUS
 62
     7
100
AcDbLine
 10
-122.6673871751
 20
140.3893266564
 30
0.0
 11
-122.3943062352
 21
139.9993266564
 31
0.0
  0
LINE
  5
19C
330
1F
100
AcDbEntity
  8
0
  6
CONTINUOUS
 62
     7
100
AcDbLine
 10
-121.7027968012
 20
143.9993266564
 30
0.0
 11
-121.9758777411
 21
143.6093266564
 31
0.0
  0
LINE
  5
19D
330
1F
100
AcDbEntity
  8
0
  6
CONTINUOUS
 62
     7
100
AcDbLine
 10
-121.9758777411
 20
140.3893266564
 30
0.0
 11
-121.7027968012
 21
139.9993266564
 31
0.0
  0
LINE
  5
19E
330
1F
100
AcDbEntity
  8
0
  6
CONTINUOUS
 62
     7
100
AcDbLine
 10
-122.248958681
 20
143.9993266564
 30
0.0
 11
-122.3943062352
 21
143.9993266564
 31
0.0
  0
LINE
  5
19F
330
1F
100
AcDbEntity
  8
0
  6
CONTINUOUS
 62
     7
100
AcDbLine
 10
-122.3943062352
 20
139.9993266564
 30
0.0
 11
-122.248958681
 21
139.9993266564
 31
0.0
  0
LINE
  5
1A0
330
1F
100
AcDbEntity
  8
0
  6
CONTINUOUS
 62
     7
100
AcDbLine
 10
-122.248958681
 20
139.9993266564
 30
0.0
 11
-121.9758777411
 21
140.3893266564
 31
0.0
  0
LINE
  5
1A1
330
1F
100
AcDbEntity
  8
0
  6
CONTINUOUS
 62
     7
100
AcDbLine
 10
-121.9758777411
 20
143.6093266564
 30
0.0
 11
-122.248958681
 21
143.9993266564
 31
0.0
  0
LINE
  5
1A2
330
1F
100
AcDbEntity
  8
0
  6
CONTINUOUS
 62
     7
100
AcDbLine
 10
-121.5574492471
 20
139.9993266564
 30
0.0
 11
-121.2843683072
 21
140.3893266564
 31
0.0
  0
LINE
  5
1A3
330
1F
100
AcDbEntity
  8
0
  6
CONTINUOUS
 62
     7
100
AcDbLine
 10
-121.2843683072
 20
143.6093266564
 30
0.0
 11
-121.5574492471
 21
143.9993266564
 31
0.0
  0
LINE
  5
1A4
330
1F
100
AcDbEntity
  8
0
  6
CONTINUOUS
 62
     7
100
AcDbLine
 10
-121.5574492471
 20
143.9993266564
 30
0.0
 11
-121.7027968012
 21
143.9993266564
 31
0.0
  0
LINE
  5
1A5
330
1F
100
AcDbEntity
  8
0
  6
CONTINUOUS
 62
     7
100
AcDbLine
 10
-121.7027968012
 20
139.9993266564
 30
0.0
 11
-121.5574492471
 21
139.9993266564
 31
0.0
  0
LINE
  5
1A6
330
1F
100
AcDbEntity
  8
0
  6
CONTINUOUS
 62
     7
100
AcDbLine
 10
-121.0112873673
 20
143.9993266564
 30
0.0
 11
-121.2843683072
 21
143.6093266564
 31
0.0
  0
LINE
  5
1A7
330
1F
100
AcDbEntity
  8
0
  6
CONTINUOUS
 62
     7
100
AcDbLine
 10
-121.2843683072
 20
140.3893266564
 30
0.0
 11
-121.0112873673
 21
139.9993266564
 31
0.0
  0
LINE
  5
1A8
330
1F
100
AcDbEntity
  8
0
  6
CONTINUOUS
 62
     7
100
AcDbLine
 10
-120.8659398131
 20
143.9993266564
 30
0.0
 11
-121.0112873673
 21
143.9993266564
 31
0.0
  0
LINE
  5
1A9
330
1F
100
AcDbEntity
  8
0
  6
CONTINUOUS
 62
     7
100
AcDbLine
 10
-121.0112873673
 20
139.9993266564
 30
0.0
 11
-120.8659398131
 21
139.9993266564
 31
0.0
  0
LINE
  5
1AA
330
1F
100
AcDbEntity
  8
0
  6
CONTINUOUS
 62
     7
100
AcDbLine
 10
-120.3197779333
 20
143.9993266564
 30
0.0
 11
-120.5928588732
 21
143.6093266564
 31
0.0
  0
LINE
  5
1AB
330
1F
100
AcDbEntity
  8
0
  6
CONTINUOUS
 62
     7
100
AcDbLine
 10
-120.5928588732
 20
140.3893266564
 30
0.0
 11
-120.3197779333
 21
139.9993266564
 31
0.0
  0
LINE
  5
1AC
330
1F
100
AcDbEntity
  8
0
  6
CONTINUOUS
 62
     7
100
AcDbLine
 10
-120.8659398131
 20
139.9993266564
 30
0.0
 11
-120.5928588732
 21
140.3893266564
 31
0.0
  0
LINE
  5
1AD
330
1F
100
AcDbEntity
  8
0
  6
CONTINUOUS
 62
     7
100
AcDbLine
 10
-120.5928588732
 20
143.6093266564
 30
0.0
 11
-120.8659398131
 21
143.9993266564
 31
0.0
  0
LINE
  5
1AE
330
1F
100
AcDbEntity
  8
0
  6
CONTINUOUS
 62
     7
100
AcDbLine
 10
-120.1744303791
 20
143.9993266564
 30
0.0
 11
-120.3197779333
 21
143.9993266564
 31
0.0
  0
LINE
  5
1AF
330
1F
100
AcDbEntity
  8
0
  6
CONTINUOUS
 62
     7
100
AcDbLine
 10
-120.3197779333
 20
139.9993266564
 30
0.0
 11
-120.1744303791
 21
139.9993266564
 31
0.0
  0
LINE
  5
1B0
330
1F
100
AcDbEntity
  8
0
  6
CONTINUOUS
 62
     7
100
AcDbLine
 10
-120.1744303791
 20
139.9993266564
 30
0.0
 11
-119.9013494392
 21
140.3893266564
 31
0.0
  0
LINE
  5
1B1
330
1F
100
AcDbEntity
  8
0
  6
CONTINUOUS
 62
     7
100
AcDbLine
 10
-119.9013494392
 20
143.6093266564
 30
0.0
 11
-120.1744303791
 21
143.9993266564
 31
0.0
  0
LINE
  5
1B2
330
1F
100
AcDbEntity
  8
0
  6
CONTINUOUS
 62
     7
100
AcDbLine
 10
-119.4829209452
 20
139.9993266564
 30
0.0
 11
-119.2098400053
 21
140.3893266564
 31
0.0
  0
LINE
  5
1B3
330
1F
100
AcDbEntity
  8
0
  6
CONTINUOUS
 62
     7
100
AcDbLine
 10
-119.2098400053
 20
143.6093266564
 30
0.0
 11
-119.4829209452
 21
143.9993266564
 31
0.0
  0
LINE
  5
1B4
330
1F
100
AcDbEntity
  8
0
  6
CONTINUOUS
 62
     7
100
AcDbLine
 10
-119.4829209452
 20
143.9993266564
 30
0.0
 11
-119.6282684993
 21
143.9993266564
 31
0.0
  0
LINE
  5
1B5
330
1F
100
AcDbEntity
  8
0
  6
CONTINUOUS
 62
     7
100
AcDbLine
 10
-119.6282684993
 20
139.9993266564
 30
0.0
 11
-119.4829209452
 21
139.9993266564
 31
0.0
  0
LINE
  5
1B6
330
1F
100
AcDbEntity
  8
0
  6
CONTINUOUS
 62
     7
100
AcDbLine
 10
-119.6282684993
 20
143.9993266564
 30
0.0
 11
-119.9013494392
 21
143.6093266564
 31
0.0
  0
LINE
  5
1B7
330
1F
100
AcDbEntity
  8
0
  6
CONTINUOUS
 62
     7
100
AcDbLine
 10
-119.9013494392
 20
140.3893266564
 30
0.0
 11
-119.6282684993
 21
139.9993266564
 31
0.0
  0
LINE
  5
1B8
330
1F
100
AcDbEntity
  8
0
  6
CONTINUOUS
 62
     7
100
AcDbLine
 10
-118.7914115112
 20
143.9993266564
 30
0.0
 11
-118.9367590654
 21
143.9993266564
 31
0.0
  0
LINE
  5
1B9
330
1F
100
AcDbEntity
  8
0
  6
CONTINUOUS
 62
     7
100
AcDbLine
 10
-118.9367590654
 20
139.9993266564
 30
0.0
 11
-118.7914115112
 21
139.9993266564
 31
0.0
  0
LINE
  5
1BA
330
1F
100
AcDbEntity
  8
0
  6
CONTINUOUS
 62
     7
100
AcDbLine
 10
-118.9367590654
 20
143.9993266564
 30
0.0
 11
-119.2098400053
 21
143.6093266564
 31
0.0
  0
LINE
  5
1BB
330
1F
100
AcDbEntity
  8
0
  6
CONTINUOUS
 62
     7
100
AcDbLine
 10
-119.2098400053
 20
140.3893266564
 30
0.0
 11
-118.9367590654
 21
139.9993266564
 31
0.0
  0
LINE
  5
1BC
330
1F
100
AcDbEntity
  8
0
  6
CONTINUOUS
 62
     7
100
AcDbLine
 10
-118.7914115112
 20
139.9993266564
 30
0.0
 11
-118.5183305713
 21
140.3893266564
 31
0.0
  0
LINE
  5
1BD
330
1F
100
AcDbEntity
  8
0
  6
CONTINUOUS
 62
     7
100
AcDbLine
 10
-118.5183305713
 20
143.6093266564
 30
0.0
 11
-118.7914115112
 21
143.9993266564
 31
0.0
  0
LINE
  5
1BE
330
1F
100
AcDbEntity
  8
0
  6
CONTINUOUS
 62
     7
100
AcDbLine
 10
-118.2452496314
 20
143.9993266564
 30
0.0
 11
-118.5183305713
 21
143.6093266564
 31
0.0
  0
LINE
  5
1BF
330
1F
100
AcDbEntity
  8
0
  6
CONTINUOUS
 62
     7
100
AcDbLine
 10
-118.5183305713
 20
140.3893266564
 30
0.0
 11
-118.2452496314
 21
139.9993266564
 31
0.0
  0
LINE
  5
1C0
330
1F
100
AcDbEntity
  8
0
  6
CONTINUOUS
 62
     7
100
AcDbLine
 10
-118.0999020772
 20
139.9993266564
 30
0.0
 11
-117.8268211373
 21
140.3893266564
 31
0.0
  0
LINE
  5
1C1
330
1F
100
AcDbEntity
  8
0
  6
CONTINUOUS
 62
     7
100
AcDbLine
 10
-117.8268211373
 20
143.6093266564
 30
0.0
 11
-118.0999020772
 21
143.9993266564
 31
0.0
  0
LINE
  5
1C2
330
1F
100
AcDbEntity
  8
0
  6
CONTINUOUS
 62
     7
100
AcDbLine
 10
-118.0999020772
 20
143.9993266564
 30
0.0
 11
-118.2452496314
 21
143.9993266564
 31
0.0
  0
LINE
  5
1C3
330
1F
100
AcDbEntity
  8
0
  6
CONTINUOUS
 62
     7
100
AcDbLine
 10
-118.2452496314
 20
139.9993266564
 30
0.0
 11
-118.0999020772
 21
139.9993266564
 31
0.0
  0
LINE
  5
1C4
330
1F
100
AcDbEntity
  8
0
  6
CONTINUOUS
 62
     7
100
AcDbLine
 10
-117.5537401974
 20
143.9993266564
 30
0.0
 11
-117.8268211373
 21
143.6093266564
 31
0.0
  0
LINE
  5
1C5
330
1F
100
AcDbEntity
  8
0
  6
CONTINUOUS
 62
     7
100
AcDbLine
 10
-117.8268211373
 20
140.3893266564
 30
0.0
 11
-117.5537401974
 21
139.9993266564
 31
0.0
  0
LINE
  5
1C6
330
1F
100
AcDbEntity
  8
0
  6
CONTINUOUS
 62
     7
100
AcDbLine
 10
-117.4083926433
 20
143.9993266564
 30
0.0
 11
-117.5537401974
 21
143.9993266564
 31
0.0
  0
LINE
  5
1C7
330
1F
100
AcDbEntity
  8
0
  6
CONTINUOUS
 62
     7
100
AcDbLine
 10
-117.5537401974
 20
139.9993266564
 30
0.0
 11
-117.4083926433
 21
139.9993266564
 31
0.0
  0
LINE
  5
1C8
330
1F
100
AcDbEntity
  8
0
  6
CONTINUOUS
 62
     7
100
AcDbLine
 10
-116.8622307635
 20
143.9993266564
 30
0.0
 11
-117.1353117034
 21
143.6093266564
 31
0.0
  0
LINE
  5
1C9
330
1F
100
AcDbEntity
  8
0
  6
CONTINUOUS
 62
     7
100
AcDbLine
 10
-117.1353117034
 20
140.3893266564
 30
0.0
 11
-116.8622307635
 21
139.9993266564
 31
0.0
  0
LINE
  5
1CA
330
1F
100
AcDbEntity
  8
0
  6
CONTINUOUS
 62
     7
100
AcDbLine
 10
-117.4083926433
 20
139.9993266564
 30
0.0
 11
-117.1353117034
 21
140.3893266564
 31
0.0
  0
LINE
  5
1CB
330
1F
100
AcDbEntity
  8
0
  6
CONTINUOUS
 62
     7
100
AcDbLine
 10
-117.1353117034
 20
143.6093266564
 30
0.0
 11
-117.4083926433
 21
143.9993266564
 31
0.0
  0
LINE
  5
1CC
330
1F
100
AcDbEntity
  8
0
  6
CONTINUOUS
 62
     7
100
AcDbLine
 10
-116.7168832093
 20
139.9993266564
 30
0.0
 11
-116.4438022694
 21
140.3893266564
 31
0.0
  0
LINE
  5
1CD
330
1F
100
AcDbEntity
  8
0
  6
CONTINUOUS
 62
     7
100
AcDbLine
 10
-116.4438022694
 20
143.6093266564
 30
0.0
 11
-116.7168832093
 21
143.9993266564
 31
0.0
  0
LINE
  5
1CE
330
1F
100
AcDbEntity
  8
0
  6
CONTINUOUS
 62
     7
100
AcDbLine
 10
-116.7168832093
 20
143.9993266564
 30
0.0
 11
-116.8622307635
 21
143.9993266564
 31
0.0
  0
LINE
  5
1CF
330
1F
100
AcDbEntity
  8
0
  6
CONTINUOUS
 62
     7
100
AcDbLine
 10
-116.8622307635
 20
139.9993266564
 30
0.0
 11
-116.7168832093
 21
139.9993266564
 31
0.0
  0
LINE
  5
1D0
330
1F
100
AcDbEntity
  8
0
  6
CONTINUOUS
 62
     7
100
AcDbLine
 10
-116.1707213295
 20
143.9993266564
 30
0.0
 11
-116.4438022694
 21
143.6093266564
 31
0.0
  0
LINE
  5
1D1
330
1F
100
AcDbEntity
  8
0
  6
CONTINUOUS
 62
     7
100
AcDbLine
 10
-116.4438022694
 20
140.3893266564
 30
0.0
 11
-116.1707213295
 21
139.9993266564
 31
0.0
  0
LINE
  5
1D2
330
1F
100
AcDbEntity
  8
0
  6
CONTINUOUS
 62
     7
100
AcDbLine
 10
-116.0253737754
 20
139.9993266564
 30
0.0
 11
-115.7522928355
 21
140.3893266564
 31
0.0
  0
LINE
  5
1D3
330
1F
100
AcDbEntity
  8
0
  6
CONTINUOUS
 62
     7
100
AcDbLine
 10
-115.7522928355
 20
143.6093266564
 30
0.0
 11
-116.0253737754
 21
143.9993266564
 31
0.0
  0
LINE
  5
1D4
330
1F
100
AcDbEntity
  8
0
  6
CONTINUOUS
 62
     7
100
AcDbLine
 10
-116.0253737754
 20
143.9993266564
 30
0.0
 11
-116.1707213295
 21
143.9993266564
 31
0.0
  0
LINE
  5
1D5
330
1F
100
AcDbEntity
  8
0
  6
CONTINUOUS
 62
     7
100
AcDbLine
 10
-116.1707213295
 20
139.9993266564
 30
0.0
 11
-116.0253737754
 21
139.9993266564
 31
0.0
  0
LINE
  5
1D6
330
1F
100
AcDbEntity
  8
0
  6
CONTINUOUS
 62
     7
100
AcDbLine
 10
-115.3338643414
 20
143.9993266564
 30
0.0
 11
-115.4792118956
 21
143.9993266564
 31
0.0
  0
LINE
  5
1D7
330
1F
100
AcDbEntity
  8
0
  6
CONTINUOUS
 62
     7
100
AcDbLine
 10
-115.4792118956
 20
139.9993266564
 30
0.0
 11
-115.3338643414
 21
139.9993266564
 31
0.0
  0
LINE
  5
1D8
330
1F
100
AcDbEntity
  8
0
  6
CONTINUOUS
 62
     7
100
AcDbLine
 10
-115.4792118956
 20
143.9993266564
 30
0.0
 11
-115.7522928355
 21
143.6093266564
 31
0.0
  0
LINE
  5
1D9
330
1F
100
AcDbEntity
  8
0
  6
CONTINUOUS
 62
     7
100
AcDbLine
 10
-115.7522928355
 20
140.3893266564
 30
0.0
 11
-115.4792118956
 21
139.9993266564
 31
0.0
  0
LINE
  5
1DA
330
1F
100
AcDbEntity
  8
0
  6
CONTINUOUS
 62
     7
100
AcDbLine
 10
-114.7877024616
 20
143.9993266564
 30
0.0
 11
-115.0607834015
 21
143.6093266564
 31
0.0
  0
LINE
  5
1DB
330
1F
100
AcDbEntity
  8
0
  6
CONTINUOUS
 62
     7
100
AcDbLine
 10
-115.0607834015
 20
140.3893266564
 30
0.0
 11
-114.7877024616
 21
139.9993266564
 31
0.0
  0
LINE
  5
1DC
330
1F
100
AcDbEntity
  8
0
  6
CONTINUOUS
 62
     7
100
AcDbLine
 10
-115.3338643414
 20
139.9993266564
 30
0.0
 11
-115.0607834015
 21
140.3893266564
 31
0.0
  0
LINE
  5
1DD
330
1F
100
AcDbEntity
  8
0
  6
CONTINUOUS
 62
     7
100
AcDbLine
 10
-115.0607834015
 20
143.6093266564
 30
0.0
 11
-115.3338643414
 21
143.9993266564
 31
0.0
  0
LINE
  5
1DE
330
1F
100
AcDbEntity
  8
0
  6
CONTINUOUS
 62
     7
100
AcDbLine
 10
-114.6423549074
 20
143.9993266564
 30
0.0
 11
-114.7877024616
 21
143.9993266564
 31
0.0
  0
LINE
  5
1DF
330
1F
100
AcDbEntity
  8
0
  6
CONTINUOUS
 62
     7
100
AcDbLine
 10
-114.7877024616
 20
139.9993266564
 30
0.0
 11
-114.6423549074
 21
139.9993266564
 31
0.0
  0
LINE
  5
1E0
330
1F
100
AcDbEntity
  8
0
  6
CONTINUOUS
 62
     7
100
AcDbLine
 10
-114.6423549074
 20
139.9993266564
 30
0.0
 11
-114.3692739675
 21
140.3893266564
 31
0.0
  0
LINE
  5
1E1
330
1F
100
AcDbEntity
  8
0
  6
CONTINUOUS
 62
     7
100
AcDbLine
 10
-114.3692739675
 20
143.6093266564
 30
0.0
 11
-114.6423549074
 21
143.9993266564
 31
0.0
  0
LINE
  5
1E2
330
1F
100
AcDbEntity
  8
0
  6
CONTINUOUS
 62
     7
100
AcDbLine
 10
-114.0961930276
 20
143.9993266564
 30
0.0
 11
-114.3692739675
 21
143.6093266564
 31
0.0
  0
LINE
  5
1E3
330
1F
100
AcDbEntity
  8
0
  6
CONTINUOUS
 62
     7
100
AcDbLine
 10
-114.3692739675
 20
140.3893266564
 30
0.0
 11
-114.0961930276
 21
139.9993266564
 31
0.0
  0
LINE
  5
1E4
330
1F
100
AcDbEntity
  8
0
  6
CONTINUOUS
 62
     7
100
AcDbLine
 10
-113.9508454735
 20
143.9993266564
 30
0.0
 11
-114.0961930276
 21
143.9993266564
 31
0.0
  0
LINE
  5
1E5
330
1F
100
AcDbEntity
  8
0
  6
CONTINUOUS
 62
     7
100
AcDbLine
 10
-114.0961930276
 20
139.9993266564
 30
0.0
 11
-113.9508454735
 21
139.9993266564
 31
0.0
  0
LINE
  5
1E6
330
1F
100
AcDbEntity
  8
0
  6
CONTINUOUS
 62
     7
100
AcDbLine
 10
-113.9508454735
 20
139.9993266564
 30
0.0
 11
-113.6777645336
 21
140.3893266564
 31
0.0
  0
LINE
  5
1E7
330
1F
100
AcDbEntity
  8
0
  6
CONTINUOUS
 62
     7
100
AcDbLine
 10
-113.6777645336
 20
143.6093266564
 30
0.0
 11
-113.9508454735
 21
143.9993266564
 31
0.0
  0
LINE
  5
1E8
330
1F
100
AcDbEntity
  8
0
  6
CONTINUOUS
 62
     7
100
AcDbLine
 10
-113.4046835937
 20
143.9993266564
 30
0.0
 11
-113.6777645336
 21
143.6093266564
 31
0.0
  0
LINE
  5
1E9
330
1F
100
AcDbEntity
  8
0
  6
CONTINUOUS
 62
     7
100
AcDbLine
 10
-113.6777645336
 20
140.3893266564
 30
0.0
 11
-113.4046835937
 21
139.9993266564
 31
0.0
  0
LINE
  5
1EA
330
1F
100
AcDbEntity
  8
0
  6
CONTINUOUS
 62
     7
100
AcDbLine
 10
-113.2593360395
 20
139.9993266564
 30
0.0
 11
-112.9862550996
 21
140.3893266564
 31
0.0
  0
LINE
  5
1EB
330
1F
100
AcDbEntity
  8
0
  6
CONTINUOUS
 62
     7
100
AcDbLine
 10
-112.9862550996
 20
143.6093266564
 30
0.0
 11
-113.2593360395
 21
143.9993266564
 31
0.0
  0
LINE
  5
1EC
330
1F
100
AcDbEntity
  8
0
  6
CONTINUOUS
 62
     7
100
AcDbLine
 10
-112.7131741597
 20
143.9993266564
 30
0.0
 11
-112.9862550996
 21
143.6093266564
 31
0.0
  0
LINE
  5
1ED
330
1F
100
AcDbEntity
  8
0
  6
CONTINUOUS
 62
     7
100
AcDbLine
 10
-112.9862550996
 20
140.3893266564
 30
0.0
 11
-112.7131741597
 21
139.9993266564
 31
0.0
  0
LINE
  5
1EE
330
1F
100
AcDbEntity
  8
0
  6
CONTINUOUS
 62
     7
100
AcDbLine
 10
-113.2593360395
 20
143.9993266564
 30
0.0
 11
-113.4046835937
 21
143.9993266564
 31
0.0
  0
LINE
  5
1EF
330
1F
100
AcDbEntity
  8
0
  6
CONTINUOUS
 62
     7
100
AcDbLine
 10
-113.4046835937
 20
139.9993266564
 30
0.0
 11
-113.2593360395
 21
139.9993266564
 31
0.0
  0
LINE
  5
1F0
330
1F
100
AcDbEntity
  8
0
  6
CONTINUOUS
 62
     7
100
AcDbLine
 10
-112.5678266056
 20
143.9993266564
 30
0.0
 11
-112.7131741597
 21
143.9993266564
 31
0.0
  0
LINE
  5
1F1
330
1F
100
AcDbEntity
  8
0
  6
CONTINUOUS
 62
     7
100
AcDbLine
 10
-112.7131741597
 20
139.9993266564
 30
0.0
 11
-112.5678266056
 21
139.9993266564
 31
0.0
  0
LINE
  5
1F2
330
1F
100
AcDbEntity
  8
0
  6
CONTINUOUS
 62
     7
100
AcDbLine
 10
-112.5678266056
 20
139.9993266564
 30
0.0
 11
-112.2947456656
 21
140.3893266564
 31
0.0
  0
LINE
  5
1F3
330
1F
100
AcDbEntity
  8
0
  6
CONTINUOUS
 62
     7
100
AcDbLine
 10
-112.2947456656
 20
143.6093266564
 30
0.0
 11
-112.5678266056
 21
143.9993266564
 31
0.0
  0
LINE
  5
1F4
330
1F
100
AcDbEntity
  8
0
  6
CONTINUOUS
 62
     7
100
AcDbLine
 10
-111.8763171716
 20
143.9993266564
 30
0.0
 11
-112.0216647257
 21
143.9993266564
 31
0.0
  0
LINE
  5
1F5
330
1F
100
AcDbEntity
  8
0
  6
CONTINUOUS
 62
     7
100
AcDbLine
 10
-112.0216647257
 20
139.9993266564
 30
0.0
 11
-111.8763171716
 21
139.9993266564
 31
0.0
  0
LINE
  5
1F6
330
1F
100
AcDbEntity
  8
0
  6
CONTINUOUS
 62
     7
100
AcDbLine
 10
-112.0216647257
 20
143.9993266564
 30
0.0
 11
-112.2947456656
 21
143.6093266564
 31
0.0
  0
LINE
  5
1F7
330
1F
100
AcDbEntity
  8
0
  6
CONTINUOUS
 62
     7
100
AcDbLine
 10
-112.2947456656
 20
140.3893266564
 30
0.0
 11
-112.0216647257
 21
139.9993266564
 31
0.0
  0
LINE
  5
1F8
330
1F
100
AcDbEntity
  8
0
  6
CONTINUOUS
 62
     7
100
AcDbLine
 10
-111.3301552918
 20
143.9993266564
 30
0.0
 11
-111.6032362317
 21
143.6093266564
 31
0.0
  0
LINE
  5
1F9
330
1F
100
AcDbEntity
  8
0
  6
CONTINUOUS
 62
     7
100
AcDbLine
 10
-111.6032362317
 20
140.3893266564
 30
0.0
 11
-111.3301552918
 21
139.9993266564
 31
0.0
  0
LINE
  5
1FA
330
1F
100
AcDbEntity
  8
0
  6
CONTINUOUS
 62
     7
100
AcDbLine
 10
-111.8763171716
 20
139.9993266564
 30
0.0
 11
-111.6032362317
 21
140.3893266564
 31
0.0
  0
LINE
  5
1FB
330
1F
100
AcDbEntity
  8
0
  6
CONTINUOUS
 62
     7
100
AcDbLine
 10
-111.6032362317
 20
143.6093266564
 30
0.0
 11
-111.8763171716
 21
143.9993266564
 31
0.0
  0
LINE
  5
1FC
330
1F
100
AcDbEntity
  8
0
  6
CONTINUOUS
 62
     7
100
AcDbLine
 10
-111.1848077376
 20
139.9993266564
 30
0.0
 11
-110.9117267977
 21
140.3893266564
 31
0.0
  0
LINE
  5
1FD
330
1F
100
AcDbEntity
  8
0
  6
CONTINUOUS
 62
     7
100
AcDbLine
 10
-110.9117267977
 20
143.6093266564
 30
0.0
 11
-111.1848077376
 21
143.9993266564
 31
0.0
  0
LINE
  5
1FE
330
1F
100
AcDbEntity
  8
0
  6
CONTINUOUS
 62
     7
100
AcDbLine
 10
-111.1848077376
 20
143.9993266564
 30
0.0
 11
-111.3301552918
 21
143.9993266564
 31
0.0
  0
LINE
  5
1FF
330
1F
100
AcDbEntity
  8
0
  6
CONTINUOUS
 62
     7
100
AcDbLine
 10
-111.3301552918
 20
139.9993266564
 30
0.0
 11
-111.1848077376
 21
139.9993266564
 31
0.0
  0
LINE
  5
200
330
1F
100
AcDbEntity
  8
0
  6
CONTINUOUS
 62
     7
100
AcDbLine
 10
-110.6386458578
 20
143.9993266564
 30
0.0
 11
-110.9117267977
 21
143.6093266564
 31
0.0
  0
LINE
  5
201
330
1F
100
AcDbEntity
  8
0
  6
CONTINUOUS
 62
     7
100
AcDbLine
 10
-110.9117267977
 20
140.3893266564
 30
0.0
 11
-110.6386458578
 21
139.9993266564
 31
0.0
  0
LINE
  5
202
330
1F
100
AcDbEntity
  8
0
  6
CONTINUOUS
 62
     7
100
AcDbLine
 10
-110.4932983037
 20
143.9993266564
 30
0.0
 11
-110.6386458578
 21
143.9993266564
 31
0.0
  0
LINE
  5
203
330
1F
100
AcDbEntity
  8
0
  6
CONTINUOUS
 62
     7
100
AcDbLine
 10
-110.6386458578
 20
139.9993266564
 30
0.0
 11
-110.4932983037
 21
139.9993266564
 31
0.0
  0
LINE
  5
204
330
1F
100
AcDbEntity
  8
0
  6
CONTINUOUS
 62
     7
100
AcDbLine
 10
-110.4932983037
 20
139.9993266564
 30
0.0
 11
-110.2202173638
 21
140.3893266564
 31
0.0
  0
LINE
  5
205
330
1F
100
AcDbEntity
  8
0
  6
CONTINUOUS
 62
     7
100
AcDbLine
 10
-110.2202173638
 20
143.6093266564
 30
0.0
 11
-110.4932983037
 21
143.9993266564
 31
0.0
  0
LINE
  5
206
330
1F
100
AcDbEntity
  8
0
  6
CONTINUOUS
 62
     7
100
AcDbLine
 10
-109.9471364239
 20
143.9993266564
 30
0.0
 11
-110.2202173638
 21
143.6093266564
 31
0.0
  0
LINE
  5
207
330
1F
100
AcDbEntity
  8
0
  6
CONTINUOUS
 62
     7
100
AcDbLine
 10
-110.2202173638
 20
140.3893266564
 30
0.0
 11
-109.9471364239
 21
139.9993266564
 31
0.0
  0
LINE
  5
208
330
1F
100
AcDbEntity
  8
0
  6
CONTINUOUS
 62
     7
100
AcDbLine
 10
-109.8017888697
 20
143.9993266564
 30
0.0
 11
-109.9471364239
 21
143.9993266564
 31
0.0
  0
LINE
  5
209
330
1F
100
AcDbEntity
  8
0
  6
CONTINUOUS
 62
     7
100
AcDbLine
 10
-109.9471364239
 20
139.9993266564
 30
0.0
 11
-109.8017888697
 21
139.9993266564
 31
0.0
  0
LINE
  5
20A
330
1F
100
AcDbEntity
  8
0
  6
CONTINUOUS
 62
     7
100
AcDbLine
 10
-109.2556269899
 20
143.9993266564
 30
0.0
 11
-109.5287079298
 21
143.6093266564
 31
0.0
  0
LINE
  5
20B
330
1F
100
AcDbEntity
  8
0
  6
CONTINUOUS
 62
     7
100
AcDbLine
 10
-109.5287079298
 20
140.3893266564
 30
0.0
 11
-109.2556269899
 21
139.9993266564
 31
0.0
  0
LINE
  5
20C
330
1F
100
AcDbEntity
  8
0
  6
CONTINUOUS
 62
     7
100
AcDbLine
 10
-109.8017888697
 20
139.9993266564
 30
0.0
 11
-109.5287079298
 21
140.3893266564
 31
0.0
  0
LINE
  5
20D
330
1F
100
AcDbEntity
  8
0
  6
CONTINUOUS
 62
     7
100
AcDbLine
 10
-109.5287079298
 20
143.6093266564
 30
0.0
 11
-109.8017888697
 21
143.9993266564
 31
0.0
  0
LINE
  5
20E
330
1F
100
AcDbEntity
  8
0
  6
CONTINUOUS
 62
     7
100
AcDbLine
 10
-109.1787069298
 20
143.9993266564
 30
0.0
 11
-109.2556269899
 21
143.9993266564
 31
0.0
  0
LINE
  5
20F
330
1F
100
AcDbEntity
  8
0
  6
CONTINUOUS
 62
     7
100
AcDbLine
 10
-109.2556269899
 20
139.9993266564
 30
0.0
 11
-109.1787069298
 21
139.9993266564
 31
0.0
  0
LINE
  5
210
330
1F
100
AcDbEntity
  8
0
  6
CONTINUOUS
 62
     7
100
AcDbLine
 10
-164.1787069298
 20
138.9993266564
 30
0.0
 11
-151.2287069298
 21
138.9993266564
 31
0.0
  0
LINE
  5
211
330
1F
100
AcDbEntity
  8
0
  6
CONTINUOUS
 62
     7
100
AcDbLine
 10
-151.2287069298
 20
144.9993266564
 30
0.0
 11
-164.1787069298
 21
144.9993266564
 31
0.0
  0
ARC
  5
212
330
1F
100
AcDbEntity
  8
0
  6
CONTINUOUS
 62
     7
100
AcDbCircle
 10
-151.2287069298
 20
139.0493266564
 30
0.0
 40
0.0500000000000114
100
AcDbArc
 50
270.0
 51
360.0
  0
ARC
  5
213
330
1F
100
AcDbEntity
  8
0
  6
CONTINUOUS
 62
     7
100
AcDbCircle
 10
-151.2287069298
 20
144.9493266564
 30
0.0
 40
0.0500000000000114
100
AcDbArc
 50
0.0
 51
90.0
  0
LINE
  5
214
330
1F
100
AcDbEntity
  8
0
  6
CONTINUOUS
 62
     7
100
AcDbLine
 10
-168.1787069298
 20
69.9993266564
 30
0.0
 11
-170.1787069298
 21
69.9993266564
 31
0.0
  0
LINE
  5
215
330
1F
100
AcDbEntity
  8
0
  6
CONTINUOUS
 62
     7
100
AcDbLine
 10
-170.1787069298
 20
57.9993266564
 30
0.0
 11
-168.1787069298
 21
57.9993266564
 31
0.0
  0
LINE
  5
216
330
1F
100
AcDbEntity
  8
0
  6
CONTINUOUS
 62
     7
100
AcDbLine
 10
-114.9287069298
 20
135.4993266564
 30
0.0
 11
-109.1787069298
 21
135.4993266564
 31
0.0
  0
LINE
  5
217
330
1F
100
AcDbEntity
  8
0
  6
CONTINUOUS
 62
     7
100
AcDbLine
 10
-109.1787069298
 20
148.4993266564
 30
0.0
 11
-114.9287069298
 21
148.4993266564
 31
0.0
  0
LINE
  5
218
330
1F
100
AcDbEntity
  8
0
  6
CONTINUOUS
 62
     7
100
AcDbLine
 10
-114.9287069298
 20
148.4993266564
 30
0.0
 11
-115.1787069298
 21
148.2493266564
 31
0.0
  0
LINE
  5
219
330
1F
100
AcDbEntity
  8
0
  6
CONTINUOUS
 62
     7
100
AcDbLine
 10
-115.1787069298
 20
135.7493266564
 30
0.0
 11
-114.9287069298
 21
135.4993266564
 31
0.0
  0
LINE
  5
21A
330
1F
100
AcDbEntity
  8
0
  6
CONTINUOUS
 62
     7
100
AcDbLine
 10
-158.4287069298
 20
148.4993266564
 30
0.0
 11
-164.1787069298
 21
148.4993266564
 31
0.0
  0
LINE
  5
21B
330
1F
100
AcDbEntity
  8
0
  6
CONTINUOUS
 62
     7
100
AcDbLine
 10
-164.1787069298
 20
135.4993266564
 30
0.0
 11
-158.4287069298
 21
135.4993266564
 31
0.0
  0
LINE
  5
21C
330
1F
100
AcDbEntity
  8
0
  6
CONTINUOUS
 62
     7
100
AcDbLine
 10
-158.4287069298
 20
135.4993266564
 30
0.0
 11
-158.1787069298
 21
135.7493266564
 31
0.0
  0
LINE
  5
21D
330
1F
100
AcDbEntity
  8
0
  6
CONTINUOUS
 62
     7
100
AcDbLine
 10
-158.1787069298
 20
148.2493266564
 30
0.0
 11
-158.4287069298
 21
148.4993266564
 31
0.0
  0
LINE
  5
21E
330
1F
100
AcDbEntity
  8
0
  6
CONTINUOUS
 62
     7
100
AcDbLine
 10
-158.4287069298
 20
70.4993266564
 30
0.0
 11
-164.1787069298
 21
70.4993266564
 31
0.0
  0
LINE
  5
21F
330
1F
100
AcDbEntity
  8
0
  6
CONTINUOUS
 62
     7
100
AcDbLine
 10
-164.1787069298
 20
57.4993266564
 30
0.0
 11
-158.4287069298
 21
57.4993266564
 31
0.0
  0
LINE
  5
220
330
1F
100
AcDbEntity
  8
0
  6
CONTINUOUS
 62
     7
100
AcDbLine
 10
-158.4287069298
 20
57.4993266564
 30
0.0
 11
-158.1787069298
 21
57.7493266564
 31
0.0
  0
LINE
  5
221
330
1F
100
AcDbEntity
  8
0
  6
CONTINUOUS
 62
     7
100
AcDbLine
 10
-158.1787069298
 20
70.2493266564
 30
0.0
 11
-158.4287069298
 21
70.4993266564
 31
0.0
  0
LINE
  5
222
330
1F
100
AcDbEntity
  8
0
  6
CONTINUOUS
 62
     7
100
AcDbLine
 10
-114.9287069298
 20
57.4993266564
 30
0.0
 11
-109.1787069298
 21
57.4993266564
 31
0.0
  0
LINE
  5
223
330
1F
100
AcDbEntity
  8
0
  6
CONTINUOUS
 62
     7
100
AcDbLine
 10
-109.1787069298
 20
70.4993266564
 30
0.0
 11
-114.9287069298
 21
70.4993266564
 31
0.0
  0
LINE
  5
224
330
1F
100
AcDbEntity
  8
0
  6
CONTINUOUS
 62
     7
100
AcDbLine
 10
-114.9287069298
 20
70.4993266564
 30
0.0
 11
-115.1787069298
 21
70.2493266564
 31
0.0
  0
LINE
  5
225
330
1F
100
AcDbEntity
  8
0
  6
CONTINUOUS
 62
     7
100
AcDbLine
 10
-115.1787069298
 20
57.7493266564
 30
0.0
 11
-114.9287069298
 21
57.4993266564
 31
0.0
  0
LINE
  5
226
330
1F
100
AcDbEntity
  8
0
  6
CONTINUOUS
 62
     7
100
AcDbLine
 10
-106.1787069298
 20
57.9993266564
 30
0.0
 11
-105.1787069298
 21
57.9993266564
 31
0.0
  0
LINE
  5
227
330
1F
100
AcDbEntity
  8
0
  6
CONTINUOUS
 62
     7
100
AcDbLine
 10
-105.1787069298
 20
69.9993266564
 30
0.0
 11
-106.1787069298
 21
69.9993266564
 31
0.0
  0
LINE
  5
228
330
1F
100
AcDbEntity
  8
0
  6
CONTINUOUS
 62
     7
100
AcDbLine
 10
-167.1787069298
 20
69.9993266564
 30
0.0
 11
-168.1787069298
 21
69.9993266564
 31
0.0
  0
LINE
  5
229
330
1F
100
AcDbEntity
  8
0
  6
CONTINUOUS
 62
     7
100
AcDbLine
 10
-168.1787069298
 20
57.9993266564
 30
0.0
 11
-167.1787069298
 21
57.9993266564
 31
0.0
  0
LINE
  5
22A
330
1F
100
AcDbEntity
  8
0
  6
CONTINUOUS
 62
     7
100
AcDbLine
 10
-167.1787069298
 20
147.9993266564
 30
0.0
 11
-168.1787069298
 21
147.9993266564
 31
0.0
  0
LINE
  5
22B
330
1F
100
AcDbEntity
  8
0
  6
CONTINUOUS
 62
     7
100
AcDbLine
 10
-168.1787069298
 20
135.9993266564
 30
0.0
 11
-167.1787069298
 21
135.9993266564
 31
0.0
  0
LINE
  5
22C
330
1F
100
AcDbEntity
  8
0
  6
CONTINUOUS
 62
     7
100
AcDbLine
 10
-106.1787069298
 20
135.9993266564
 30
0.0
 11
-105.1787069298
 21
135.9993266564
 31
0.0
  0
LINE
  5
22D
330
1F
100
AcDbEntity
  8
0
  6
CONTINUOUS
 62
     7
100
AcDbLine
 10
-105.1787069298
 20
147.9993266564
 30
0.0
 11
-106.1787069298
 21
147.9993266564
 31
0.0
  0
LINE
  5
22E
330
1F
100
AcDbEntity
  8
0
  6
CONTINUOUS
 62
     7
100
AcDbLine
 10
-145.6787069298
 20
145.9955283039
 30
0.0
 11
-145.6787069298
 21
146.0031214054
 31
0.0
  0
ELLIPSE
  5
22F
330
1F
100
AcDbEntity
  8
0
  6
CONTINUOUS
 62
     7
100
AcDbEllipse
 10
-148.6787069298
 20
149.9917299514
 30
0.0
 11
4.999999999999972
 21
4.234834705130197E-12
 31
0.0
210
0.0
220
0.0
230
1.0
 40
0.9990504119
 41
4.712388980383851
 42
5.35589008917714
  0
LINE
  5
230
330
1F
100
AcDbEntity
  8
0
  6
CONTINUOUS
 62
     7
100
AcDbLine
 10
-148.6787069298
 20
144.996477892
 30
0.0
 11
-148.6787069298
 21
145.0021727182
 31
0.0
  0
ELLIPSE
  5
231
330
1F
100
AcDbEntity
  8
0
  6
CONTINUOUS
 62
     7
100
AcDbEllipse
 10
-148.6787069298
 20
150.0069161545
 30
0.0
 11
-4.234834705130197E-12
 21
5.004743436288067
 31
0.0
210
0.0
220
0.0
230
1.0
 40
0.9990522119
 41
3.141592653588946
 42
3.785093762382245
  0
LINE
  5
232
330
1F
100
AcDbEntity
  8
0
  6
CONTINUOUS
 62
     7
100
AcDbLine
 10
-148.6787069298
 20
138.9964805946
 30
0.0
 11
-148.6787069298
 21
144.996477892
 31
0.0
  0
LINE
  5
233
330
1F
100
AcDbEntity
  8
0
  6
CONTINUOUS
 62
     7
100
AcDbLine
 10
-145.6787069298
 20
137.9955319074
 30
0.0
 11
-145.6787069298
 21
140.1158242682
 31
0.0
  0
LINE
  5
234
330
1F
100
AcDbEntity
  8
0
  6
CONTINUOUS
 62
     7
100
AcDbLine
 10
-145.6787069298
 20
143.8828290446
 30
0.0
 11
-145.6787069298
 21
145.9955283039
 31
0.0
  0
ELLIPSE
  5
235
330
1F
100
AcDbEntity
  8
0
  6
CONTINUOUS
 62
     7
100
AcDbEllipse
 10
-148.6787069298
 20
133.9917371583
 30
0.0
 11
-4.234834705130197E-12
 21
5.004743436288095
 31
0.0
210
0.0
220
0.0
230
1.0
 40
0.9990522119
 41
5.639684198385469
 42
6.283185307179586
  0
LINE
  5
236
330
1F
100
AcDbEntity
  8
0
  6
CONTINUOUS
 62
     7
100
AcDbLine
 10
-145.6787069298
 20
137.9955319074
 30
0.0
 11
-127.6787069298
 21
137.9955319074
 31
0.0
  0
LINE
  5
237
330
1F
100
AcDbEntity
  8
0
  6
CONTINUOUS
 62
     7
100
AcDbLine
 10
-145.6787069298
 20
145.9955283039
 30
0.0
 11
-127.6787069298
 21
145.9955283039
 31
0.0
  0
LINE
  5
238
330
1F
100
AcDbEntity
  8
0
  6
CONTINUOUS
 62
     7
100
AcDbLine
 10
-127.6787069298
 20
137.9955319074
 30
0.0
 11
-127.6787069298
 21
140.1454650758
 31
0.0
  0
LINE
  5
239
330
1F
100
AcDbEntity
  8
0
  6
CONTINUOUS
 62
     7
100
AcDbLine
 10
-127.6787069298
 20
143.8531882369
 30
0.0
 11
-127.6787069298
 21
145.9955283039
 31
0.0
  0
LINE
  5
23A
330
1F
100
AcDbEntity
  8
0
  6
CONTINUOUS
 62
     7
100
AcDbLine
 10
-145.6787069298
 20
146.0031214054
 30
0.0
 11
-127.6787069298
 21
146.0031214054
 31
0.0
  0
LINE
  5
23B
330
1F
100
AcDbEntity
  8
0
  6
CONTINUOUS
 62
     7
100
AcDbLine
 10
-127.6787069298
 20
145.9955283039
 30
0.0
 11
-127.6787069298
 21
146.0031214054
 31
0.0
  0
ELLIPSE
  5
23C
330
1F
100
AcDbEntity
  8
0
  6
CONTINUOUS
 62
     7
100
AcDbEllipse
 10
-124.6787069298
 20
150.0069161545
 30
0.0
 11
-4.249045559845399E-12
 21
5.004743436288095
 31
0.0
210
0.0
220
0.0
230
1.0
 40
0.9990522119
 41
2.498091544795656
 42
3.141592653588946
  0
LINE
  5
23D
330
1F
100
AcDbEntity
  8
0
  6
CONTINUOUS
 62
     7
100
AcDbLine
 10
-124.6787069298
 20
145.0021727182
 30
0.0
 11
-124.6787069298
 21
144.996477892
 31
0.0
  0
ELLIPSE
  5
23E
330
1F
100
AcDbEntity
  8
0
  6
CONTINUOUS
 62
     7
100
AcDbEllipse
 10
-124.6787069298
 20
149.9917299514
 30
0.0
 11
5.0
 21
4.263256414560601E-12
 31
0.0
210
0.0
220
0.0
230
1.0
 40
0.9990504119
 41
4.068887871590564
 42
4.712388980383851
  0
ELLIPSE
  5
23F
330
1F
100
AcDbEntity
  8
0
  6
CONTINUOUS
 62
     7
100
AcDbEllipse
 10
-124.6787069298
 20
133.9917371583
 30
0.0
 11
-4.249045559845399E-12
 21
5.004743436288095
 31
0.0
210
0.0
220
0.0
230
1.0
 40
0.9990522119
 41
0.0
 42
0.6435011087924359
  0
LINE
  5
240
330
1F
100
AcDbEntity
  8
0
  6
CONTINUOUS
 62
     7
100
AcDbLine
 10
-148.6787069298
 20
138.9964805946
 30
0.0
 11
-158.1787069298
 21
138.9964805946
 31
0.0
  0
LINE
  5
241
330
1F
100
AcDbEntity
  8
0
  6
CONTINUOUS
 62
     7
100
AcDbLine
 10
-148.6787069298
 20
144.996477892
 30
0.0
 11
-151.2120707951
 21
144.996477892
 31
0.0
  0
LINE
  5
242
330
1F
100
AcDbEntity
  8
0
  6
CONTINUOUS
 62
     7
100
AcDbLine
 10
-148.6787069298
 20
145.0021727182
 30
0.0
 11
-158.1787069298
 21
145.0021727182
 31
0.0
  0
LINE
  5
243
330
1F
100
AcDbEntity
  8
0
  6
CONTINUOUS
 62
     7
100
AcDbLine
 10
-115.1787069298
 20
144.996477892
 30
0.0
 11
-124.6787069298
 21
144.996477892
 31
0.0
  0
LINE
  5
244
330
1F
100
AcDbEntity
  8
0
  6
CONTINUOUS
 62
     7
100
AcDbLine
 10
-115.1787069298
 20
138.9964805946
 30
0.0
 11
-124.6787069298
 21
138.9964805946
 31
0.0
  0
LINE
  5
245
330
1F
100
AcDbEntity
  8
0
  6
CONTINUOUS
 62
     7
100
AcDbLine
 10
-115.1787069298
 20
145.0021727182
 30
0.0
 11
-124.6787069298
 21
145.0021727182
 31
0.0
  0
LWPOLYLINE
  5
246
330
1F
100
AcDbEntity
  8
0
  6
CONTINUOUS
 62
     7
100
AcDbPolyline
 90
       12
 70
   128
 43
0.0
 10
-228.1787069298
 20
141.9850895911
 10
-228.0769213486
 20
141.9837388273
 10
-227.7736366659
 20
141.9824155612
 10
-227.2750268833
 20
141.9811467306
 10
-226.5912422581
 20
141.9799581653
 10
-225.7362026733
 20
141.978874061
 10
-224.7273142693
 20
141.977916487
 10
-223.5851151044
 20
141.9771049367
 10
-222.3328570598
 20
141.976455931
 10
-220.9960324982
 20
141.9759826816
 10
-219.6018553125
 20
141.9756948227
 10
-218.1787069298
 20
141.9755982142
  0
ARC
  5
247
330
1F
100
AcDbEntity
  8
0
  6
CONTINUOUS
 62
     7
100
AcDbCircle
 10
-223.1787080559
 20
141.985088465
 30
0.0
 40
4.999998873922137
100
AcDbArc
 50
89.9999870961
 51
179.9999870961
  0
LWPOLYLINE
  5
248
330
1F
100
AcDbEntity
  8
0
  6
CONTINUOUS
 62
     7
100
AcDbPolyline
 90
        9
 70
   128
 43
0.0
 10
-223.1763446268
 20
146.9849414757
 10
-223.0826333318
 20
146.984161501
 10
-222.7981045924
 20
146.9832712426
 10
-222.3360549913
 20
146.9824507757
 10
-221.7142408357
 20
146.9817316304
 10
-220.9565580949
 20
146.9811414432
 10
-220.0921240916
 20
146.9807028945
 10
-219.1541585399
 20
146.9804328375
 10
-218.1787069298
 20
146.9803416505
  0
LINE
  5
249
330
1F
100
AcDbEntity
  8
0
  6
CONTINUOUS
 62
     7
100
AcDbLine
 10
-218.1787069298
 20
141.9755982142
 30
0.0
 11
-218.1787069298
 21
146.9803416505
 31
0.0
  0
LINE
  5
24A
330
1F
100
AcDbEntity
  8
0
  6
CONTINUOUS
 62
     7
100
AcDbLine
 10
-218.1787069298
 20
141.9755982142
 30
0.0
 11
-168.1787069298
 21
141.9755982142
 31
0.0
  0
LINE
  5
24B
330
1F
100
AcDbEntity
  8
0
  6
CONTINUOUS
 62
     7
100
AcDbLine
 10
-218.1787069298
 20
146.9803416505
 30
0.0
 11
-168.1787069298
 21
146.9803416505
 31
0.0
  0
LINE
  5
24C
330
1F
100
AcDbEntity
  8
0
  6
CONTINUOUS
 62
     7
100
AcDbLine
 10
-168.1787069298
 20
146.9803416505
 30
0.0
 11
-168.1787069298
 21
141.9755982142
 31
0.0
  0
ARC
  5
24D
330
1F
100
AcDbEntity
  8
0
  6
CONTINUOUS
 62
     7
100
AcDbCircle
 10
-223.1787081079
 20
141.9850906962
 30
0.0
 40
4.999998821912598
100
AcDbArc
 50
180.0000126643
 51
268.4250633953
  0
LINE
  5
24E
330
1F
100
AcDbEntity
  8
0
  6
CONTINUOUS
 62
     7
100
AcDbLine
 10
-218.1787069298
 20
136.9803461548
 30
0.0
 11
-218.1787069298
 21
141.9755982142
 31
0.0
  0
LWPOLYLINE
  5
24F
330
1F
100
AcDbEntity
  8
0
  6
CONTINUOUS
 62
     7
100
AcDbPolyline
 90
        9
 70
   128
 43
0.0
 10
-218.1787069298
 20
136.9803461548
 10
-219.1541585399
 20
136.9804373418
 10
-220.0921240916
 20
136.9807073988
 10
-220.9565580949
 20
136.9811459475
 10
-221.7142408357
 20
136.9817361347
 10
-222.3360549913
 20
136.98245528
 10
-222.7981045924
 20
136.9832757469
 10
-223.0826333318
 20
136.9841660053
 10
-223.1767595475
 20
136.9849594052
  0
LINE
  5
250
330
1F
100
AcDbEntity
  8
0
  6
CONTINUOUS
 62
     7
100
AcDbLine
 10
-168.1787069298
 20
136.9803461548
 30
0.0
 11
-218.1787069298
 21
136.9803461548
 31
0.0
  0
LINE
  5
251
330
1F
100
AcDbEntity
  8
0
  6
CONTINUOUS
 62
     7
100
AcDbLine
 10
-168.1787069298
 20
141.9755982142
 30
0.0
 11
-168.1787069298
 21
136.9803461548
 31
0.0
  0
LINE
  5
252
330
1F
100
AcDbEntity
  8
0
  6
CONTINUOUS
 62
     7
100
AcDbLine
 10
-223.1787069298
 20
147.10372955
 30
0.0
 11
-223.1787069298
 21
146.9850873389
 31
0.0
  0
LWPOLYLINE
  5
253
330
1F
100
AcDbEntity
  8
0
  6
CONTINUOUS
 62
     7
100
AcDbPolyline
 90
        9
 70
   128
 43
0.0
 10
-218.1787069298
 20
147.1084752385
 10
-219.1541585399
 20
147.1083840514
 10
-220.0921240916
 20
147.1081139944
 10
-220.9565580949
 20
147.1076754457
 10
-221.7142408357
 20
147.1070852585
 10
-222.3360549913
 20
147.1063661133
 10
-222.7981045924
 20
147.1055456464
 10
-223.0826333318
 20
147.1046553879
 10
-223.1767485764
 20
147.1038623605
  0
LINE
  5
254
330
1F
100
AcDbEntity
  8
0
  6
CONTINUOUS
 62
     7
100
AcDbLine
 10
-208.1787069298
 20
147.1084752385
 30
0.0
 11
-218.1787069298
 21
147.1084752385
 31
0.0
  0
LWPOLYLINE
  5
255
330
1F
100
AcDbEntity
  8
0
  6
CONTINUOUS
 62
     7
100
AcDbPolyline
 90
        9
 70
   128
 43
0.0
 10
-203.1805773047
 20
147.1038593435
 10
-203.2747805278
 20
147.1046553879
 10
-203.5593092672
 20
147.1055456464
 10
-204.0213588683
 20
147.1063661133
 10
-204.6431730239
 20
147.1070852585
 10
-205.4008557647
 20
147.1076754457
 10
-206.265289768
 20
147.1081139944
 10
-207.2032553197
 20
147.1083840514
 10
-208.1787069298
 20
147.1084752385
  0
LINE
  5
256
330
1F
100
AcDbEntity
  8
0
  6
CONTINUOUS
 62
     7
100
AcDbLine
 10
-203.1787069298
 20
147.0211545711
 30
0.0
 11
-203.1787069298
 21
147.10372955
 31
0.0
  0
LWPOLYLINE
  5
257
330
1F
100
AcDbEntity
  8
0
  6
CONTINUOUS
 62
     7
100
AcDbPolyline
 90
       15
 70
   128
 43
0.0
 10
-188.1787069298
 20
147.0069175057
 10
-189.8581740713
 20
147.0070070254
 10
-191.5165209391
 20
147.0072744587
 10
-193.1328928591
 20
147.0077164424
 10
-194.6869630166
 20
147.0083274184
 10
-196.1591880775
 20
147.0090997033
 10
-197.5310539577
 20
147.0100235852
 10
-198.7853086476
 20
147.0110874456
 10
-199.9061791668
 20
147.012277906
 10
-200.8795699182
 20
147.0135799956
 10
-201.6932399483
 20
147.0149773399
 10
-202.3369568844
 20
147.0164523665
 10
-202.8026256125
 20
147.017986526
 10
-203.0843900782
 20
147.0195605255
 10
-203.1734415548
 20
147.0207773757
  0
LINE
  5
258
330
1F
100
AcDbEntity
  8
0
  6
CONTINUOUS
 62
     7
100
AcDbLine
 10
-168.1787069298
 20
147.0069175057
 30
0.0
 11
-188.1787069298
 21
147.0069175057
 31
0.0
  0
LINE
  5
259
330
1F
100
AcDbEntity
  8
0
  6
CONTINUOUS
 62
     7
100
AcDbLine
 10
-168.1787069298
 20
146.9803416505
 30
0.0
 11
-168.1787069298
 21
146.9961764706
 31
0.0
  0
LINE
  5
25A
330
1F
100
AcDbEntity
  8
0
  6
CONTINUOUS
 62
     7
100
AcDbLine
 10
-228.1787069298
 20
142.1037318022
 30
0.0
 11
-228.1787069298
 21
141.9850895911
 31
0.0
  0
ARC
  5
25B
330
1F
100
AcDbEntity
  8
0
  6
CONTINUOUS
 62
     7
100
AcDbCircle
 10
-223.1787081084
 20
142.1037306972
 30
0.0
 40
4.999998821401238
100
AcDbArc
 50
91.5903397851
 51
179.9999873381
  0
LINE
  5
25C
330
1F
100
AcDbEntity
  8
0
  6
CONTINUOUS
 62
     7
100
AcDbLine
 10
-202.2473220534
 20
147.0162159469
 30
0.0
 11
-203.0418100067
 21
147.1018551228
 31
0.0
  0
LINE
  5
25D
330
1F
100
AcDbEntity
  8
0
  6
CONTINUOUS
 62
     7
100
AcDbLine
 10
-55.1787069298
 20
146.9803416505
 30
0.0
 11
-55.1787069298
 21
141.9755982142
 31
0.0
  0
LINE
  5
25E
330
1F
100
AcDbEntity
  8
0
  6
CONTINUOUS
 62
     7
100
AcDbLine
 10
-55.1787069298
 20
141.9755982142
 30
0.0
 11
-105.1787069298
 21
141.9755982142
 31
0.0
  0
LINE
  5
25F
330
1F
100
AcDbEntity
  8
0
  6
CONTINUOUS
 62
     7
100
AcDbLine
 10
-105.1787069298
 20
141.9755982142
 30
0.0
 11
-105.1787069298
 21
146.9803416505
 31
0.0
  0
LINE
  5
260
330
1F
100
AcDbEntity
  8
0
  6
CONTINUOUS
 62
     7
100
AcDbLine
 10
-105.1787069298
 20
146.9803416505
 30
0.0
 11
-55.1787069298
 21
146.9803416505
 31
0.0
  0
ARC
  5
261
330
1F
100
AcDbEntity
  8
0
  6
CONTINUOUS
 62
     7
100
AcDbCircle
 10
-50.1787058037
 20
141.985088465
 30
0.0
 40
4.999998873922165
100
AcDbArc
 50
0.0000129039
 51
90.0000129039
  0
LWPOLYLINE
  5
262
330
1F
100
AcDbEntity
  8
0
  6
CONTINUOUS
 62
     7
100
AcDbPolyline
 90
       12
 70
   128
 43
0.0
 10
-45.1787069298
 20
141.9850895911
 10
-45.280492511
 20
141.9837388273
 10
-45.5837771937
 20
141.9824155612
 10
-46.0823869763
 20
141.9811467306
 10
-46.7661716015
 20
141.9799581653
 10
-47.6212111863
 20
141.978874061
 10
-48.6300995903
 20
141.977916487
 10
-49.7722987552
 20
141.9771049367
 10
-51.0245567998
 20
141.976455931
 10
-52.3613813614
 20
141.9759826816
 10
-53.7555585471
 20
141.9756948227
 10
-55.1787069298
 20
141.9755982142
  0
LWPOLYLINE
  5
263
330
1F
100
AcDbEntity
  8
0
  6
CONTINUOUS
 62
     7
100
AcDbPolyline
 90
        9
 70
   128
 43
0.0
 10
-55.1787069298
 20
146.9803416505
 10
-54.2032553197
 20
146.9804328375
 10
-53.265289768
 20
146.9807028945
 10
-52.4008557647
 20
146.9811414432
 10
-51.6431730239
 20
146.9817316304
 10
-51.0213588683
 20
146.9824507757
 10
-50.5593092672
 20
146.9832712426
 10
-50.2747805278
 20
146.984161501
 10
-50.1805779797
 20
146.984957522
  0
LINE
  5
264
330
1F
100
AcDbEntity
  8
0
  6
CONTINUOUS
 62
     7
100
AcDbLine
 10
-55.1787069298
 20
141.9755982142
 30
0.0
 11
-55.1787069298
 21
136.9803461548
 31
0.0
  0
LINE
  5
265
330
1F
100
AcDbEntity
  8
0
  6
CONTINUOUS
 62
     7
100
AcDbLine
 10
-55.1787069298
 20
136.9803461548
 30
0.0
 11
-105.1787069298
 21
136.9803461548
 31
0.0
  0
LINE
  5
266
330
1F
100
AcDbEntity
  8
0
  6
CONTINUOUS
 62
     7
100
AcDbLine
 10
-105.1787069298
 20
136.9803461548
 30
0.0
 11
-105.1787069298
 21
141.9755982142
 31
0.0
  0
ARC
  5
267
330
1F
100
AcDbEntity
  8
0
  6
CONTINUOUS
 62
     7
100
AcDbCircle
 10
-50.1787057512
 20
141.985090696
 30
0.0
 40
4.999998821401267
100
AcDbArc
 50
271.5903397851
 51
359.9999873381
  0
LWPOLYLINE
  5
268
330
1F
100
AcDbEntity
  8
0
  6
CONTINUOUS
 62
     7
100
AcDbPolyline
 90
        9
 70
   128
 43
0.0
 10
-50.1806222298
 20
136.9849605005
 10
-50.2747805278
 20
136.9841660053
 10
-50.5593092672
 20
136.9832757469
 10
-51.0213588683
 20
136.98245528
 10
-51.6431730239
 20
136.9817361347
 10
-52.4008557647
 20
136.9811459475
 10
-53.265289768
 20
136.9807073988
 10
-54.2032553197
 20
136.9804373418
 10
-55.1787069298
 20
136.9803461548
  0
LINE
  5
269
330
1F
100
AcDbEntity
  8
0
  6
CONTINUOUS
 62
     7
100
AcDbLine
 10
-85.1787069298
 20
147.0069175057
 30
0.0
 11
-105.1787069298
 21
147.0069175057
 31
0.0
  0
LWPOLYLINE
  5
26A
330
1F
100
AcDbEntity
  8
0
  6
CONTINUOUS
 62
     7
100
AcDbPolyline
 90
       15
 70
   128
 43
0.0
 10
-70.1829988094
 20
147.0208140198
 10
-70.2730237814
 20
147.0195605255
 10
-70.5547882471
 20
147.017986526
 10
-71.0204569752
 20
147.0164523665
 10
-71.6641739113
 20
147.0149773399
 10
-72.4778439414
 20
147.0135799956
 10
-73.4512346928
 20
147.012277906
 10
-74.572105212
 20
147.0110874456
 10
-75.8263599019
 20
147.0100235852
 10
-77.1982257821
 20
147.0090997033
 10
-78.670450843
 20
147.0083274184
 10
-80.2245210005
 20
147.0077164424
 10
-81.8408929205
 20
147.0072744587
 10
-83.4992397882
 20
147.0070070254
 10
-85.1787069298
 20
147.0069175057
  0
LINE
  5
26B
330
1F
100
AcDbEntity
  8
0
  6
CONTINUOUS
 62
     7
100
AcDbLine
 10
-70.1787069298
 20
147.10372955
 30
0.0
 11
-70.1787069298
 21
147.0211545711
 31
0.0
  0
LWPOLYLINE
  5
26C
330
1F
100
AcDbEntity
  8
0
  6
CONTINUOUS
 62
     7
100
AcDbPolyline
 90
        9
 70
   128
 43
0.0
 10
-65.1787069298
 20
147.1084752385
 10
-66.1541585399
 20
147.1083840514
 10
-67.0921240916
 20
147.1081139944
 10
-67.9565580949
 20
147.1076754457
 10
-68.7142408357
 20
147.1070852585
 10
-69.3360549913
 20
147.1063661133
 10
-69.7981045924
 20
147.1055456464
 10
-70.0826333318
 20
147.1046553879
 10
-70.1767485764
 20
147.1038623605
  0
LINE
  5
26D
330
1F
100
AcDbEntity
  8
0
  6
CONTINUOUS
 62
     7
100
AcDbLine
 10
-55.1787069298
 20
147.1084752385
 30
0.0
 11
-65.1787069298
 21
147.1084752385
 31
0.0
  0
LWPOLYLINE
  5
26E
330
1F
100
AcDbEntity
  8
0
  6
CONTINUOUS
 62
     7
100
AcDbPolyline
 90
        9
 70
   128
 43
0.0
 10
-50.1805773047
 20
147.1038593435
 10
-50.2747805278
 20
147.1046553879
 10
-50.5593092672
 20
147.1055456464
 10
-51.0213588683
 20
147.1063661133
 10
-51.6431730239
 20
147.1070852585
 10
-52.4008557647
 20
147.1076754457
 10
-53.265289768
 20
147.1081139944
 10
-54.2032553197
 20
147.1083840514
 10
-55.1787069298
 20
147.1084752385
  0
LINE
  5
26F
330
1F
100
AcDbEntity
  8
0
  6
CONTINUOUS
 62
     7
100
AcDbLine
 10
-50.1787069298
 20
146.9850873389
 30
0.0
 11
-50.1787069298
 21
147.10372955
 31
0.0
  0
LINE
  5
270
330
1F
100
AcDbEntity
  8
0
  6
CONTINUOUS
 62
     7
100
AcDbLine
 10
-105.1787069298
 20
146.9961764706
 30
0.0
 11
-105.1787069298
 21
146.9803416505
 31
0.0
  0
ARC
  5
271
330
1F
100
AcDbEntity
  8
0
  6
CONTINUOUS
 62
     7
100
AcDbCircle
 10
-50.1787057517
 20
142.103730697
 30
0.0
 40
4.999998821912689
100
AcDbArc
 50
0.0000126643
 51
88.4250633953
  0
LINE
  5
272
330
1F
100
AcDbEntity
  8
0
  6
CONTINUOUS
 62
     7
100
AcDbLine
 10
-45.1787069298
 20
142.1037318022
 30
0.0
 11
-45.1787069298
 21
141.9850895911
 31
0.0
  0
LINE
  5
273
330
1F
100
AcDbEntity
  8
0
  6
CONTINUOUS
 62
     7
100
AcDbLine
 10
-70.3179556538
 20
147.1017901541
 30
0.0
 11
-71.1100918062
 21
147.0162159469
 31
0.0
  0
LINE
  5
274
330
1F
100
AcDbEntity
  8
0
  6
CONTINUOUS
 62
     7
100
AcDbLine
 10
-145.7887069298
 20
143.9993266564
 30
0.0
 11
-145.7887069298
 21
139.9993266564
 31
0.0
  0
LINE
  5
275
330
1F
100
AcDbEntity
  8
0
  6
CONTINUOUS
 62
     7
100
AcDbLine
 10
-145.7602794357
 20
143.9993266564
 30
0.0
 11
-145.7602794357
 21
139.9993266564
 31
0.0
  0
LINE
  5
276
330
1F
100
AcDbEntity
  8
0
  6
CONTINUOUS
 62
     7
100
AcDbLine
 10
-145.4871984958
 20
143.6093266564
 30
0.0
 11
-145.4871984958
 21
140.3893266564
 31
0.0
  0
LINE
  5
277
330
1F
100
AcDbEntity
  8
0
  6
CONTINUOUS
 62
     7
100
AcDbLine
 10
-146.1787069298
 20
143.6093266564
 30
0.0
 11
-146.1787069298
 21
140.3893266564
 31
0.0
  0
LINE
  5
278
330
1F
100
AcDbEntity
  8
0
  6
CONTINUOUS
 62
     7
100
AcDbLine
 10
-145.2141175559
 20
143.9993266564
 30
0.0
 11
-145.2141175559
 21
139.9993266564
 31
0.0
  0
LINE
  5
279
330
1F
100
AcDbEntity
  8
0
  6
CONTINUOUS
 62
     7
100
AcDbLine
 10
-145.0687700018
 20
143.9993266564
 30
0.0
 11
-145.0687700018
 21
139.9993266564
 31
0.0
  0
LINE
  5
27A
330
1F
100
AcDbEntity
  8
0
  6
CONTINUOUS
 62
     7
100
AcDbLine
 10
-144.7956890619
 20
143.6093266564
 30
0.0
 11
-144.7956890619
 21
140.3893266564
 31
0.0
  0
LINE
  5
27B
330
1F
100
AcDbEntity
  8
0
  6
CONTINUOUS
 62
     7
100
AcDbLine
 10
-144.522608122
 20
143.9993266564
 30
0.0
 11
-144.522608122
 21
139.9993266564
 31
0.0
  0
LINE
  5
27C
330
1F
100
AcDbEntity
  8
0
  6
CONTINUOUS
 62
     7
100
AcDbLine
 10
-144.3772605678
 20
143.9993266564
 30
0.0
 11
-144.3772605678
 21
139.9993266564
 31
0.0
  0
LINE
  5
27D
330
1F
100
AcDbEntity
  8
0
  6
CONTINUOUS
 62
     7
100
AcDbLine
 10
-144.1041796279
 20
143.6093266564
 30
0.0
 11
-144.1041796279
 21
140.3893266564
 31
0.0
  0
LINE
  5
27E
330
1F
100
AcDbEntity
  8
0
  6
CONTINUOUS
 62
     7
100
AcDbLine
 10
-143.6857511339
 20
143.9993266564
 30
0.0
 11
-143.6857511339
 21
139.9993266564
 31
0.0
  0
LINE
  5
27F
330
1F
100
AcDbEntity
  8
0
  6
CONTINUOUS
 62
     7
100
AcDbLine
 10
-143.831098688
 20
143.9993266564
 30
0.0
 11
-143.831098688
 21
139.9993266564
 31
0.0
  0
LINE
  5
280
330
1F
100
AcDbEntity
  8
0
  6
CONTINUOUS
 62
     7
100
AcDbLine
 10
-143.412670194
 20
143.6093266564
 30
0.0
 11
-143.412670194
 21
140.3893266564
 31
0.0
  0
LINE
  5
281
330
1F
100
AcDbEntity
  8
0
  6
CONTINUOUS
 62
     7
100
AcDbLine
 10
-143.139589254
 20
143.9993266564
 30
0.0
 11
-143.139589254
 21
139.9993266564
 31
0.0
  0
LINE
  5
282
330
1F
100
AcDbEntity
  8
0
  6
CONTINUOUS
 62
     7
100
AcDbLine
 10
-142.9942416999
 20
143.9993266564
 30
0.0
 11
-142.9942416999
 21
139.9993266564
 31
0.0
  0
LINE
  5
283
330
1F
100
AcDbEntity
  8
0
  6
CONTINUOUS
 62
     7
100
AcDbLine
 10
-142.72116076
 20
143.6093266564
 30
0.0
 11
-142.72116076
 21
140.3893266564
 31
0.0
  0
LINE
  5
284
330
1F
100
AcDbEntity
  8
0
  6
CONTINUOUS
 62
     7
100
AcDbLine
 10
-142.4480798201
 20
143.9993266564
 30
0.0
 11
-142.4480798201
 21
139.9993266564
 31
0.0
  0
LINE
  5
285
330
1F
100
AcDbEntity
  8
0
  6
CONTINUOUS
 62
     7
100
AcDbLine
 10
-142.3027322659
 20
143.9993266564
 30
0.0
 11
-142.3027322659
 21
139.9993266564
 31
0.0
  0
LINE
  5
286
330
1F
100
AcDbEntity
  8
0
  6
CONTINUOUS
 62
     7
100
AcDbLine
 10
-142.029651326
 20
143.6093266564
 30
0.0
 11
-142.029651326
 21
140.3893266564
 31
0.0
  0
LINE
  5
287
330
1F
100
AcDbEntity
  8
0
  6
CONTINUOUS
 62
     7
100
AcDbLine
 10
-141.7565703861
 20
143.9993266564
 30
0.0
 11
-141.7565703861
 21
139.9993266564
 31
0.0
  0
LINE
  5
288
330
1F
100
AcDbEntity
  8
0
  6
CONTINUOUS
 62
     7
100
AcDbLine
 10
-141.3381418921
 20
143.6093266564
 30
0.0
 11
-141.3381418921
 21
140.3893266564
 31
0.0
  0
LINE
  5
289
330
1F
100
AcDbEntity
  8
0
  6
CONTINUOUS
 62
     7
100
AcDbLine
 10
-141.0650609522
 20
143.9993266564
 30
0.0
 11
-141.0650609522
 21
139.9993266564
 31
0.0
  0
LINE
  5
28A
330
1F
100
AcDbEntity
  8
0
  6
CONTINUOUS
 62
     7
100
AcDbLine
 10
-141.611222832
 20
143.9993266564
 30
0.0
 11
-141.611222832
 21
139.9993266564
 31
0.0
  0
LINE
  5
28B
330
1F
100
AcDbEntity
  8
0
  6
CONTINUOUS
 62
     7
100
AcDbLine
 10
-140.919713398
 20
143.9993266564
 30
0.0
 11
-140.919713398
 21
139.9993266564
 31
0.0
  0
LINE
  5
28C
330
1F
100
AcDbEntity
  8
0
  6
CONTINUOUS
 62
     7
100
AcDbLine
 10
-140.6466324581
 20
143.6093266564
 30
0.0
 11
-140.6466324581
 21
140.3893266564
 31
0.0
  0
LINE
  5
28D
330
1F
100
AcDbEntity
  8
0
  6
CONTINUOUS
 62
     7
100
AcDbLine
 10
-140.228203964
 20
143.9993266564
 30
0.0
 11
-140.228203964
 21
139.9993266564
 31
0.0
  0
LINE
  5
28E
330
1F
100
AcDbEntity
  8
0
  6
CONTINUOUS
 62
     7
100
AcDbLine
 10
-140.3735515182
 20
143.9993266564
 30
0.0
 11
-140.3735515182
 21
139.9993266564
 31
0.0
  0
LINE
  5
28F
330
1F
100
AcDbEntity
  8
0
  6
CONTINUOUS
 62
     7
100
AcDbLine
 10
-139.9551230241
 20
143.6093266564
 30
0.0
 11
-139.9551230241
 21
140.3893266564
 31
0.0
  0
LINE
  5
290
330
1F
100
AcDbEntity
  8
0
  6
CONTINUOUS
 62
     7
100
AcDbLine
 10
-139.6820420842
 20
143.9993266564
 30
0.0
 11
-139.6820420842
 21
139.9993266564
 31
0.0
  0
LINE
  5
291
330
1F
100
AcDbEntity
  8
0
  6
CONTINUOUS
 62
     7
100
AcDbLine
 10
-139.5366945301
 20
143.9993266564
 30
0.0
 11
-139.5366945301
 21
139.9993266564
 31
0.0
  0
LINE
  5
292
330
1F
100
AcDbEntity
  8
0
  6
CONTINUOUS
 62
     7
100
AcDbLine
 10
-139.2636135902
 20
143.6093266564
 30
0.0
 11
-139.2636135902
 21
140.3893266564
 31
0.0
  0
LINE
  5
293
330
1F
100
AcDbEntity
  8
0
  6
CONTINUOUS
 62
     7
100
AcDbLine
 10
-138.8451850961
 20
143.9993266564
 30
0.0
 11
-138.8451850961
 21
139.9993266564
 31
0.0
  0
LINE
  5
294
330
1F
100
AcDbEntity
  8
0
  6
CONTINUOUS
 62
     7
100
AcDbLine
 10
-138.5721041562
 20
143.6093266564
 30
0.0
 11
-138.5721041562
 21
140.3893266564
 31
0.0
  0
LINE
  5
295
330
1F
100
AcDbEntity
  8
0
  6
CONTINUOUS
 62
     7
100
AcDbLine
 10
-138.9905326503
 20
143.9993266564
 30
0.0
 11
-138.9905326503
 21
139.9993266564
 31
0.0
  0
LINE
  5
296
330
1F
100
AcDbEntity
  8
0
  6
CONTINUOUS
 62
     7
100
AcDbLine
 10
-138.1536756622
 20
143.9993266564
 30
0.0
 11
-138.1536756622
 21
139.9993266564
 31
0.0
  0
LINE
  5
297
330
1F
100
AcDbEntity
  8
0
  6
CONTINUOUS
 62
     7
100
AcDbLine
 10
-138.2990232163
 20
143.9993266564
 30
0.0
 11
-138.2990232163
 21
139.9993266564
 31
0.0
  0
LINE
  5
298
330
1F
100
AcDbEntity
  8
0
  6
CONTINUOUS
 62
     7
100
AcDbLine
 10
-137.8805947223
 20
143.6093266564
 30
0.0
 11
-137.8805947223
 21
140.3893266564
 31
0.0
  0
LINE
  5
299
330
1F
100
AcDbEntity
  8
0
  6
CONTINUOUS
 62
     7
100
AcDbLine
 10
-137.6075137824
 20
143.9993266564
 30
0.0
 11
-137.6075137824
 21
139.9993266564
 31
0.0
  0
LINE
  5
29A
330
1F
100
AcDbEntity
  8
0
  6
CONTINUOUS
 62
     7
100
AcDbLine
 10
-137.4621662282
 20
143.9993266564
 30
0.0
 11
-137.4621662282
 21
139.9993266564
 31
0.0
  0
LINE
  5
29B
330
1F
100
AcDbEntity
  8
0
  6
CONTINUOUS
 62
     7
100
AcDbLine
 10
-137.1890852883
 20
143.6093266564
 30
0.0
 11
-137.1890852883
 21
140.3893266564
 31
0.0
  0
LINE
  5
29C
330
1F
100
AcDbEntity
  8
0
  6
CONTINUOUS
 62
     7
100
AcDbLine
 10
-136.7706567942
 20
143.9993266564
 30
0.0
 11
-136.7706567942
 21
139.9993266564
 31
0.0
  0
LINE
  5
29D
330
1F
100
AcDbEntity
  8
0
  6
CONTINUOUS
 62
     7
100
AcDbLine
 10
-136.9160043484
 20
143.9993266564
 30
0.0
 11
-136.9160043484
 21
139.9993266564
 31
0.0
  0
LINE
  5
29E
330
1F
100
AcDbEntity
  8
0
  6
CONTINUOUS
 62
     7
100
AcDbLine
 10
-136.4975758543
 20
143.6093266564
 30
0.0
 11
-136.4975758543
 21
140.3893266564
 31
0.0
  0
LINE
  5
29F
330
1F
100
AcDbEntity
  8
0
  6
CONTINUOUS
 62
     7
100
AcDbLine
 10
-136.2244949144
 20
143.9993266564
 30
0.0
 11
-136.2244949144
 21
139.9993266564
 31
0.0
  0
LINE
  5
2A0
330
1F
100
AcDbEntity
  8
0
  6
CONTINUOUS
 62
     7
100
AcDbLine
 10
-136.0791473603
 20
143.9993266564
 30
0.0
 11
-136.0791473603
 21
139.9993266564
 31
0.0
  0
LINE
  5
2A1
330
1F
100
AcDbEntity
  8
0
  6
CONTINUOUS
 62
     7
100
AcDbLine
 10
-135.8060664204
 20
143.6093266564
 30
0.0
 11
-135.8060664204
 21
140.3893266564
 31
0.0
  0
LINE
  5
2A2
330
1F
100
AcDbEntity
  8
0
  6
CONTINUOUS
 62
     7
100
AcDbLine
 10
-135.3876379263
 20
143.9993266564
 30
0.0
 11
-135.3876379263
 21
139.9993266564
 31
0.0
  0
LINE
  5
2A3
330
1F
100
AcDbEntity
  8
0
  6
CONTINUOUS
 62
     7
100
AcDbLine
 10
-135.1145569864
 20
143.6093266564
 30
0.0
 11
-135.1145569864
 21
140.3893266564
 31
0.0
  0
LINE
  5
2A4
330
1F
100
AcDbEntity
  8
0
  6
CONTINUOUS
 62
     7
100
AcDbLine
 10
-135.5329854805
 20
143.9993266564
 30
0.0
 11
-135.5329854805
 21
139.9993266564
 31
0.0
  0
LINE
  5
2A5
330
1F
100
AcDbEntity
  8
0
  6
CONTINUOUS
 62
     7
100
AcDbLine
 10
-134.8414760465
 20
143.9993266564
 30
0.0
 11
-134.8414760465
 21
139.9993266564
 31
0.0
  0
LINE
  5
2A6
330
1F
100
AcDbEntity
  8
0
  6
CONTINUOUS
 62
     7
100
AcDbLine
 10
-134.6961284923
 20
143.9993266564
 30
0.0
 11
-134.6961284923
 21
139.9993266564
 31
0.0
  0
LINE
  5
2A7
330
1F
100
AcDbEntity
  8
0
  6
CONTINUOUS
 62
     7
100
AcDbLine
 10
-134.4230475524
 20
143.6093266564
 30
0.0
 11
-134.4230475524
 21
140.3893266564
 31
0.0
  0
LINE
  5
2A8
330
1F
100
AcDbEntity
  8
0
  6
CONTINUOUS
 62
     7
100
AcDbLine
 10
-134.1499666125
 20
143.9993266564
 30
0.0
 11
-134.1499666125
 21
139.9993266564
 31
0.0
  0
LINE
  5
2A9
330
1F
100
AcDbEntity
  8
0
  6
CONTINUOUS
 62
     7
100
AcDbLine
 10
-134.0046190584
 20
143.9993266564
 30
0.0
 11
-134.0046190584
 21
139.9993266564
 31
0.0
  0
LINE
  5
2AA
330
1F
100
AcDbEntity
  8
0
  6
CONTINUOUS
 62
     7
100
AcDbLine
 10
-133.7315381185
 20
143.6093266564
 30
0.0
 11
-133.7315381185
 21
140.3893266564
 31
0.0
  0
LINE
  5
2AB
330
1F
100
AcDbEntity
  8
0
  6
CONTINUOUS
 62
     7
100
AcDbLine
 10
-133.3131096244
 20
143.9993266564
 30
0.0
 11
-133.3131096244
 21
139.9993266564
 31
0.0
  0
LINE
  5
2AC
330
1F
100
AcDbEntity
  8
0
  6
CONTINUOUS
 62
     7
100
AcDbLine
 10
-133.4584571786
 20
143.9993266564
 30
0.0
 11
-133.4584571786
 21
139.9993266564
 31
0.0
  0
LINE
  5
2AD
330
1F
100
AcDbEntity
  8
0
  6
CONTINUOUS
 62
     7
100
AcDbLine
 10
-133.0400286845
 20
143.6093266564
 30
0.0
 11
-133.0400286845
 21
140.3893266564
 31
0.0
  0
LINE
  5
2AE
330
1F
100
AcDbEntity
  8
0
  6
CONTINUOUS
 62
     7
100
AcDbLine
 10
-132.7669477446
 20
143.9993266564
 30
0.0
 11
-132.7669477446
 21
139.9993266564
 31
0.0
  0
LINE
  5
2AF
330
1F
100
AcDbEntity
  8
0
  6
CONTINUOUS
 62
     7
100
AcDbLine
 10
-132.3485192506
 20
143.6093266564
 30
0.0
 11
-132.3485192506
 21
140.3893266564
 31
0.0
  0
LINE
  5
2B0
330
1F
100
AcDbEntity
  8
0
  6
CONTINUOUS
 62
     7
100
AcDbLine
 10
-132.0754383107
 20
143.9993266564
 30
0.0
 11
-132.0754383107
 21
139.9993266564
 31
0.0
  0
LINE
  5
2B1
330
1F
100
AcDbEntity
  8
0
  6
CONTINUOUS
 62
     7
100
AcDbLine
 10
-132.6216001905
 20
143.9993266564
 30
0.0
 11
-132.6216001905
 21
139.9993266564
 31
0.0
  0
LINE
  5
2B2
330
1F
100
AcDbEntity
  8
0
  6
CONTINUOUS
 62
     7
100
AcDbLine
 10
-131.9300907565
 20
143.9993266564
 30
0.0
 11
-131.9300907565
 21
139.9993266564
 31
0.0
  0
LINE
  5
2B3
330
1F
100
AcDbEntity
  8
0
  6
CONTINUOUS
 62
     7
100
AcDbLine
 10
-131.6570098166
 20
143.6093266564
 30
0.0
 11
-131.6570098166
 21
140.3893266564
 31
0.0
  0
LINE
  5
2B4
330
1F
100
AcDbEntity
  8
0
  6
CONTINUOUS
 62
     7
100
AcDbLine
 10
-131.2385813225
 20
143.9993266564
 30
0.0
 11
-131.2385813225
 21
139.9993266564
 31
0.0
  0
LINE
  5
2B5
330
1F
100
AcDbEntity
  8
0
  6
CONTINUOUS
 62
     7
100
AcDbLine
 10
-131.3839288767
 20
143.9993266564
 30
0.0
 11
-131.3839288767
 21
139.9993266564
 31
0.0
  0
LINE
  5
2B6
330
1F
100
AcDbEntity
  8
0
  6
CONTINUOUS
 62
     7
100
AcDbLine
 10
-130.9655003826
 20
143.6093266564
 30
0.0
 11
-130.9655003826
 21
140.3893266564
 31
0.0
  0
LINE
  5
2B7
330
1F
100
AcDbEntity
  8
0
  6
CONTINUOUS
 62
     7
100
AcDbLine
 10
-130.6924194427
 20
143.9993266564
 30
0.0
 11
-130.6924194427
 21
139.9993266564
 31
0.0
  0
LINE
  5
2B8
330
1F
100
AcDbEntity
  8
0
  6
CONTINUOUS
 62
     7
100
AcDbLine
 10
-130.5470718886
 20
143.9993266564
 30
0.0
 11
-130.5470718886
 21
139.9993266564
 31
0.0
  0
LINE
  5
2B9
330
1F
100
AcDbEntity
  8
0
  6
CONTINUOUS
 62
     7
100
AcDbLine
 10
-130.2739909487
 20
143.6093266564
 30
0.0
 11
-130.2739909487
 21
140.3893266564
 31
0.0
  0
LINE
  5
2BA
330
1F
100
AcDbEntity
  8
0
  6
CONTINUOUS
 62
     7
100
AcDbLine
 10
-129.8555624546
 20
143.9993266564
 30
0.0
 11
-129.8555624546
 21
139.9993266564
 31
0.0
  0
LINE
  5
2BB
330
1F
100
AcDbEntity
  8
0
  6
CONTINUOUS
 62
     7
100
AcDbLine
 10
-130.0009100088
 20
143.9993266564
 30
0.0
 11
-130.0009100088
 21
139.9993266564
 31
0.0
  0
LINE
  5
2BC
330
1F
100
AcDbEntity
  8
0
  6
CONTINUOUS
 62
     7
100
AcDbLine
 10
-129.5824815147
 20
143.6093266564
 30
0.0
 11
-129.5824815147
 21
140.3893266564
 31
0.0
  0
LINE
  5
2BD
330
1F
100
AcDbEntity
  8
0
  6
CONTINUOUS
 62
     7
100
AcDbLine
 10
-129.3094005748
 20
143.9993266564
 30
0.0
 11
-129.3094005748
 21
139.9993266564
 31
0.0
  0
LINE
  5
2BE
330
1F
100
AcDbEntity
  8
0
  6
CONTINUOUS
 62
     7
100
AcDbLine
 10
-128.8909720807
 20
143.6093266564
 30
0.0
 11
-128.8909720807
 21
140.3893266564
 31
0.0
  0
LINE
  5
2BF
330
1F
100
AcDbEntity
  8
0
  6
CONTINUOUS
 62
     7
100
AcDbLine
 10
-128.6178911408
 20
143.9993266564
 30
0.0
 11
-128.6178911408
 21
139.9993266564
 31
0.0
  0
LINE
  5
2C0
330
1F
100
AcDbEntity
  8
0
  6
CONTINUOUS
 62
     7
100
AcDbLine
 10
-129.1640530206
 20
143.9993266564
 30
0.0
 11
-129.1640530206
 21
139.9993266564
 31
0.0
  0
LINE
  5
2C1
330
1F
100
AcDbEntity
  8
0
  6
CONTINUOUS
 62
     7
100
AcDbLine
 10
-128.4725435867
 20
143.9993266564
 30
0.0
 11
-128.4725435867
 21
139.9993266564
 31
0.0
  0
LINE
  5
2C2
330
1F
100
AcDbEntity
  8
0
  6
CONTINUOUS
 62
     7
100
AcDbLine
 10
-128.1994626468
 20
143.6093266564
 30
0.0
 11
-128.1994626468
 21
140.3893266564
 31
0.0
  0
LINE
  5
2C3
330
1F
100
AcDbEntity
  8
0
  6
CONTINUOUS
 62
     7
100
AcDbLine
 10
-127.9263817069
 20
143.9993266564
 30
0.0
 11
-127.9263817069
 21
139.9993266564
 31
0.0
  0
LINE
  5
2C4
330
1F
100
AcDbEntity
  8
0
  6
CONTINUOUS
 62
     7
100
AcDbLine
 10
-127.7810341527
 20
143.9993266564
 30
0.0
 11
-127.7810341527
 21
139.9993266564
 31
0.0
  0
LINE
  5
2C5
330
1F
100
AcDbEntity
  8
0
  6
CONTINUOUS
 62
     7
100
AcDbLine
 10
-127.5079532128
 20
143.6093266564
 30
0.0
 11
-127.5079532128
 21
140.3893266564
 31
0.0
  0
LINE
  5
2C6
330
1F
100
AcDbEntity
  8
0
  6
CONTINUOUS
 62
     7
100
AcDbLine
 10
-127.2348722729
 20
143.9993266564
 30
0.0
 11
-127.2348722729
 21
139.9993266564
 31
0.0
  0
LINE
  5
2C7
330
1F
100
AcDbEntity
  8
0
  6
CONTINUOUS
 62
     7
100
AcDbLine
 10
-127.0895247188
 20
143.9993266564
 30
0.0
 11
-127.0895247188
 21
139.9993266564
 31
0.0
  0
LINE
  5
2C8
330
1F
100
AcDbEntity
  8
0
  6
CONTINUOUS
 62
     7
100
AcDbLine
 10
-126.8164437789
 20
143.6093266564
 30
0.0
 11
-126.8164437789
 21
140.3893266564
 31
0.0
  0
LINE
  5
2C9
330
1F
100
AcDbEntity
  8
0
  6
CONTINUOUS
 62
     7
100
AcDbLine
 10
-126.543362839
 20
143.9993266564
 30
0.0
 11
-126.543362839
 21
139.9993266564
 31
0.0
  0
LINE
  5
2CA
330
1F
100
AcDbEntity
  8
0
  6
CONTINUOUS
 62
     7
100
AcDbLine
 10
-126.3980152848
 20
143.9993266564
 30
0.0
 11
-126.3980152848
 21
139.9993266564
 31
0.0
  0
LINE
  5
2CB
330
1F
100
AcDbEntity
  8
0
  6
CONTINUOUS
 62
     7
100
AcDbLine
 10
-126.1249343449
 20
143.6093266564
 30
0.0
 11
-126.1249343449
 21
140.3893266564
 31
0.0
  0
LINE
  5
2CC
330
1F
100
AcDbEntity
  8
0
  6
CONTINUOUS
 62
     7
100
AcDbLine
 10
-125.851853405
 20
143.9993266564
 30
0.0
 11
-125.851853405
 21
139.9993266564
 31
0.0
  0
LINE
  5
2CD
330
1F
100
AcDbEntity
  8
0
  6
CONTINUOUS
 62
     7
100
AcDbLine
 10
-125.7065058508
 20
143.9993266564
 30
0.0
 11
-125.7065058508
 21
139.9993266564
 31
0.0
  0
LINE
  5
2CE
330
1F
100
AcDbEntity
  8
0
  6
CONTINUOUS
 62
     7
100
AcDbLine
 10
-125.4334249109
 20
143.6093266564
 30
0.0
 11
-125.4334249109
 21
140.3893266564
 31
0.0
  0
LINE
  5
2CF
330
1F
100
AcDbEntity
  8
0
  6
CONTINUOUS
 62
     7
100
AcDbLine
 10
-125.160343971
 20
143.9993266564
 30
0.0
 11
-125.160343971
 21
139.9993266564
 31
0.0
  0
LINE
  5
2D0
330
1F
100
AcDbEntity
  8
0
  6
CONTINUOUS
 62
     7
100
AcDbLine
 10
-125.0149964169
 20
143.9993266564
 30
0.0
 11
-125.0149964169
 21
139.9993266564
 31
0.0
  0
LINE
  5
2D1
330
1F
100
AcDbEntity
  8
0
  6
CONTINUOUS
 62
     7
100
AcDbLine
 10
-124.741915477
 20
143.6093266564
 30
0.0
 11
-124.741915477
 21
140.3893266564
 31
0.0
  0
LINE
  5
2D2
330
1F
100
AcDbEntity
  8
0
  6
CONTINUOUS
 62
     7
100
AcDbLine
 10
-124.4688345371
 20
143.9993266564
 30
0.0
 11
-124.4688345371
 21
139.9993266564
 31
0.0
  0
LINE
  5
2D3
330
1F
100
AcDbEntity
  8
0
  6
CONTINUOUS
 62
     7
100
AcDbLine
 10
-124.3234869829
 20
143.9993266564
 30
0.0
 11
-124.3234869829
 21
139.9993266564
 31
0.0
  0
LINE
  5
2D4
330
1F
100
AcDbEntity
  8
0
  6
CONTINUOUS
 62
     7
100
AcDbLine
 10
-124.050406043
 20
143.6093266564
 30
0.0
 11
-124.050406043
 21
140.3893266564
 31
0.0
  0
LINE
  5
2D5
330
1F
100
AcDbEntity
  8
0
  6
CONTINUOUS
 62
     7
100
AcDbLine
 10
-123.7773251031
 20
143.9993266564
 30
0.0
 11
-123.7773251031
 21
139.9993266564
 31
0.0
  0
LINE
  5
2D6
330
1F
100
AcDbEntity
  8
0
  6
CONTINUOUS
 62
     7
100
AcDbLine
 10
-123.6319775489
 20
143.9993266564
 30
0.0
 11
-123.6319775489
 21
139.9993266564
 31
0.0
  0
LINE
  5
2D7
330
1F
100
AcDbEntity
  8
0
  6
CONTINUOUS
 62
     7
100
AcDbLine
 10
-123.358896609
 20
143.6093266564
 30
0.0
 11
-123.358896609
 21
140.3893266564
 31
0.0
  0
LINE
  5
2D8
330
1F
100
AcDbEntity
  8
0
  6
CONTINUOUS
 62
     7
100
AcDbLine
 10
-122.940468115
 20
143.9993266564
 30
0.0
 11
-122.940468115
 21
139.9993266564
 31
0.0
  0
LINE
  5
2D9
330
1F
100
AcDbEntity
  8
0
  6
CONTINUOUS
 62
     7
100
AcDbLine
 10
-122.6673871751
 20
143.6093266564
 30
0.0
 11
-122.6673871751
 21
140.3893266564
 31
0.0
  0
LINE
  5
2DA
330
1F
100
AcDbEntity
  8
0
  6
CONTINUOUS
 62
     7
100
AcDbLine
 10
-123.0858156691
 20
143.9993266564
 30
0.0
 11
-123.0858156691
 21
139.9993266564
 31
0.0
  0
LINE
  5
2DB
330
1F
100
AcDbEntity
  8
0
  6
CONTINUOUS
 62
     7
100
AcDbLine
 10
-122.3943062352
 20
143.9993266564
 30
0.0
 11
-122.3943062352
 21
139.9993266564
 31
0.0
  0
LINE
  5
2DC
330
1F
100
AcDbEntity
  8
0
  6
CONTINUOUS
 62
     7
100
AcDbLine
 10
-121.9758777411
 20
143.6093266564
 30
0.0
 11
-121.9758777411
 21
140.3893266564
 31
0.0
  0
LINE
  5
2DD
330
1F
100
AcDbEntity
  8
0
  6
CONTINUOUS
 62
     7
100
AcDbLine
 10
-121.7027968012
 20
143.9993266564
 30
0.0
 11
-121.7027968012
 21
139.9993266564
 31
0.0
  0
LINE
  5
2DE
330
1F
100
AcDbEntity
  8
0
  6
CONTINUOUS
 62
     7
100
AcDbLine
 10
-122.248958681
 20
143.9993266564
 30
0.0
 11
-122.248958681
 21
139.9993266564
 31
0.0
  0
LINE
  5
2DF
330
1F
100
AcDbEntity
  8
0
  6
CONTINUOUS
 62
     7
100
AcDbLine
 10
-121.5574492471
 20
143.9993266564
 30
0.0
 11
-121.5574492471
 21
139.9993266564
 31
0.0
  0
LINE
  5
2E0
330
1F
100
AcDbEntity
  8
0
  6
CONTINUOUS
 62
     7
100
AcDbLine
 10
-121.2843683072
 20
143.6093266564
 30
0.0
 11
-121.2843683072
 21
140.3893266564
 31
0.0
  0
LINE
  5
2E1
330
1F
100
AcDbEntity
  8
0
  6
CONTINUOUS
 62
     7
100
AcDbLine
 10
-121.0112873673
 20
143.9993266564
 30
0.0
 11
-121.0112873673
 21
139.9993266564
 31
0.0
  0
LINE
  5
2E2
330
1F
100
AcDbEntity
  8
0
  6
CONTINUOUS
 62
     7
100
AcDbLine
 10
-120.8659398131
 20
143.9993266564
 30
0.0
 11
-120.8659398131
 21
139.9993266564
 31
0.0
  0
LINE
  5
2E3
330
1F
100
AcDbEntity
  8
0
  6
CONTINUOUS
 62
     7
100
AcDbLine
 10
-120.5928588732
 20
143.6093266564
 30
0.0
 11
-120.5928588732
 21
140.3893266564
 31
0.0
  0
LINE
  5
2E4
330
1F
100
AcDbEntity
  8
0
  6
CONTINUOUS
 62
     7
100
AcDbLine
 10
-120.3197779333
 20
143.9993266564
 30
0.0
 11
-120.3197779333
 21
139.9993266564
 31
0.0
  0
LINE
  5
2E5
330
1F
100
AcDbEntity
  8
0
  6
CONTINUOUS
 62
     7
100
AcDbLine
 10
-120.1744303791
 20
143.9993266564
 30
0.0
 11
-120.1744303791
 21
139.9993266564
 31
0.0
  0
LINE
  5
2E6
330
1F
100
AcDbEntity
  8
0
  6
CONTINUOUS
 62
     7
100
AcDbLine
 10
-119.9013494392
 20
143.6093266564
 30
0.0
 11
-119.9013494392
 21
140.3893266564
 31
0.0
  0
LINE
  5
2E7
330
1F
100
AcDbEntity
  8
0
  6
CONTINUOUS
 62
     7
100
AcDbLine
 10
-119.4829209452
 20
143.9993266564
 30
0.0
 11
-119.4829209452
 21
139.9993266564
 31
0.0
  0
LINE
  5
2E8
330
1F
100
AcDbEntity
  8
0
  6
CONTINUOUS
 62
     7
100
AcDbLine
 10
-119.2098400053
 20
143.6093266564
 30
0.0
 11
-119.2098400053
 21
140.3893266564
 31
0.0
  0
LINE
  5
2E9
330
1F
100
AcDbEntity
  8
0
  6
CONTINUOUS
 62
     7
100
AcDbLine
 10
-119.6282684993
 20
143.9993266564
 30
0.0
 11
-119.6282684993
 21
139.9993266564
 31
0.0
  0
LINE
  5
2EA
330
1F
100
AcDbEntity
  8
0
  6
CONTINUOUS
 62
     7
100
AcDbLine
 10
-118.7914115112
 20
143.9993266564
 30
0.0
 11
-118.7914115112
 21
139.9993266564
 31
0.0
  0
LINE
  5
2EB
330
1F
100
AcDbEntity
  8
0
  6
CONTINUOUS
 62
     7
100
AcDbLine
 10
-118.9367590654
 20
143.9993266564
 30
0.0
 11
-118.9367590654
 21
139.9993266564
 31
0.0
  0
LINE
  5
2EC
330
1F
100
AcDbEntity
  8
0
  6
CONTINUOUS
 62
     7
100
AcDbLine
 10
-118.5183305713
 20
143.6093266564
 30
0.0
 11
-118.5183305713
 21
140.3893266564
 31
0.0
  0
LINE
  5
2ED
330
1F
100
AcDbEntity
  8
0
  6
CONTINUOUS
 62
     7
100
AcDbLine
 10
-118.2452496314
 20
143.9993266564
 30
0.0
 11
-118.2452496314
 21
139.9993266564
 31
0.0
  0
LINE
  5
2EE
330
1F
100
AcDbEntity
  8
0
  6
CONTINUOUS
 62
     7
100
AcDbLine
 10
-118.0999020772
 20
143.9993266564
 30
0.0
 11
-118.0999020772
 21
139.9993266564
 31
0.0
  0
LINE
  5
2EF
330
1F
100
AcDbEntity
  8
0
  6
CONTINUOUS
 62
     7
100
AcDbLine
 10
-117.8268211373
 20
143.6093266564
 30
0.0
 11
-117.8268211373
 21
140.3893266564
 31
0.0
  0
LINE
  5
2F0
330
1F
100
AcDbEntity
  8
0
  6
CONTINUOUS
 62
     7
100
AcDbLine
 10
-117.5537401974
 20
143.9993266564
 30
0.0
 11
-117.5537401974
 21
139.9993266564
 31
0.0
  0
LINE
  5
2F1
330
1F
100
AcDbEntity
  8
0
  6
CONTINUOUS
 62
     7
100
AcDbLine
 10
-117.4083926433
 20
143.9993266564
 30
0.0
 11
-117.4083926433
 21
139.9993266564
 31
0.0
  0
LINE
  5
2F2
330
1F
100
AcDbEntity
  8
0
  6
CONTINUOUS
 62
     7
100
AcDbLine
 10
-117.1353117034
 20
143.6093266564
 30
0.0
 11
-117.1353117034
 21
140.3893266564
 31
0.0
  0
LINE
  5
2F3
330
1F
100
AcDbEntity
  8
0
  6
CONTINUOUS
 62
     7
100
AcDbLine
 10
-116.8622307635
 20
143.9993266564
 30
0.0
 11
-116.8622307635
 21
139.9993266564
 31
0.0
  0
LINE
  5
2F4
330
1F
100
AcDbEntity
  8
0
  6
CONTINUOUS
 62
     7
100
AcDbLine
 10
-116.7168832093
 20
143.9993266564
 30
0.0
 11
-116.7168832093
 21
139.9993266564
 31
0.0
  0
LINE
  5
2F5
330
1F
100
AcDbEntity
  8
0
  6
CONTINUOUS
 62
     7
100
AcDbLine
 10
-116.4438022694
 20
143.6093266564
 30
0.0
 11
-116.4438022694
 21
140.3893266564
 31
0.0
  0
LINE
  5
2F6
330
1F
100
AcDbEntity
  8
0
  6
CONTINUOUS
 62
     7
100
AcDbLine
 10
-116.1707213295
 20
143.9993266564
 30
0.0
 11
-116.1707213295
 21
139.9993266564
 31
0.0
  0
LINE
  5
2F7
330
1F
100
AcDbEntity
  8
0
  6
CONTINUOUS
 62
     7
100
AcDbLine
 10
-116.0253737754
 20
143.9993266564
 30
0.0
 11
-116.0253737754
 21
139.9993266564
 31
0.0
  0
LINE
  5
2F8
330
1F
100
AcDbEntity
  8
0
  6
CONTINUOUS
 62
     7
100
AcDbLine
 10
-115.7522928355
 20
143.6093266564
 30
0.0
 11
-115.7522928355
 21
140.3893266564
 31
0.0
  0
LINE
  5
2F9
330
1F
100
AcDbEntity
  8
0
  6
CONTINUOUS
 62
     7
100
AcDbLine
 10
-115.3338643414
 20
143.9993266564
 30
0.0
 11
-115.3338643414
 21
139.9993266564
 31
0.0
  0
LINE
  5
2FA
330
1F
100
AcDbEntity
  8
0
  6
CONTINUOUS
 62
     7
100
AcDbLine
 10
-115.4792118956
 20
143.9993266564
 30
0.0
 11
-115.4792118956
 21
139.9993266564
 31
0.0
  0
LINE
  5
2FB
330
1F
100
AcDbEntity
  8
0
  6
CONTINUOUS
 62
     7
100
AcDbLine
 10
-115.0607834015
 20
143.6093266564
 30
0.0
 11
-115.0607834015
 21
140.3893266564
 31
0.0
  0
LINE
  5
2FC
330
1F
100
AcDbEntity
  8
0
  6
CONTINUOUS
 62
     7
100
AcDbLine
 10
-114.7877024616
 20
143.9993266564
 30
0.0
 11
-114.7877024616
 21
139.9993266564
 31
0.0
  0
LINE
  5
2FD
330
1F
100
AcDbEntity
  8
0
  6
CONTINUOUS
 62
     7
100
AcDbLine
 10
-114.6423549074
 20
143.9993266564
 30
0.0
 11
-114.6423549074
 21
139.9993266564
 31
0.0
  0
LINE
  5
2FE
330
1F
100
AcDbEntity
  8
0
  6
CONTINUOUS
 62
     7
100
AcDbLine
 10
-114.3692739675
 20
143.6093266564
 30
0.0
 11
-114.3692739675
 21
140.3893266564
 31
0.0
  0
LINE
  5
2FF
330
1F
100
AcDbEntity
  8
0
  6
CONTINUOUS
 62
     7
100
AcDbLine
 10
-114.0961930276
 20
143.9993266564
 30
0.0
 11
-114.0961930276
 21
139.9993266564
 31
0.0
  0
LINE
  5
300
330
1F
100
AcDbEntity
  8
0
  6
CONTINUOUS
 62
     7
100
AcDbLine
 10
-113.9508454735
 20
143.9993266564
 30
0.0
 11
-113.9508454735
 21
139.9993266564
 31
0.0
  0
LINE
  5
301
330
1F
100
AcDbEntity
  8
0
  6
CONTINUOUS
 62
     7
100
AcDbLine
 10
-113.6777645336
 20
143.6093266564
 30
0.0
 11
-113.6777645336
 21
140.3893266564
 31
0.0
  0
LINE
  5
302
330
1F
100
AcDbEntity
  8
0
  6
CONTINUOUS
 62
     7
100
AcDbLine
 10
-113.4046835937
 20
143.9993266564
 30
0.0
 11
-113.4046835937
 21
139.9993266564
 31
0.0
  0
LINE
  5
303
330
1F
100
AcDbEntity
  8
0
  6
CONTINUOUS
 62
     7
100
AcDbLine
 10
-113.2593360395
 20
143.9993266564
 30
0.0
 11
-113.2593360395
 21
139.9993266564
 31
0.0
  0
LINE
  5
304
330
1F
100
AcDbEntity
  8
0
  6
CONTINUOUS
 62
     7
100
AcDbLine
 10
-112.9862550996
 20
143.6093266564
 30
0.0
 11
-112.9862550996
 21
140.3893266564
 31
0.0
  0
LINE
  5
305
330
1F
100
AcDbEntity
  8
0
  6
CONTINUOUS
 62
     7
100
AcDbLine
 10
-112.7131741597
 20
143.9993266564
 30
0.0
 11
-112.7131741597
 21
139.9993266564
 31
0.0
  0
LINE
  5
306
330
1F
100
AcDbEntity
  8
0
  6
CONTINUOUS
 62
     7
100
AcDbLine
 10
-112.5678266056
 20
143.9993266564
 30
0.0
 11
-112.5678266056
 21
139.9993266564
 31
0.0
  0
LINE
  5
307
330
1F
100
AcDbEntity
  8
0
  6
CONTINUOUS
 62
     7
100
AcDbLine
 10
-112.2947456656
 20
143.6093266564
 30
0.0
 11
-112.2947456656
 21
140.3893266564
 31
0.0
  0
LINE
  5
308
330
1F
100
AcDbEntity
  8
0
  6
CONTINUOUS
 62
     7
100
AcDbLine
 10
-111.8763171716
 20
143.9993266564
 30
0.0
 11
-111.8763171716
 21
139.9993266564
 31
0.0
  0
LINE
  5
309
330
1F
100
AcDbEntity
  8
0
  6
CONTINUOUS
 62
     7
100
AcDbLine
 10
-112.0216647257
 20
143.9993266564
 30
0.0
 11
-112.0216647257
 21
139.9993266564
 31
0.0
  0
LINE
  5
30A
330
1F
100
AcDbEntity
  8
0
  6
CONTINUOUS
 62
     7
100
AcDbLine
 10
-111.6032362317
 20
143.6093266564
 30
0.0
 11
-111.6032362317
 21
140.3893266564
 31
0.0
  0
LINE
  5
30B
330
1F
100
AcDbEntity
  8
0
  6
CONTINUOUS
 62
     7
100
AcDbLine
 10
-111.3301552918
 20
143.9993266564
 30
0.0
 11
-111.3301552918
 21
139.9993266564
 31
0.0
  0
LINE
  5
30C
330
1F
100
AcDbEntity
  8
0
  6
CONTINUOUS
 62
     7
100
AcDbLine
 10
-111.1848077376
 20
143.9993266564
 30
0.0
 11
-111.1848077376
 21
139.9993266564
 31
0.0
  0
LINE
  5
30D
330
1F
100
AcDbEntity
  8
0
  6
CONTINUOUS
 62
     7
100
AcDbLine
 10
-110.9117267977
 20
143.6093266564
 30
0.0
 11
-110.9117267977
 21
140.3893266564
 31
0.0
  0
LINE
  5
30E
330
1F
100
AcDbEntity
  8
0
  6
CONTINUOUS
 62
     7
100
AcDbLine
 10
-110.6386458578
 20
143.9993266564
 30
0.0
 11
-110.6386458578
 21
139.9993266564
 31
0.0
  0
LINE
  5
30F
330
1F
100
AcDbEntity
  8
0
  6
CONTINUOUS
 62
     7
100
AcDbLine
 10
-110.4932983037
 20
143.9993266564
 30
0.0
 11
-110.4932983037
 21
139.9993266564
 31
0.0
  0
LINE
  5
310
330
1F
100
AcDbEntity
  8
0
  6
CONTINUOUS
 62
     7
100
AcDbLine
 10
-110.2202173638
 20
143.6093266564
 30
0.0
 11
-110.2202173638
 21
140.3893266564
 31
0.0
  0
LINE
  5
311
330
1F
100
AcDbEntity
  8
0
  6
CONTINUOUS
 62
     7
100
AcDbLine
 10
-109.9471364239
 20
143.9993266564
 30
0.0
 11
-109.9471364239
 21
139.9993266564
 31
0.0
  0
LINE
  5
312
330
1F
100
AcDbEntity
  8
0
  6
CONTINUOUS
 62
     7
100
AcDbLine
 10
-109.8017888697
 20
143.9993266564
 30
0.0
 11
-109.8017888697
 21
139.9993266564
 31
0.0
  0
LINE
  5
313
330
1F
100
AcDbEntity
  8
0
  6
CONTINUOUS
 62
     7
100
AcDbLine
 10
-109.5287079298
 20
143.6093266564
 30
0.0
 11
-109.5287079298
 21
140.3893266564
 31
0.0
  0
LINE
  5
314
330
1F
100
AcDbEntity
  8
0
  6
CONTINUOUS
 62
     7
100
AcDbLine
 10
-109.2556269899
 20
143.9993266564
 30
0.0
 11
-109.2556269899
 21
139.9993266564
 31
0.0
  0
LINE
  5
315
330
1F
100
AcDbEntity
  8
0
  6
CONTINUOUS
 62
     7
100
AcDbLine
 10
-151.2287069298
 20
140.516086959
 30
0.0
 11
-151.2287069298
 21
140.4909473031
 31
0.0
  0
LINE
  5
316
330
1F
100
AcDbEntity
  8
0
  6
CONTINUOUS
 62
     7
100
AcDbLine
 10
-151.2287069298
 20
140.516086959
 30
0.0
 11
-151.2287069298
 21
143.4825663538
 31
0.0
  0
LINE
  5
317
330
1F
100
AcDbEntity
  8
0
  6
CONTINUOUS
 62
     7
100
AcDbLine
 10
-151.2287069298
 20
143.5077060097
 30
0.0
 11
-151.2287069298
 21
143.4825663538
 31
0.0
  0
LINE
  5
318
330
1F
100
AcDbEntity
  8
0
  6
CONTINUOUS
 62
     7
100
AcDbLine
 10
-151.2287069298
 20
140.516086959
 30
0.0
 11
-151.1787069298
 21
140.516086959
 31
0.0
  0
LWPOLYLINE
  5
319
330
1F
100
AcDbEntity
  8
0
  6
CONTINUOUS
 62
     7
100
AcDbPolyline
 90
        9
 70
   128
 43
0.0
 10
-151.2287069298
 20
140.4909473031
 10
-151.2189524137
 20
140.4914303545
 10
-151.2095727582
 20
140.4928609454
 10
-151.2009284181
 20
140.495184099
 10
-151.1933515907
 20
140.4983105378
 10
-151.1871334492
 20
140.5021201145
 10
-151.1825129532
 20
140.5064664292
 10
-151.1796676658
 20
140.5111824554
 10
-151.1787069298
 20
140.516086959
  0
LINE
  5
31A
330
1F
100
AcDbEntity
  8
0
  6
CONTINUOUS
 62
     7
100
AcDbLine
 10
-151.2287069298
 20
143.4825663538
 30
0.0
 11
-151.1787069298
 21
143.4825663538
 31
0.0
  0
LINE
  5
31B
330
1F
100
AcDbEntity
  8
0
  6
CONTINUOUS
 62
     7
100
AcDbLine
 10
-151.1787069298
 20
143.4825663538
 30
0.0
 11
-151.1787069298
 21
140.516086959
 31
0.0
  0
LWPOLYLINE
  5
31C
330
1F
100
AcDbEntity
  8
0
  6
CONTINUOUS
 62
     7
100
AcDbPolyline
 90
        9
 70
   128
 43
0.0
 10
-151.2287069298
 20
143.5077060097
 10
-151.2189524137
 20
143.5072229583
 10
-151.2095727582
 20
143.5057923673
 10
-151.2009284181
 20
143.5034692137
 10
-151.1933515907
 20
143.500342775
 10
-151.1871334492
 20
143.4965331983
 10
-151.1825129532
 20
143.4921868836
 10
-151.1796676658
 20
143.4874708574
 10
-151.1787069298
 20
143.4825663538
  0
LINE
  5
31D
330
1F
100
AcDbEntity
  8
0
  6
CONTINUOUS
 62
     7
100
AcDbLine
 10
-151.1787069298
 20
140.516086959
 30
0.0
 11
-151.1787069298
 21
139.0493266564
 31
0.0
  0
LINE
  5
31E
330
1F
100
AcDbEntity
  8
0
  6
CONTINUOUS
 62
     7
100
AcDbLine
 10
-151.1787069298
 20
144.9493266564
 30
0.0
 11
-151.1787069298
 21
143.4825663538
 31
0.0
  0
LINE
  5
31F
330
1F
100
AcDbEntity
  8
0
  6
CONTINUOUS
 62
     7
100
AcDbLine
 10
-115.1787069298
 20
66.9993266564
 30
0.0
 11
-158.1787069298
 21
66.9993266564
 31
0.0
  0
LINE
  5
320
330
1F
100
AcDbEntity
  8
0
  6
CONTINUOUS
 62
     7
100
AcDbLine
 10
-115.1787069298
 20
60.9993266564
 30
0.0
 11
-158.1787069298
 21
60.9993266564
 31
0.0
  0
LINE
  5
321
330
1F
100
AcDbEntity
  8
0
  6
CONTINUOUS
 62
     7
100
AcDbLine
 10
-168.1787069298
 20
61.701032608
 30
0.0
 11
-168.1787069298
 21
69.9993266564
 31
0.0
  0
LINE
  5
322
330
1F
100
AcDbEntity
  8
0
  6
CONTINUOUS
 62
     7
100
AcDbLine
 10
-168.1787069298
 20
57.9993266564
 30
0.0
 11
-168.1787069298
 21
61.701032608
 31
0.0
  0
LINE
  5
323
330
1F
100
AcDbEntity
  8
0
  6
CONTINUOUS
 62
     7
100
AcDbLine
 10
-170.1787069298
 20
61.701032608
 30
0.0
 11
-170.1787069298
 21
69.9993266564
 31
0.0
  0
LINE
  5
324
330
1F
100
AcDbEntity
  8
0
  6
CONTINUOUS
 62
     7
100
AcDbLine
 10
-170.1787069298
 20
57.9993266564
 30
0.0
 11
-170.1787069298
 21
61.701032608
 31
0.0
  0
LINE
  5
325
330
1F
100
AcDbEntity
  8
0
  6
CONTINUOUS
 62
     7
100
AcDbLine
 10
-95.1787069298
 20
63.9993266564
 30
0.0
 11
-105.1787069298
 21
63.9993266564
 31
0.0
  0
LINE
  5
326
330
1F
100
AcDbEntity
  8
0
  6
CONTINUOUS
 62
     7
100
AcDbLine
 10
-95.1787069298
 20
63.9993266564
 30
0.0
 11
-95.1787069298
 21
58.9993266564
 31
0.0
  0
LINE
  5
327
330
1F
100
AcDbEntity
  8
0
  6
CONTINUOUS
 62
     7
100
AcDbLine
 10
-95.1787069298
 20
58.9993266564
 30
0.0
 11
-105.1787069298
 21
58.9993266564
 31
0.0
  0
LINE
  5
328
330
1F
100
AcDbEntity
  8
0
  6
CONTINUOUS
 62
     7
100
AcDbLine
 10
-105.1787069298
 20
58.9993266564
 30
0.0
 11
-105.1787069298
 21
63.9993266564
 31
0.0
  0
LINE
  5
329
330
1F
100
AcDbEntity
  8
0
  6
CONTINUOUS
 62
     7
100
AcDbLine
 10
-95.1787069298
 20
68.9993266564
 30
0.0
 11
-95.1787069298
 21
63.9993266564
 31
0.0
  0
LINE
  5
32A
330
1F
100
AcDbEntity
  8
0
  6
CONTINUOUS
 62
     7
100
AcDbLine
 10
-105.1787069298
 20
68.9993266564
 30
0.0
 11
-95.1787069298
 21
68.9993266564
 31
0.0
  0
LINE
  5
32B
330
1F
100
AcDbEntity
  8
0
  6
CONTINUOUS
 62
     7
100
AcDbLine
 10
-105.1787069298
 20
63.9993266564
 30
0.0
 11
-105.1787069298
 21
68.9993266564
 31
0.0
  0
LINE
  5
32C
330
1F
100
AcDbEntity
  8
0
  6
CONTINUOUS
 62
     7
100
AcDbLine
 10
-90.1787069298
 20
63.9993266564
 30
0.0
 11
-95.1787069298
 21
63.9993266564
 31
0.0
  0
ARC
  5
32D
330
1F
100
AcDbEntity
  8
0
  6
CONTINUOUS
 62
     7
100
AcDbCircle
 10
-95.1787069298
 20
63.9993266564
 30
0.0
 40
5.0
100
AcDbArc
 50
0.0
 51
90.0
  0
ARC
  5
32E
330
1F
100
AcDbEntity
  8
0
  6
CONTINUOUS
 62
     7
100
AcDbCircle
 10
-95.1787069298
 20
63.9993266564
 30
0.0
 40
5.0
100
AcDbArc
 50
270.0
 51
0.0
  0
LINE
  5
32F
330
1F
100
AcDbEntity
  8
0
  6
CONTINUOUS
 62
     7
100
AcDbLine
 10
-114.9287069298
 20
148.0035587952
 30
0.0
 11
-114.9287069298
 21
143.7979514062
 31
0.0
  0
LINE
  5
330
330
1F
100
AcDbEntity
  8
0
  6
CONTINUOUS
 62
     7
100
AcDbLine
 10
-114.9287069298
 20
140.2007019066
 30
0.0
 11
-114.9287069298
 21
135.4993266564
 31
0.0
  0
LINE
  5
331
330
1F
100
AcDbEntity
  8
0
  6
CONTINUOUS
 62
     7
100
AcDbLine
 10
-114.9287069298
 20
148.4993266564
 30
0.0
 11
-114.9287069298
 21
148.0035587952
 31
0.0
  0
LINE
  5
332
330
1F
100
AcDbEntity
  8
0
  6
CONTINUOUS
 62
     7
100
AcDbLine
 10
-115.1787069298
 20
147.7726267898
 30
0.0
 11
-115.1787069298
 21
148.2493266564
 31
0.0
  0
LINE
  5
333
330
1F
100
AcDbEntity
  8
0
  6
CONTINUOUS
 62
     7
100
AcDbLine
 10
-115.1787069298
 20
135.7493266564
 30
0.0
 11
-115.1787069298
 21
140.2209144045
 31
0.0
  0
LINE
  5
334
330
1F
100
AcDbEntity
  8
0
  6
CONTINUOUS
 62
     7
100
AcDbLine
 10
-115.1787069298
 20
143.7777389083
 30
0.0
 11
-115.1787069298
 21
147.7726267898
 31
0.0
  0
LINE
  5
335
330
1F
100
AcDbEntity
  8
0
  6
CONTINUOUS
 62
     7
100
AcDbLine
 10
-158.4287069298
 20
135.4993266564
 30
0.0
 11
-158.4287069298
 21
138.9993266564
 31
0.0
  0
LINE
  5
336
330
1F
100
AcDbEntity
  8
0
  6
CONTINUOUS
 62
     7
100
AcDbLine
 10
-158.4287069298
 20
144.9993266564
 30
0.0
 11
-158.4287069298
 21
148.4993266564
 31
0.0
  0
LINE
  5
337
330
1F
100
AcDbEntity
  8
0
  6
CONTINUOUS
 62
     7
100
AcDbLine
 10
-158.1787069298
 20
148.2493266564
 30
0.0
 11
-158.1787069298
 21
144.9993266564
 31
0.0
  0
LINE
  5
338
330
1F
100
AcDbEntity
  8
0
  6
CONTINUOUS
 62
     7
100
AcDbLine
 10
-158.1787069298
 20
138.9522229002
 30
0.0
 11
-158.1787069298
 21
135.7493266564
 31
0.0
  0
LINE
  5
339
330
1F
100
AcDbEntity
  8
0
  6
CONTINUOUS
 62
     7
100
AcDbLine
 10
-158.4287069298
 20
57.4993266564
 30
0.0
 11
-158.4287069298
 21
70.4993266564
 31
0.0
  0
LINE
  5
33A
330
1F
100
AcDbEntity
  8
0
  6
CONTINUOUS
 62
     7
100
AcDbLine
 10
-158.1787069298
 20
70.2493266564
 30
0.0
 11
-158.1787069298
 21
57.7493266564
 31
0.0
  0
LINE
  5
33B
330
1F
100
AcDbEntity
  8
0
  6
CONTINUOUS
 62
     7
100
AcDbLine
 10
-114.9287069298
 20
70.0035587952
 30
0.0
 11
-114.9287069298
 21
57.4993266564
 31
0.0
  0
LINE
  5
33C
330
1F
100
AcDbEntity
  8
0
  6
CONTINUOUS
 62
     7
100
AcDbLine
 10
-114.9287069298
 20
70.4993266564
 30
0.0
 11
-114.9287069298
 21
70.0035587952
 31
0.0
  0
LINE
  5
33D
330
1F
100
AcDbEntity
  8
0
  6
CONTINUOUS
 62
     7
100
AcDbLine
 10
-115.1787069298
 20
69.7726267898
 30
0.0
 11
-115.1787069298
 21
70.2493266564
 31
0.0
  0
LINE
  5
33E
330
1F
100
AcDbEntity
  8
0
  6
CONTINUOUS
 62
     7
100
AcDbLine
 10
-115.1787069298
 20
57.7493266564
 30
0.0
 11
-115.1787069298
 21
69.7726267898
 31
0.0
  0
LINE
  5
33F
330
1F
100
AcDbEntity
  8
0
  6
CONTINUOUS
 62
     7
100
AcDbLine
 10
-105.1787069298
 20
57.9993266564
 30
0.0
 11
-105.1787069298
 21
58.9993266564
 31
0.0
  0
LINE
  5
340
330
1F
100
AcDbEntity
  8
0
  6
CONTINUOUS
 62
     7
100
AcDbLine
 10
-105.1787069298
 20
68.9993266564
 30
0.0
 11
-105.1787069298
 21
69.9993266564
 31
0.0
  0
LINE
  5
341
330
1F
100
AcDbEntity
  8
0
  6
CONTINUOUS
 62
     7
100
AcDbLine
 10
-168.1787069298
 20
69.9993266564
 30
0.0
 11
-168.1787069298
 21
57.9993266564
 31
0.0
  0
LINE
  5
342
330
1F
100
AcDbEntity
  8
0
  6
CONTINUOUS
 62
     7
100
AcDbLine
 10
-168.1787069298
 20
147.9993239538
 30
0.0
 11
-168.1787069298
 21
147.0069175057
 31
0.0
  0
LINE
  5
343
330
1F
100
AcDbEntity
  8
0
  6
CONTINUOUS
 62
     7
100
AcDbLine
 10
-168.1787069298
 20
136.9803461548
 30
0.0
 11
-168.1787069298
 21
135.9993266564
 31
0.0
  0
LINE
  5
344
330
1F
100
AcDbEntity
  8
0
  6
CONTINUOUS
 62
     7
100
AcDbLine
 10
-105.1787069298
 20
135.9993266564
 30
0.0
 11
-105.1787069298
 21
136.9803461548
 31
0.0
  0
LINE
  5
345
330
1F
100
AcDbEntity
  8
0
  6
CONTINUOUS
 62
     7
100
AcDbLine
 10
-105.1787069298
 20
147.0069175057
 30
0.0
 11
-105.1787069298
 21
147.9993239538
 31
0.0
  0
LINE
  5
346
330
1F
100
AcDbEntity
  8
0
  6
CONTINUOUS
 62
     7
100
AcDbLine
 10
-106.1787069298
 20
145.9993266564
 30
0.0
 11
-109.1787069298
 21
145.9993266564
 31
0.0
  0
LINE
  5
347
330
1F
100
AcDbEntity
  8
0
  6
CONTINUOUS
 62
     7
100
AcDbLine
 10
-106.1787069298
 20
145.9993266564
 30
0.0
 11
-106.1787069298
 21
43.9993266564
 31
0.0
  0
LINE
  5
348
330
1F
100
AcDbEntity
  8
0
  6
CONTINUOUS
 62
     7
100
AcDbLine
 10
-109.1787069298
 20
43.9993266564
 30
0.0
 11
-106.1787069298
 21
43.9993266564
 31
0.0
  0
LINE
  5
349
330
1F
100
AcDbEntity
  8
0
  6
CONTINUOUS
 62
     7
100
AcDbLine
 10
-109.1787069298
 20
145.9993266564
 30
0.0
 11
-109.1787069298
 21
43.9993266564
 31
0.0
  0
LINE
  5
34A
330
1F
100
AcDbEntity
  8
0
  6
CONTINUOUS
 62
     7
100
AcDbLine
 10
-109.1787069298
 20
150.9993266564
 30
0.0
 11
-106.1787069298
 21
150.9993266564
 31
0.0
  0
LINE
  5
34B
330
1F
100
AcDbEntity
  8
0
  6
CONTINUOUS
 62
     7
100
AcDbLine
 10
-106.1787069298
 20
150.9993266564
 30
0.0
 11
-106.1787069298
 21
145.9993266564
 31
0.0
  0
LINE
  5
34C
330
1F
100
AcDbEntity
  8
0
  6
CONTINUOUS
 62
     7
100
AcDbLine
 10
-109.1787069298
 20
145.9993266564
 30
0.0
 11
-109.1787069298
 21
150.9993266564
 31
0.0
  0
LINE
  5
34D
330
1F
100
AcDbEntity
  8
0
  6
CONTINUOUS
 62
     7
100
AcDbLine
 10
-106.1787069298
 20
38.9993266564
 30
0.0
 11
-109.1787069298
 21
38.9993266564
 31
0.0
  0
LINE
  5
34E
330
1F
100
AcDbEntity
  8
0
  6
CONTINUOUS
 62
     7
100
AcDbLine
 10
-106.1787069298
 20
43.9993266564
 30
0.0
 11
-106.1787069298
 21
38.9993266564
 31
0.0
  0
LINE
  5
34F
330
1F
100
AcDbEntity
  8
0
  6
CONTINUOUS
 62
     7
100
AcDbLine
 10
-109.1787069298
 20
38.9993266564
 30
0.0
 11
-109.1787069298
 21
43.9993266564
 31
0.0
  0
LINE
  5
350
330
1F
100
AcDbEntity
  8
0
  6
CONTINUOUS
 62
     7
100
AcDbLine
 10
-164.1787069298
 20
145.9993266564
 30
0.0
 11
-167.1787069298
 21
145.9993266564
 31
0.0
  0
LINE
  5
351
330
1F
100
AcDbEntity
  8
0
  6
CONTINUOUS
 62
     7
100
AcDbLine
 10
-167.1787069298
 20
145.9993266564
 30
0.0
 11
-167.1787069298
 21
150.9993266564
 31
0.0
  0
LINE
  5
352
330
1F
100
AcDbEntity
  8
0
  6
CONTINUOUS
 62
     7
100
AcDbLine
 10
-167.1787069298
 20
150.9993266564
 30
0.0
 11
-164.1787069298
 21
150.9993266564
 31
0.0
  0
LINE
  5
353
330
1F
100
AcDbEntity
  8
0
  6
CONTINUOUS
 62
     7
100
AcDbLine
 10
-164.1787069298
 20
150.9993266564
 30
0.0
 11
-164.1787069298
 21
145.9993266564
 31
0.0
  0
LINE
  5
354
330
1F
100
AcDbEntity
  8
0
  6
CONTINUOUS
 62
     7
100
AcDbLine
 10
-164.1787069298
 20
145.9993266564
 30
0.0
 11
-164.1787069298
 21
43.9993266564
 31
0.0
  0
LINE
  5
355
330
1F
100
AcDbEntity
  8
0
  6
CONTINUOUS
 62
     7
100
AcDbLine
 10
-167.1787069298
 20
43.9993266564
 30
0.0
 11
-164.1787069298
 21
43.9993266564
 31
0.0
  0
LINE
  5
356
330
1F
100
AcDbEntity
  8
0
  6
CONTINUOUS
 62
     7
100
AcDbLine
 10
-167.1787069298
 20
145.9993266564
 30
0.0
 11
-167.1787069298
 21
43.9993266564
 31
0.0
  0
LINE
  5
357
330
1F
100
AcDbEntity
  8
0
  6
CONTINUOUS
 62
     7
100
AcDbLine
 10
-164.1787069298
 20
38.9993266564
 30
0.0
 11
-167.1787069298
 21
38.9993266564
 31
0.0
  0
LINE
  5
358
330
1F
100
AcDbEntity
  8
0
  6
CONTINUOUS
 62
     7
100
AcDbLine
 10
-164.1787069298
 20
43.9993266564
 30
0.0
 11
-164.1787069298
 21
38.9993266564
 31
0.0
  0
LINE
  5
359
330
1F
100
AcDbEntity
  8
0
  6
CONTINUOUS
 62
     7
100
AcDbLine
 10
-167.1787069298
 20
38.9993266564
 30
0.0
 11
-167.1787069298
 21
43.9993266564
 31
0.0
  0
LINE
  5
35A
330
1F
100
AcDbEntity
  8
0
  6
CONTINUOUS
 62
     7
100
AcDbLine
 10
-124.6787069298
 20
144.996477892
 30
0.0
 11
-124.6787069298
 21
143.699597817
 31
0.0
  0
LINE
  5
35B
330
1F
100
AcDbEntity
  8
0
  6
CONTINUOUS
 62
     7
100
AcDbLine
 10
-124.6787069298
 20
140.2990554957
 30
0.0
 11
-124.6787069298
 21
138.9964805946
 31
0.0
  0
LINE
  5
35C
330
1F
100
AcDbEntity
  8
0
  6
CONTINUOUS
 62
     7
100
AcDbLine
 10
-223.1787069298
 20
146.9850873389
 30
0.0
 11
-223.1763446268
 21
146.9849414757
 31
0.0
  0
LINE
  5
35D
330
1F
100
AcDbEntity
  8
0
  6
CONTINUOUS
 62
     7
100
AcDbLine
 10
-223.1767485764
 20
147.1038623605
 30
0.0
 11
-223.1787069298
 21
147.10372955
 31
0.0
  0
LINE
  5
35E
330
1F
100
AcDbEntity
  8
0
  6
CONTINUOUS
 62
     7
100
AcDbLine
 10
-203.1787069298
 20
147.10372955
 30
0.0
 11
-203.1805773047
 21
147.1038593435
 31
0.0
  0
LINE
  5
35F
330
1F
100
AcDbEntity
  8
0
  6
CONTINUOUS
 62
     7
100
AcDbLine
 10
-203.1734415548
 20
147.0207773757
 30
0.0
 11
-203.1787069298
 21
147.0211545711
 31
0.0
  0
LINE
  5
360
330
1F
100
AcDbEntity
  8
0
  6
CONTINUOUS
 62
     7
100
AcDbLine
 10
-223.3174735832
 20
147.1018035615
 30
0.0
 11
-223.1787069298
 21
147.10372955
 31
0.0
  0
LINE
  5
361
330
1F
100
AcDbEntity
  8
0
  6
CONTINUOUS
 62
     7
100
AcDbLine
 10
-203.0396482493
 20
147.0192204662
 30
0.0
 11
-203.1787069298
 21
147.0211545711
 31
0.0
  0
LINE
  5
362
330
1F
100
AcDbEntity
  8
0
  6
CONTINUOUS
 62
     7
100
AcDbLine
 10
-203.0418100067
 20
147.1018551228
 30
0.0
 11
-203.1787069298
 21
147.10372955
 31
0.0
  0
LINE
  5
363
330
1F
100
AcDbEntity
  8
0
  6
CONTINUOUS
 62
     7
100
AcDbLine
 10
-50.1805779797
 20
146.984957522
 30
0.0
 11
-50.1787069298
 21
146.9850873389
 31
0.0
  0
LINE
  5
364
330
1F
100
AcDbEntity
  8
0
  6
CONTINUOUS
 62
     7
100
AcDbLine
 10
-70.1787069298
 20
147.0211545711
 30
0.0
 11
-70.1829988094
 21
147.0208140198
 31
0.0
  0
LINE
  5
365
330
1F
100
AcDbEntity
  8
0
  6
CONTINUOUS
 62
     7
100
AcDbLine
 10
-70.1767485764
 20
147.1038623605
 30
0.0
 11
-70.1787069298
 21
147.10372955
 31
0.0
  0
LINE
  5
366
330
1F
100
AcDbEntity
  8
0
  6
CONTINUOUS
 62
     7
100
AcDbLine
 10
-50.1787069298
 20
147.10372955
 30
0.0
 11
-50.1805773047
 21
147.1038593435
 31
0.0
  0
LINE
  5
367
330
1F
100
AcDbEntity
  8
0
  6
CONTINUOUS
 62
     7
100
AcDbLine
 10
-50.1787069298
 20
147.10372955
 30
0.0
 11
-50.0412839449
 21
147.1018406864
 31
0.0
  0
LINE
  5
368
330
1F
100
AcDbEntity
  8
0
  6
CONTINUOUS
 62
     7
100
AcDbLine
 10
-70.1787069298
 20
147.0211545711
 30
0.0
 11
-70.3177656103
 21
147.0192204662
 31
0.0
  0
LINE
  5
369
330
1F
100
AcDbEntity
  8
0
  6
CONTINUOUS
 62
     7
100
AcDbLine
 10
-70.1787069298
 20
147.10372955
 30
0.0
 11
-70.3179556538
 21
147.1017901541
 31
0.0
  0
LINE
  5
36A
330
1F
100
AcDbEntity
  8
0
  6
CONTINUOUS
 62
     7
100
AcDbLine
 10
-164.1787069298
 20
140.516086959
 30
0.0
 11
-151.2287069298
 21
140.516086959
 31
0.0
  0
LINE
  5
36B
330
1F
100
AcDbEntity
  8
0
  6
CONTINUOUS
 62
     7
100
AcDbLine
 10
-151.2287069298
 20
140.4909473031
 30
0.0
 11
-164.1787069298
 21
140.4909473031
 31
0.0
  0
LINE
  5
36C
330
1F
100
AcDbEntity
  8
0
  6
CONTINUOUS
 62
     7
100
AcDbLine
 10
-151.2287069298
 20
143.4825663538
 30
0.0
 11
-164.1787069298
 21
143.4825663538
 31
0.0
  0
LINE
  5
36D
330
1F
100
AcDbEntity
  8
0
  6
CONTINUOUS
 62
     7
100
AcDbLine
 10
-164.1787069298
 20
143.5077060097
 30
0.0
 11
-151.2287069298
 21
143.5077060097
 31
0.0
  0
LINE
  5
36E
330
1F
100
AcDbEntity
  8
0
  6
CONTINUOUS
 62
     7
100
AcDbLine
 10
-151.2287069298
 20
138.9993266564
 30
0.0
 11
-151.2287069298
 21
140.4909473031
 31
0.0
  0
LINE
  5
36F
330
1F
100
AcDbEntity
  8
0
  6
CONTINUOUS
 62
     7
100
AcDbLine
 10
-151.2287069298
 20
143.5077060097
 30
0.0
 11
-151.2287069298
 21
144.9993266564
 31
0.0
  0
LINE
  5
370
330
1F
100
AcDbEntity
  8
0
  6
CONTINUOUS
 62
     7
100
AcDbLine
 10
-306.5866991811
 20
141.9977269973
 30
0.0
 11
-306.664513015
 21
141.9977269973
 31
0.0
  0
LINE
  5
371
330
1F
100
AcDbEntity
  8
0
  6
CONTINUOUS
 62
     7
100
AcDbLine
 10
-306.5866991811
 20
141.9977269973
 30
0.0
 11
-306.5866991811
 21
142.1533546651
 31
0.0
  0
LINE
  5
372
330
1F
100
AcDbEntity
  8
0
  6
CONTINUOUS
 62
     7
100
AcDbLine
 10
-319.6819472413
 20
141.9993266564
 30
0.0
 11
-319.6041334424
 21
141.9992528004
 31
0.0
  0
LINE
  5
373
330
1F
100
AcDbEntity
  8
0
  6
CONTINUOUS
 62
     7
100
AcDbLine
 10
-319.6819472413
 20
141.9993266564
 30
0.0
 11
-319.6817995292
 21
142.1549542541
 31
0.0
  0
LINE
  5
374
330
1F
100
AcDbEntity
  8
0
  6
CONTINUOUS
 62
     7
100
AcDbLine
 10
-312.1819506195
 20
141.9922081237
 30
0.0
 11
-312.2597644184
 21
141.9922819798
 31
0.0
  0
LINE
  5
375
330
1F
100
AcDbEntity
  8
0
  6
CONTINUOUS
 62
     7
100
AcDbLine
 10
-312.1819506195
 20
141.9922081237
 30
0.0
 11
-312.1820983316
 21
141.836580526
 31
0.0
  0
LINE
  5
376
330
1F
100
AcDbEntity
  8
0
  6
CONTINUOUS
 62
     7
100
AcDbLine
 10
-319.6819472413
 20
141.9993266564
 30
0.0
 11
-319.7597610401
 21
141.9994005124
 31
0.0
  0
LINE
  5
377
330
1F
100
AcDbEntity
  8
0
  6
CONTINUOUS
 62
     7
100
AcDbLine
 10
-319.6819472413
 20
141.9993266564
 30
0.0
 11
-319.6820949534
 21
141.8436990587
 31
0.0
  0
LINE
  5
378
330
1F
100
AcDbEntity
  8
0
  6
CONTINUOUS
 62
     7
100
AcDbLine
 10
-319.6819472413
 20
141.9993266564
 30
0.0
 11
-319.6041334424
 21
141.9992528004
 31
0.0
  0
LINE
  5
379
330
1F
100
AcDbEntity
  8
0
  6
CONTINUOUS
 62
     7
100
AcDbLine
 10
-319.6819472413
 20
141.9993266564
 30
0.0
 11
-319.6820949534
 21
141.8436990587
 31
0.0
  0
LINE
  5
37A
330
1F
100
AcDbEntity
  8
0
  6
CONTINUOUS
 62
     7
100
AcDbLine
 10
-325.5098478621
 20
106.314786067
 30
0.0
 11
-325.587661696
 21
106.314786067
 31
0.0
  0
LINE
  5
37B
330
1F
100
AcDbEntity
  8
0
  6
CONTINUOUS
 62
     7
100
AcDbLine
 10
-325.5098478621
 20
106.314786067
 30
0.0
 11
-325.5098478621
 21
106.4704137348
 31
0.0
  0
LINE
  5
37C
330
1F
100
AcDbEntity
  8
0
  6
CONTINUOUS
 62
     7
100
AcDbLine
 10
-319.6819472413
 20
63.9993266564
 30
0.0
 11
-319.6100684225
 21
63.9695201445
 31
0.0
  0
LINE
  5
37D
330
1F
100
AcDbEntity
  8
0
  6
CONTINUOUS
 62
     7
100
AcDbLine
 10
-319.6819472413
 20
63.9993266564
 30
0.0
 11
-319.6223342175
 21
64.143084294
 31
0.0
  0
LINE
  5
37E
330
1F
100
AcDbEntity
  8
0
  6
CONTINUOUS
 62
     7
100
AcDbLine
 10
-319.6819472413
 20
63.9993266564
 30
0.0
 11
-319.7597610752
 21
63.9993266564
 31
0.0
  0
LINE
  5
37F
330
1F
100
AcDbEntity
  8
0
  6
CONTINUOUS
 62
     7
100
AcDbLine
 10
-319.6819472413
 20
63.9993266564
 30
0.0
 11
-319.6819472413
 21
64.1549543242
 31
0.0
  0
LINE
  5
380
330
1F
100
AcDbEntity
  8
0
  6
CONTINUOUS
 62
     7
100
AcDbLine
 10
-325.5098478621
 20
106.314786067
 30
0.0
 11
-325.587661696
 21
106.314786067
 31
0.0
  0
LINE
  5
381
330
1F
100
AcDbEntity
  8
0
  6
CONTINUOUS
 62
     7
100
AcDbLine
 10
-325.5098478621
 20
106.314786067
 30
0.0
 11
-325.5098478621
 21
106.4704137348
 31
0.0
  0
LINE
  5
382
330
1F
100
AcDbEntity
  8
0
  6
CONTINUOUS
 62
     7
100
AcDbLine
 10
-312.1819506195
 20
141.9922081237
 30
0.0
 11
-312.2597644184
 21
141.9922819798
 31
0.0
  0
LINE
  5
383
330
1F
100
AcDbEntity
  8
0
  6
CONTINUOUS
 62
     7
100
AcDbLine
 10
-312.1819506195
 20
141.9922081237
 30
0.0
 11
-312.1818029074
 21
142.1478357214
 31
0.0
  0
LINE
  5
384
330
1F
100
AcDbEntity
  8
0
  6
CONTINUOUS
 62
     7
100
AcDbLine
 10
-294.7315702385
 20
56.7457793064
 30
0.0
 11
-294.7315702385
 21
56.6679654725
 31
0.0
  0
LINE
  5
385
330
1F
100
AcDbEntity
  8
0
  6
CONTINUOUS
 62
     7
100
AcDbLine
 10
-294.7315702385
 20
56.7457793064
 30
0.0
 11
-294.8871979063
 21
56.7457793064
 31
0.0
  0
POINT
  5
386
330
1F
100
AcDbEntity
  8
0
  6
CONTINUOUS
 62
     7
100
AcDbPoint
 10
-306.5866991811
 20
141.9977269973
 30
0.0
  0
POINT
  5
387
330
1F
100
AcDbEntity
  8
0
  6
CONTINUOUS
 62
     7
100
AcDbPoint
 10
-319.6819472413
 20
141.9993266564
 30
0.0
  0
POINT
  5
388
330
1F
100
AcDbEntity
  8
0
  6
CONTINUOUS
 62
     7
100
AcDbPoint
 10
-312.1819506195
 20
141.9922081237
 30
0.0
  0
POINT
  5
389
330
1F
100
AcDbEntity
  8
0
  6
CONTINUOUS
 62
     7
100
AcDbPoint
 10
-319.6819472413
 20
141.9993266564
 30
0.0
  0
POINT
  5
38A
330
1F
100
AcDbEntity
  8
0
  6
CONTINUOUS
 62
     7
100
AcDbPoint
 10
-319.6819472413
 20
141.9993266564
 30
0.0
  0
POINT
  5
38B
330
1F
100
AcDbEntity
  8
0
  6
CONTINUOUS
 62
     7
100
AcDbPoint
 10
-325.5098478621
 20
106.314786067
 30
0.0
  0
POINT
  5
38C
330
1F
100
AcDbEntity
  8
0
  6
CONTINUOUS
 62
     7
100
AcDbPoint
 10
-319.6819472413
 20
63.9993266564
 30
0.0
  0
POINT
  5
38D
330
1F
100
AcDbEntity
  8
0
  6
CONTINUOUS
 62
     7
100
AcDbPoint
 10
-319.6819472413
 20
63.9993266564
 30
0.0
  0
POINT
  5
38E
330
1F
100
AcDbEntity
  8
0
  6
CONTINUOUS
 62
     7
100
AcDbPoint
 10
-325.5098478621
 20
106.314786067
 30
0.0
  0
POINT
  5
38F
330
1F
100
AcDbEntity
  8
0
  6
CONTINUOUS
 62
     7
100
AcDbPoint
 10
-312.1819506195
 20
141.9922081237
 30
0.0
  0
POINT
  5
390
330
1F
100
AcDbEntity
  8
0
  6
CONTINUOUS
 62
     7
100
AcDbPoint
 10
-294.7315702385
 20
56.7457793064
 30
0.0
  0
ARC
  5
391
330
1F
100
AcDbEntity
  8
0
  6
CONTINUOUS
 62
     7
100
AcDbCircle
 10
-319.6819472413
 20
63.9993266564
 30
0.0
 40
4.200000000000031
100
AcDbArc
 50
165.6905371158
 51
329.2641157123
  0
LINE
  5
392
330
1F
100
AcDbEntity
  8
0
  6
CONTINUOUS
 62
     7
100
AcDbLine
 10
-323.751641923
 20
65.0373946686
 30
0.0
 11
-316.0719113693
 21
61.8527850186
 31
0.0
  0
ARC
  5
393
330
1F
100
AcDbEntity
  8
0
  6
CONTINUOUS
 62
     7
100
AcDbCircle
 10
-319.6819472413
 20
63.9993266564
 30
0.0
 40
4.200000000000031
100
AcDbArc
 50
345.6905371158
 51
149.2641157123
  0
LINE
  5
394
330
1F
100
AcDbEntity
  8
0
  6
CONTINUOUS
 62
     7
100
AcDbLine
 10
-315.6122525596
 20
62.9612586442
 30
0.0
 11
-323.2919831133
 21
66.1458682942
 31
0.0
  0
ARC
  5
395
330
1F
100
AcDbEntity
  8
0
  6
CONTINUOUS
 62
     7
100
AcDbCircle
 10
-319.6819472413
 20
63.9993266564
 30
0.0
 40
3.400000000000035
100
AcDbArc
 50
147.3130777923
 51
167.6415750358
  0
ARC
  5
396
330
1F
100
AcDbEntity
  8
0
  6
CONTINUOUS
 62
     7
100
AcDbCircle
 10
-319.6819472413
 20
63.9993266564
 30
0.0
 40
3.400000000000044
100
AcDbArc
 50
327.3130777923
 51
347.6415750358
  0
ARC
  5
397
330
1F
100
AcDbEntity
  8
0
  6
CONTINUOUS
 62
     7
100
AcDbCircle
 10
-434.6818954417
 20
142.1084774906
 30
0.0
 40
4.999999999999982
100
AcDbArc
 50
179.9456184081
 51
269.9456184081
  0
LINE
  5
398
330
1F
100
AcDbEntity
  8
0
  6
CONTINUOUS
 62
     7
100
AcDbLine
 10
-439.6818931895
 20
142.1132231791
 30
0.0
 11
-429.6818976938
 21
142.1037318022
 31
0.0
  0
LINE
  5
399
330
1F
100
AcDbEntity
  8
0
  6
CONTINUOUS
 62
     7
100
AcDbLine
 10
-429.6866433823
 20
137.1037340543
 30
0.0
 11
-429.6818976938
 21
142.1037318022
 31
0.0
  0
LINE
  5
39A
330
1F
100
AcDbEntity
  8
0
  6
CONTINUOUS
 62
     7
100
AcDbLine
 10
-429.6866433823
 20
137.1037340543
 30
0.0
 11
-434.6866411301
 21
137.1084797428
 31
0.0
  0
ARC
  5
39B
330
1F
100
AcDbEntity
  8
0
  6
CONTINUOUS
 62
     7
100
AcDbCircle
 10
-434.6818954417
 20
142.1084774906
 30
0.0
 40
5.000000000000011
100
AcDbArc
 50
89.9456184081
 51
179.9456184081
  0
LINE
  5
39C
330
1F
100
AcDbEntity
  8
0
  6
CONTINUOUS
 62
     7
100
AcDbLine
 10
-434.6771497532
 20
147.1084752385
 30
0.0
 11
-429.6771520054
 21
147.10372955
 31
0.0
  0
LINE
  5
39D
330
1F
100
AcDbEntity
  8
0
  6
CONTINUOUS
 62
     7
100
AcDbLine
 10
-429.6818976938
 20
142.1037318022
 30
0.0
 11
-429.6771520054
 21
147.10372955
 31
0.0
  0
LINE
  5
39E
330
1F
100
AcDbEntity
  8
0
  6
CONTINUOUS
 62
     7
100
AcDbLine
 10
-429.6818976938
 20
142.1037318022
 30
0.0
 11
-304.6819539977
 21
141.9850895911
 31
0.0
  0
LINE
  5
39F
330
1F
100
AcDbEntity
  8
0
  6
CONTINUOUS
 62
     7
100
AcDbLine
 10
-429.6771520054
 20
147.10372955
 30
0.0
 11
-304.6772083093
 21
146.9850873389
 31
0.0
  0
LINE
  5
3A0
330
1F
100
AcDbEntity
  8
0
  6
CONTINUOUS
 62
     7
100
AcDbLine
 10
-304.6819539977
 20
141.9850895911
 30
0.0
 11
-304.6772083093
 21
146.9850873389
 31
0.0
  0
LINE
  5
3A1
330
1F
100
AcDbEntity
  8
0
  6
CONTINUOUS
 62
     7
100
AcDbLine
 10
-304.6866996862
 20
136.9850918432
 30
0.0
 11
-304.6819539977
 21
141.9850895911
 31
0.0
  0
LINE
  5
3A2
330
1F
100
AcDbEntity
  8
0
  6
CONTINUOUS
 62
     7
100
AcDbLine
 10
-304.6866996862
 20
136.9850918432
 30
0.0
 11
-429.6866433823
 21
137.1037340543
 31
0.0
  0
LINE
  5
3A3
330
1F
100
AcDbEntity
  8
0
  6
CONTINUOUS
 62
     7
100
AcDbLine
 10
-304.6819539977
 20
141.9850895911
 30
0.0
 11
-294.6819585021
 21
141.9755982142
 31
0.0
  0
LINE
  5
3A4
330
1F
100
AcDbEntity
  8
0
  6
CONTINUOUS
 62
     7
100
AcDbLine
 10
-304.6772083093
 20
146.9850873389
 30
0.0
 11
-299.6772105615
 21
146.9803416505
 31
0.0
  0
ARC
  5
3A5
330
1F
100
AcDbEntity
  8
0
  6
CONTINUOUS
 62
     7
100
AcDbCircle
 10
-299.6819562499
 20
141.9803439026
 30
0.0
 40
4.999999999999982
100
AcDbArc
 50
359.9456184081
 51
89.9456184081
  0
ARC
  5
3A6
330
1F
100
AcDbEntity
  8
0
  6
CONTINUOUS
 62
     7
100
AcDbCircle
 10
-299.6819562499
 20
141.9803439026
 30
0.0
 40
5.000000000000011
100
AcDbArc
 50
269.9456184081
 51
359.9456184081
  0
LINE
  5
3A7
330
1F
100
AcDbEntity
  8
0
  6
CONTINUOUS
 62
     7
100
AcDbLine
 10
-299.6867019383
 20
136.9803461548
 30
0.0
 11
-304.6866996862
 21
136.9850918432
 31
0.0
  0
CIRCLE
  5
3A8
330
1F
100
AcDbEntity
  8
0
  6
CONTINUOUS
 62
     7
100
AcDbCircle
 10
-319.6819472413
 20
63.9993266564
 30
0.0
 40
6.000000000000035
  0
CIRCLE
  5
3A9
330
1F
100
AcDbEntity
  8
0
  6
CONTINUOUS
 62
     7
100
AcDbCircle
 10
-319.6819472413
 20
63.9993266564
 30
0.0
 40
4.249999999999996
  0
ARC
  5
3AA
330
1F
100
AcDbEntity
  8
0
  6
CONTINUOUS
 62
     7
100
AcDbCircle
 10
-319.6819472413
 20
141.9993266564
 30
0.0
 40
6.000000000000001
100
AcDbArc
 50
56.3883086462
 51
89.9456184081
  0
ARC
  5
3AB
330
1F
100
AcDbEntity
  8
0
  6
CONTINUOUS
 62
     7
100
AcDbCircle
 10
-319.6819472413
 20
141.9993266564
 30
0.0
 40
6.000000000000022
100
AcDbArc
 50
236.3883086462
 51
303.50292817
  0
ARC
  5
3AC
330
1F
100
AcDbEntity
  8
0
  6
CONTINUOUS
 62
     7
100
AcDbCircle
 10
-319.6819472413
 20
141.9993266564
 30
0.0
 40
6.000000000000001
100
AcDbArc
 50
89.9456184081
 51
123.50292817
  0
LINE
  5
3AD
330
1F
100
AcDbEntity
  8
0
  6
CONTINUOUS
 62
     7
100
AcDbLine
 10
-327.6819472413
 20
150.9993266564
 30
0.0
 11
-299.6819472413
 21
150.9993266564
 31
0.0
  0
ARC
  5
3AE
330
1F
100
AcDbEntity
  8
0
  6
CONTINUOUS
 62
     7
100
AcDbCircle
 10
-299.6819472413
 20
145.9993266564
 30
0.0
 40
5.0
100
AcDbArc
 50
0.0
 51
90.0
  0
LINE
  5
3AF
330
1F
100
AcDbEntity
  8
0
  6
CONTINUOUS
 62
     7
100
AcDbLine
 10
-294.6819472413
 20
145.9993266564
 30
0.0
 11
-294.6819472413
 21
43.9993266564
 31
0.0
  0
ARC
  5
3B0
330
1F
100
AcDbEntity
  8
0
  6
CONTINUOUS
 62
     7
100
AcDbCircle
 10
-299.6819472413
 20
43.9993266564
 30
0.0
 40
5.0
100
AcDbArc
 50
270.0
 51
0.0
  0
LINE
  5
3B1
330
1F
100
AcDbEntity
  8
0
  6
CONTINUOUS
 62
     7
100
AcDbLine
 10
-299.6819472413
 20
38.9993266564
 30
0.0
 11
-327.6819472413
 21
38.9993266564
 31
0.0
  0
LINE
  5
3B2
330
1F
100
AcDbEntity
  8
0
  6
CONTINUOUS
 62
     7
100
AcDbLine
 10
-332.6819472413
 20
43.9993266564
 30
0.0
 11
-332.6819472413
 21
137.0116631998
 31
0.0
  0
ARC
  5
3B3
330
1F
100
AcDbEntity
  8
0
  6
CONTINUOUS
 62
     7
100
AcDbCircle
 10
-327.6819472413
 20
145.9993266564
 30
0.0
 40
5.0
100
AcDbArc
 50
90.0
 51
168.3198194542
  0
ARC
  5
3B4
330
1F
100
AcDbEntity
  8
0
  6
CONTINUOUS
 62
     7
100
AcDbCircle
 10
-327.6819472413
 20
43.9993266564
 30
0.0
 40
5.0
100
AcDbArc
 50
180.0
 51
270.0
  0
LINE
  5
3B5
330
1F
100
AcDbEntity
  8
0
  6
CONTINUOUS
 62
     7
100
AcDbLine
 10
-158.0453699948
 20
254.2528499004
 30
0.0
 11
-158.0453699948
 21
254.3306637343
 31
0.0
  0
LINE
  5
3B6
330
1F
100
AcDbEntity
  8
0
  6
CONTINUOUS
 62
     7
100
AcDbLine
 10
-158.0453699948
 20
254.2528499004
 30
0.0
 11
-158.2009976626
 21
254.2528499004
 31
0.0
  0
LINE
  5
3B7
330
1F
100
AcDbEntity
  8
0
  6
CONTINUOUS
 62
     7
100
AcDbLine
 10
-115.3120438648
 20
254.2528499004
 30
0.0
 11
-115.3120438648
 21
254.3306636993
 31
0.0
  0
LINE
  5
3B8
330
1F
100
AcDbEntity
  8
0
  6
CONTINUOUS
 62
     7
100
AcDbLine
 10
-115.3120438648
 20
254.2528499004
 30
0.0
 11
-115.156416197
 21
254.2528499004
 31
0.0
  0
LINE
  5
3B9
330
1F
100
AcDbEntity
  8
0
  6
CONTINUOUS
 62
     7
100
AcDbLine
 10
-158.1787069298
 20
254.2528499004
 30
0.0
 11
-158.1787069298
 21
254.1809710816
 31
0.0
  0
LINE
  5
3BA
330
1F
100
AcDbEntity
  8
0
  6
CONTINUOUS
 62
     7
100
AcDbLine
 10
-158.1787069298
 20
254.2528499004
 30
0.0
 11
-158.3343345976
 21
254.2528499004
 31
0.0
  0
LINE
  5
3BB
330
1F
100
AcDbEntity
  8
0
  6
CONTINUOUS
 62
     7
100
AcDbLine
 10
-115.3120438648
 20
254.2528499004
 30
0.0
 11
-115.3120438648
 21
254.1750360665
 31
0.0
  0
LINE
  5
3BC
330
1F
100
AcDbEntity
  8
0
  6
CONTINUOUS
 62
     7
100
AcDbLine
 10
-115.3120438648
 20
254.2528499004
 30
0.0
 11
-115.156416197
 21
254.2528499004
 31
0.0
  0
LINE
  5
3BD
330
1F
100
AcDbEntity
  8
0
  6
CONTINUOUS
 62
     7
100
AcDbLine
 10
-115.1787069298
 20
254.2528499004
 30
0.0
 11
-115.1787069298
 21
254.1809710816
 31
0.0
  0
LINE
  5
3BE
330
1F
100
AcDbEntity
  8
0
  6
CONTINUOUS
 62
     7
100
AcDbLine
 10
-115.1787069298
 20
254.2528499004
 30
0.0
 11
-115.023079262
 21
254.2528499004
 31
0.0
  0
LINE
  5
3BF
330
1F
100
AcDbEntity
  8
0
  6
CONTINUOUS
 62
     7
100
AcDbLine
 10
-158.1787069298
 20
254.2528499004
 30
0.0
 11
-158.1787069298
 21
254.1809710816
 31
0.0
  0
LINE
  5
3C0
330
1F
100
AcDbEntity
  8
0
  6
CONTINUOUS
 62
     7
100
AcDbLine
 10
-158.1787069298
 20
254.2528499004
 30
0.0
 11
-158.3343345976
 21
254.2528499004
 31
0.0
  0
LINE
  5
3C1
330
1F
100
AcDbEntity
  8
0
  6
CONTINUOUS
 62
     7
100
AcDbLine
 10
-158.0453699948
 20
254.2528499004
 30
0.0
 11
-158.0453699948
 21
254.1750361016
 31
0.0
  0
LINE
  5
3C2
330
1F
100
AcDbEntity
  8
0
  6
CONTINUOUS
 62
     7
100
AcDbLine
 10
-158.0453699948
 20
254.2528499004
 30
0.0
 11
-158.2009976626
 21
254.2528499004
 31
0.0
  0
LINE
  5
3C3
330
1F
100
AcDbEntity
  8
0
  6
CONTINUOUS
 62
     7
100
AcDbLine
 10
-115.1787069298
 20
254.2528499004
 30
0.0
 11
-115.1787069298
 21
254.1809710816
 31
0.0
  0
LINE
  5
3C4
330
1F
100
AcDbEntity
  8
0
  6
CONTINUOUS
 62
     7
100
AcDbLine
 10
-115.1787069298
 20
254.2528499004
 30
0.0
 11
-115.023079262
 21
254.2528499004
 31
0.0
  0
POINT
  5
3C5
330
1F
100
AcDbEntity
  8
0
  6
CONTINUOUS
 62
     7
100
AcDbPoint
 10
-158.0453699948
 20
254.2528499004
 30
0.0
  0
POINT
  5
3C6
330
1F
100
AcDbEntity
  8
0
  6
CONTINUOUS
 62
     7
100
AcDbPoint
 10
-115.3120438648
 20
254.2528499004
 30
0.0
  0
POINT
  5
3C7
330
1F
100
AcDbEntity
  8
0
  6
CONTINUOUS
 62
     7
100
AcDbPoint
 10
-158.1787069298
 20
254.2528499004
 30
0.0
  0
POINT
  5
3C8
330
1F
100
AcDbEntity
  8
0
  6
CONTINUOUS
 62
     7
100
AcDbPoint
 10
-115.3120438648
 20
254.2528499004
 30
0.0
  0
POINT
  5
3C9
330
1F
100
AcDbEntity
  8
0
  6
CONTINUOUS
 62
     7
100
AcDbPoint
 10
-115.1787069298
 20
254.2528499004
 30
0.0
  0
POINT
  5
3CA
330
1F
100
AcDbEntity
  8
0
  6
CONTINUOUS
 62
     7
100
AcDbPoint
 10
-158.1787069298
 20
254.2528499004
 30
0.0
  0
POINT
  5
3CB
330
1F
100
AcDbEntity
  8
0
  6
CONTINUOUS
 62
     7
100
AcDbPoint
 10
-158.0453699948
 20
254.2528499004
 30
0.0
  0
POINT
  5
3CC
330
1F
100
AcDbEntity
  8
0
  6
CONTINUOUS
 62
     7
100
AcDbPoint
 10
-115.1787069298
 20
254.2528499004
 30
0.0
  0
LINE
  5
3CD
330
1F
100
AcDbEntity
  8
0
  6
CONTINUOUS
 62
     7
100
AcDbLine
 10
-94.0700421066
 20
267.1586428679
 30
0.0
 11
-94.2332102344
 21
267.2528478606
 31
0.0
  0
LINE
  5
3CE
330
1F
100
AcDbEntity
  8
0
  6
CONTINUOUS
 62
     7
100
AcDbLine
 10
-99.1242036252
 20
267.2528478606
 30
0.0
 11
-99.287371753
 21
267.1586428679
 31
0.0
  0
LINE
  5
3CF
330
1F
100
AcDbEntity
  8
0
  6
CONTINUOUS
 62
     7
100
AcDbLine
 10
-174.0700421066
 20
267.1586428679
 30
0.0
 11
-174.2332102344
 21
267.2528478606
 31
0.0
  0
LINE
  5
3D0
330
1F
100
AcDbEntity
  8
0
  6
CONTINUOUS
 62
     7
100
AcDbLine
 10
-179.1242036252
 20
267.2528478606
 30
0.0
 11
-179.287371753
 21
267.1586428679
 31
0.0
  0
LINE
  5
3D1
330
1F
100
AcDbEntity
  8
0
  6
CONTINUOUS
 62
     7
100
AcDbLine
 10
-138.2990232163
 20
237.2528499004
 30
0.0
 11
-138.5721041562
 21
236.8628499004
 31
0.0
  0
LINE
  5
3D2
330
1F
100
AcDbEntity
  8
0
  6
CONTINUOUS
 62
     7
100
AcDbLine
 10
-138.5721041562
 20
233.6428499004
 30
0.0
 11
-138.2990232163
 21
233.2528499004
 31
0.0
  0
LINE
  5
3D3
330
1F
100
AcDbEntity
  8
0
  6
CONTINUOUS
 62
     7
100
AcDbLine
 10
-114.6423549074
 20
237.2528499004
 30
0.0
 11
-114.7877024616
 21
237.2528499004
 31
0.0
  0
LINE
  5
3D4
330
1F
100
AcDbEntity
  8
0
  6
CONTINUOUS
 62
     7
100
AcDbLine
 10
-114.7877024616
 20
233.2528499004
 30
0.0
 11
-114.6423549074
 21
233.2528499004
 31
0.0
  0
LINE
  5
3D5
330
1F
100
AcDbEntity
  8
0
  6
CONTINUOUS
 62
     7
100
AcDbLine
 10
-109.2556269899
 20
237.2528499004
 30
0.0
 11
-109.5287079298
 21
236.8628499004
 31
0.0
  0
LINE
  5
3D6
330
1F
100
AcDbEntity
  8
0
  6
CONTINUOUS
 62
     7
100
AcDbLine
 10
-109.5287079298
 20
233.6428499004
 30
0.0
 11
-109.2556269899
 21
233.2528499004
 31
0.0
  0
LINE
  5
3D7
330
1F
100
AcDbEntity
  8
0
  6
CONTINUOUS
 62
     7
100
AcDbLine
 10
-119.4829209452
 20
237.2528499004
 30
0.0
 11
-119.6282684993
 21
237.2528499004
 31
0.0
  0
LINE
  5
3D8
330
1F
100
AcDbEntity
  8
0
  6
CONTINUOUS
 62
     7
100
AcDbLine
 10
-119.6282684993
 20
233.2528499004
 30
0.0
 11
-119.4829209452
 21
233.2528499004
 31
0.0
  0
LINE
  5
3D9
330
1F
100
AcDbEntity
  8
0
  6
CONTINUOUS
 62
     7
100
AcDbLine
 10
-129.1640530206
 20
237.2528499004
 30
0.0
 11
-129.3094005748
 21
237.2528499004
 31
0.0
  0
LINE
  5
3DA
330
1F
100
AcDbEntity
  8
0
  6
CONTINUOUS
 62
     7
100
AcDbLine
 10
-129.3094005748
 20
233.2528499004
 30
0.0
 11
-129.1640530206
 21
233.2528499004
 31
0.0
  0
LINE
  5
3DB
330
1F
100
AcDbEntity
  8
0
  6
CONTINUOUS
 62
     7
100
AcDbLine
 10
-123.7773251031
 20
237.2528499004
 30
0.0
 11
-124.050406043
 21
236.8628499004
 31
0.0
  0
LINE
  5
3DC
330
1F
100
AcDbEntity
  8
0
  6
CONTINUOUS
 62
     7
100
AcDbLine
 10
-124.050406043
 20
233.6428499004
 30
0.0
 11
-123.7773251031
 21
233.2528499004
 31
0.0
  0
LINE
  5
3DD
330
1F
100
AcDbEntity
  8
0
  6
CONTINUOUS
 62
     7
100
AcDbLine
 10
-140.919713398
 20
237.2528499004
 30
0.0
 11
-141.0650609522
 21
237.2528499004
 31
0.0
  0
LINE
  5
3DE
330
1F
100
AcDbEntity
  8
0
  6
CONTINUOUS
 62
     7
100
AcDbLine
 10
-141.0650609522
 20
233.2528499004
 30
0.0
 11
-140.919713398
 21
233.2528499004
 31
0.0
  0
LINE
  5
3DF
330
1F
100
AcDbEntity
  8
0
  6
CONTINUOUS
 62
     7
100
AcDbLine
 10
-138.8451850961
 20
237.2528499004
 30
0.0
 11
-138.9905326503
 21
237.2528499004
 31
0.0
  0
LINE
  5
3E0
330
1F
100
AcDbEntity
  8
0
  6
CONTINUOUS
 62
     7
100
AcDbLine
 10
-138.9905326503
 20
233.2528499004
 30
0.0
 11
-138.8451850961
 21
233.2528499004
 31
0.0
  0
LINE
  5
3E1
330
1F
100
AcDbEntity
  8
0
  6
CONTINUOUS
 62
     7
100
AcDbLine
 10
-124.3234869829
 20
237.2528499004
 30
0.0
 11
-124.4688345371
 21
237.2528499004
 31
0.0
  0
LINE
  5
3E2
330
1F
100
AcDbEntity
  8
0
  6
CONTINUOUS
 62
     7
100
AcDbLine
 10
-124.4688345371
 20
233.2528499004
 30
0.0
 11
-124.3234869829
 21
233.2528499004
 31
0.0
  0
LINE
  5
3E3
330
1F
100
AcDbEntity
  8
0
  6
CONTINUOUS
 62
     7
100
AcDbLine
 10
-140.3735515182
 20
237.2528499004
 30
0.0
 11
-140.6466324581
 21
236.8628499004
 31
0.0
  0
LINE
  5
3E4
330
1F
100
AcDbEntity
  8
0
  6
CONTINUOUS
 62
     7
100
AcDbLine
 10
-140.6466324581
 20
233.6428499004
 30
0.0
 11
-140.3735515182
 21
233.2528499004
 31
0.0
  0
LINE
  5
3E5
330
1F
100
AcDbEntity
  8
0
  6
CONTINUOUS
 62
     7
100
AcDbLine
 10
-123.6319775489
 20
237.2528499004
 30
0.0
 11
-123.7773251031
 21
237.2528499004
 31
0.0
  0
LINE
  5
3E6
330
1F
100
AcDbEntity
  8
0
  6
CONTINUOUS
 62
     7
100
AcDbLine
 10
-123.7773251031
 20
233.2528499004
 30
0.0
 11
-123.6319775489
 21
233.2528499004
 31
0.0
  0
LINE
  5
3E7
330
1F
100
AcDbEntity
  8
0
  6
CONTINUOUS
 62
     7
100
AcDbLine
 10
-133.4584571786
 20
237.2528499004
 30
0.0
 11
-133.7315381185
 21
236.8628499004
 31
0.0
  0
LINE
  5
3E8
330
1F
100
AcDbEntity
  8
0
  6
CONTINUOUS
 62
     7
100
AcDbLine
 10
-133.7315381185
 20
233.6428499004
 30
0.0
 11
-133.4584571786
 21
233.2528499004
 31
0.0
  0
LINE
  5
3E9
330
1F
100
AcDbEntity
  8
0
  6
CONTINUOUS
 62
     7
100
AcDbLine
 10
-135.5329854805
 20
237.2528499004
 30
0.0
 11
-135.8060664204
 21
236.8628499004
 31
0.0
  0
LINE
  5
3EA
330
1F
100
AcDbEntity
  8
0
  6
CONTINUOUS
 62
     7
100
AcDbLine
 10
-135.8060664204
 20
233.6428499004
 30
0.0
 11
-135.5329854805
 21
233.2528499004
 31
0.0
  0
LINE
  5
3EB
330
1F
100
AcDbEntity
  8
0
  6
CONTINUOUS
 62
     7
100
AcDbLine
 10
-128.6178911408
 20
237.2528499004
 30
0.0
 11
-128.8909720807
 21
236.8628499004
 31
0.0
  0
LINE
  5
3EC
330
1F
100
AcDbEntity
  8
0
  6
CONTINUOUS
 62
     7
100
AcDbLine
 10
-128.8909720807
 20
233.6428499004
 30
0.0
 11
-128.6178911408
 21
233.2528499004
 31
0.0
  0
LINE
  5
3ED
330
1F
100
AcDbEntity
  8
0
  6
CONTINUOUS
 62
     7
100
AcDbLine
 10
-113.9508454735
 20
237.2528499004
 30
0.0
 11
-114.0961930276
 21
237.2528499004
 31
0.0
  0
LINE
  5
3EE
330
1F
100
AcDbEntity
  8
0
  6
CONTINUOUS
 62
     7
100
AcDbLine
 10
-114.0961930276
 20
233.2528499004
 30
0.0
 11
-113.9508454735
 21
233.2528499004
 31
0.0
  0
LINE
  5
3EF
330
1F
100
AcDbEntity
  8
0
  6
CONTINUOUS
 62
     7
100
AcDbLine
 10
-129.8555624546
 20
237.2528499004
 30
0.0
 11
-130.0009100088
 21
237.2528499004
 31
0.0
  0
LINE
  5
3F0
330
1F
100
AcDbEntity
  8
0
  6
CONTINUOUS
 62
     7
100
AcDbLine
 10
-130.0009100088
 20
233.2528499004
 30
0.0
 11
-129.8555624546
 21
233.2528499004
 31
0.0
  0
LINE
  5
3F1
330
1F
100
AcDbEntity
  8
0
  6
CONTINUOUS
 62
     7
100
AcDbLine
 10
-121.5574492471
 20
237.2528499004
 30
0.0
 11
-121.7027968012
 21
237.2528499004
 31
0.0
  0
LINE
  5
3F2
330
1F
100
AcDbEntity
  8
0
  6
CONTINUOUS
 62
     7
100
AcDbLine
 10
-121.7027968012
 20
233.2528499004
 30
0.0
 11
-121.5574492471
 21
233.2528499004
 31
0.0
  0
LINE
  5
3F3
330
1F
100
AcDbEntity
  8
0
  6
CONTINUOUS
 62
     7
100
AcDbLine
 10
-122.3943062352
 20
237.2528499004
 30
0.0
 11
-122.6673871751
 21
236.8628499004
 31
0.0
  0
LINE
  5
3F4
330
1F
100
AcDbEntity
  8
0
  6
CONTINUOUS
 62
     7
100
AcDbLine
 10
-122.6673871751
 20
233.6428499004
 30
0.0
 11
-122.3943062352
 21
233.2528499004
 31
0.0
  0
LINE
  5
3F5
330
1F
100
AcDbEntity
  8
0
  6
CONTINUOUS
 62
     7
100
AcDbLine
 10
-110.6386458578
 20
237.2528499004
 30
0.0
 11
-110.9117267977
 21
236.8628499004
 31
0.0
  0
LINE
  5
3F6
330
1F
100
AcDbEntity
  8
0
  6
CONTINUOUS
 62
     7
100
AcDbLine
 10
-110.9117267977
 20
233.6428499004
 30
0.0
 11
-110.6386458578
 21
233.2528499004
 31
0.0
  0
LINE
  5
3F7
330
1F
100
AcDbEntity
  8
0
  6
CONTINUOUS
 62
     7
100
AcDbLine
 10
-112.0216647257
 20
237.2528499004
 30
0.0
 11
-112.2947456656
 21
236.8628499004
 31
0.0
  0
LINE
  5
3F8
330
1F
100
AcDbEntity
  8
0
  6
CONTINUOUS
 62
     7
100
AcDbLine
 10
-112.2947456656
 20
233.6428499004
 30
0.0
 11
-112.0216647257
 21
233.2528499004
 31
0.0
  0
LINE
  5
3F9
330
1F
100
AcDbEntity
  8
0
  6
CONTINUOUS
 62
     7
100
AcDbLine
 10
-131.2385813225
 20
237.2528499004
 30
0.0
 11
-131.3839288767
 21
237.2528499004
 31
0.0
  0
LINE
  5
3FA
330
1F
100
AcDbEntity
  8
0
  6
CONTINUOUS
 62
     7
100
AcDbLine
 10
-131.3839288767
 20
233.2528499004
 30
0.0
 11
-131.2385813225
 21
233.2528499004
 31
0.0
  0
LINE
  5
3FB
330
1F
100
AcDbEntity
  8
0
  6
CONTINUOUS
 62
     7
100
AcDbLine
 10
-133.3131096244
 20
237.2528499004
 30
0.0
 11
-133.4584571786
 21
237.2528499004
 31
0.0
  0
LINE
  5
3FC
330
1F
100
AcDbEntity
  8
0
  6
CONTINUOUS
 62
     7
100
AcDbLine
 10
-133.4584571786
 20
233.2528499004
 30
0.0
 11
-133.3131096244
 21
233.2528499004
 31
0.0
  0
LINE
  5
3FD
330
1F
100
AcDbEntity
  8
0
  6
CONTINUOUS
 62
     7
100
AcDbLine
 10
-142.9942416999
 20
237.2528499004
 30
0.0
 11
-143.139589254
 21
237.2528499004
 31
0.0
  0
LINE
  5
3FE
330
1F
100
AcDbEntity
  8
0
  6
CONTINUOUS
 62
     7
100
AcDbLine
 10
-143.139589254
 20
233.2528499004
 30
0.0
 11
-142.9942416999
 21
233.2528499004
 31
0.0
  0
LINE
  5
3FF
330
1F
100
AcDbEntity
  8
0
  6
CONTINUOUS
 62
     7
100
AcDbLine
 10
-113.4046835937
 20
237.2528499004
 30
0.0
 11
-113.6777645336
 21
236.8628499004
 31
0.0
  0
LINE
  5
400
330
1F
100
AcDbEntity
  8
0
  6
CONTINUOUS
 62
     7
100
AcDbLine
 10
-113.6777645336
 20
233.6428499004
 30
0.0
 11
-113.4046835937
 21
233.2528499004
 31
0.0
  0
LINE
  5
401
330
1F
100
AcDbEntity
  8
0
  6
CONTINUOUS
 62
     7
100
AcDbLine
 10
-134.0046190584
 20
237.2528499004
 30
0.0
 11
-134.1499666125
 21
237.2528499004
 31
0.0
  0
LINE
  5
402
330
1F
100
AcDbEntity
  8
0
  6
CONTINUOUS
 62
     7
100
AcDbLine
 10
-134.1499666125
 20
233.2528499004
 30
0.0
 11
-134.0046190584
 21
233.2528499004
 31
0.0
  0
LINE
  5
403
330
1F
100
AcDbEntity
  8
0
  6
CONTINUOUS
 62
     7
100
AcDbLine
 10
-111.3301552918
 20
237.2528499004
 30
0.0
 11
-111.6032362317
 21
236.8628499004
 31
0.0
  0
LINE
  5
404
330
1F
100
AcDbEntity
  8
0
  6
CONTINUOUS
 62
     7
100
AcDbLine
 10
-111.6032362317
 20
233.6428499004
 30
0.0
 11
-111.3301552918
 21
233.2528499004
 31
0.0
  0
LINE
  5
405
330
1F
100
AcDbEntity
  8
0
  6
CONTINUOUS
 62
     7
100
AcDbLine
 10
-114.0961930276
 20
237.2528499004
 30
0.0
 11
-114.3692739675
 21
236.8628499004
 31
0.0
  0
LINE
  5
406
330
1F
100
AcDbEntity
  8
0
  6
CONTINUOUS
 62
     7
100
AcDbLine
 10
-114.3692739675
 20
233.6428499004
 30
0.0
 11
-114.0961930276
 21
233.2528499004
 31
0.0
  0
LINE
  5
407
330
1F
100
AcDbEntity
  8
0
  6
CONTINUOUS
 62
     7
100
AcDbLine
 10
-120.1744303791
 20
237.2528499004
 30
0.0
 11
-120.3197779333
 21
237.2528499004
 31
0.0
  0
LINE
  5
408
330
1F
100
AcDbEntity
  8
0
  6
CONTINUOUS
 62
     7
100
AcDbLine
 10
-120.3197779333
 20
233.2528499004
 30
0.0
 11
-120.1744303791
 21
233.2528499004
 31
0.0
  0
LINE
  5
409
330
1F
100
AcDbEntity
  8
0
  6
CONTINUOUS
 62
     7
100
AcDbLine
 10
-132.7669477446
 20
237.2528499004
 30
0.0
 11
-133.0400286845
 21
236.8628499004
 31
0.0
  0
LINE
  5
40A
330
1F
100
AcDbEntity
  8
0
  6
CONTINUOUS
 62
     7
100
AcDbLine
 10
-133.0400286845
 20
233.6428499004
 30
0.0
 11
-132.7669477446
 21
233.2528499004
 31
0.0
  0
LINE
  5
40B
330
1F
100
AcDbEntity
  8
0
  6
CONTINUOUS
 62
     7
100
AcDbLine
 10
-120.8659398131
 20
237.2528499004
 30
0.0
 11
-121.0112873673
 21
237.2528499004
 31
0.0
  0
LINE
  5
40C
330
1F
100
AcDbEntity
  8
0
  6
CONTINUOUS
 62
     7
100
AcDbLine
 10
-121.0112873673
 20
233.2528499004
 30
0.0
 11
-120.8659398131
 21
233.2528499004
 31
0.0
  0
LINE
  5
40D
330
1F
100
AcDbEntity
  8
0
  6
CONTINUOUS
 62
     7
100
AcDbLine
 10
-130.5470718886
 20
237.2528499004
 30
0.0
 11
-130.6924194427
 21
237.2528499004
 31
0.0
  0
LINE
  5
40E
330
1F
100
AcDbEntity
  8
0
  6
CONTINUOUS
 62
     7
100
AcDbLine
 10
-130.6924194427
 20
233.2528499004
 30
0.0
 11
-130.5470718886
 21
233.2528499004
 31
0.0
  0
LINE
  5
40F
330
1F
100
AcDbEntity
  8
0
  6
CONTINUOUS
 62
     7
100
AcDbLine
 10
-130.0009100088
 20
237.2528499004
 30
0.0
 11
-130.2739909487
 21
236.8628499004
 31
0.0
  0
LINE
  5
410
330
1F
100
AcDbEntity
  8
0
  6
CONTINUOUS
 62
     7
100
AcDbLine
 10
-130.2739909487
 20
233.6428499004
 30
0.0
 11
-130.0009100088
 21
233.2528499004
 31
0.0
  0
LINE
  5
411
330
1F
100
AcDbEntity
  8
0
  6
CONTINUOUS
 62
     7
100
AcDbLine
 10
-130.6924194427
 20
237.2528499004
 30
0.0
 11
-130.9655003826
 21
236.8628499004
 31
0.0
  0
LINE
  5
412
330
1F
100
AcDbEntity
  8
0
  6
CONTINUOUS
 62
     7
100
AcDbLine
 10
-130.9655003826
 20
233.6428499004
 30
0.0
 11
-130.6924194427
 21
233.2528499004
 31
0.0
  0
LINE
  5
413
330
1F
100
AcDbEntity
  8
0
  6
CONTINUOUS
 62
     7
100
AcDbLine
 10
-145.2141175559
 20
237.2528499004
 30
0.0
 11
-145.4871984958
 21
236.8628499004
 31
0.0
  0
LINE
  5
414
330
1F
100
AcDbEntity
  8
0
  6
CONTINUOUS
 62
     7
100
AcDbLine
 10
-145.4871984958
 20
233.6428499004
 30
0.0
 11
-145.2141175559
 21
233.2528499004
 31
0.0
  0
LINE
  5
415
330
1F
100
AcDbEntity
  8
0
  6
CONTINUOUS
 62
     7
100
AcDbLine
 10
-141.0650609522
 20
237.2528499004
 30
0.0
 11
-141.3381418921
 21
236.8628499004
 31
0.0
  0
LINE
  5
416
330
1F
100
AcDbEntity
  8
0
  6
CONTINUOUS
 62
     7
100
AcDbLine
 10
-141.3381418921
 20
233.6428499004
 30
0.0
 11
-141.0650609522
 21
233.2528499004
 31
0.0
  0
LINE
  5
417
330
1F
100
AcDbEntity
  8
0
  6
CONTINUOUS
 62
     7
100
AcDbLine
 10
-118.9367590654
 20
237.2528499004
 30
0.0
 11
-119.2098400053
 21
236.8628499004
 31
0.0
  0
LINE
  5
418
330
1F
100
AcDbEntity
  8
0
  6
CONTINUOUS
 62
     7
100
AcDbLine
 10
-119.2098400053
 20
233.6428499004
 30
0.0
 11
-118.9367590654
 21
233.2528499004
 31
0.0
  0
LINE
  5
419
330
1F
100
AcDbEntity
  8
0
  6
CONTINUOUS
 62
     7
100
AcDbLine
 10
-122.248958681
 20
237.2528499004
 30
0.0
 11
-122.3943062352
 21
237.2528499004
 31
0.0
  0
LINE
  5
41A
330
1F
100
AcDbEntity
  8
0
  6
CONTINUOUS
 62
     7
100
AcDbLine
 10
-122.3943062352
 20
233.2528499004
 30
0.0
 11
-122.248958681
 21
233.2528499004
 31
0.0
  0
LINE
  5
41B
330
1F
100
AcDbEntity
  8
0
  6
CONTINUOUS
 62
     7
100
AcDbLine
 10
-141.611222832
 20
237.2528499004
 30
0.0
 11
-141.7565703861
 21
237.2528499004
 31
0.0
  0
LINE
  5
41C
330
1F
100
AcDbEntity
  8
0
  6
CONTINUOUS
 62
     7
100
AcDbLine
 10
-141.7565703861
 20
233.2528499004
 30
0.0
 11
-141.611222832
 21
233.2528499004
 31
0.0
  0
LINE
  5
41D
330
1F
100
AcDbEntity
  8
0
  6
CONTINUOUS
 62
     7
100
AcDbLine
 10
-117.4083926433
 20
237.2528499004
 30
0.0
 11
-117.5537401974
 21
237.2528499004
 31
0.0
  0
LINE
  5
41E
330
1F
100
AcDbEntity
  8
0
  6
CONTINUOUS
 62
     7
100
AcDbLine
 10
-117.5537401974
 20
233.2528499004
 30
0.0
 11
-117.4083926433
 21
233.2528499004
 31
0.0
  0
LINE
  5
41F
330
1F
100
AcDbEntity
  8
0
  6
CONTINUOUS
 62
     7
100
AcDbLine
 10
-113.2593360395
 20
237.2528499004
 30
0.0
 11
-113.4046835937
 21
237.2528499004
 31
0.0
  0
LINE
  5
420
330
1F
100
AcDbEntity
  8
0
  6
CONTINUOUS
 62
     7
100
AcDbLine
 10
-113.4046835937
 20
233.2528499004
 30
0.0
 11
-113.2593360395
 21
233.2528499004
 31
0.0
  0
LINE
  5
421
330
1F
100
AcDbEntity
  8
0
  6
CONTINUOUS
 62
     7
100
AcDbLine
 10
-132.6216001905
 20
237.2528499004
 30
0.0
 11
-132.7669477446
 21
237.2528499004
 31
0.0
  0
LINE
  5
422
330
1F
100
AcDbEntity
  8
0
  6
CONTINUOUS
 62
     7
100
AcDbLine
 10
-132.7669477446
 20
233.2528499004
 30
0.0
 11
-132.6216001905
 21
233.2528499004
 31
0.0
  0
LINE
  5
423
330
1F
100
AcDbEntity
  8
0
  6
CONTINUOUS
 62
     7
100
AcDbLine
 10
-142.3027322659
 20
237.2528499004
 30
0.0
 11
-142.4480798201
 21
237.2528499004
 31
0.0
  0
LINE
  5
424
330
1F
100
AcDbEntity
  8
0
  6
CONTINUOUS
 62
     7
100
AcDbLine
 10
-142.4480798201
 20
233.2528499004
 30
0.0
 11
-142.3027322659
 21
233.2528499004
 31
0.0
  0
LINE
  5
425
330
1F
100
AcDbEntity
  8
0
  6
CONTINUOUS
 62
     7
100
AcDbLine
 10
-128.4725435867
 20
237.2528499004
 30
0.0
 11
-128.6178911408
 21
237.2528499004
 31
0.0
  0
LINE
  5
426
330
1F
100
AcDbEntity
  8
0
  6
CONTINUOUS
 62
     7
100
AcDbLine
 10
-128.6178911408
 20
233.2528499004
 30
0.0
 11
-128.4725435867
 21
233.2528499004
 31
0.0
  0
LINE
  5
427
330
1F
100
AcDbEntity
  8
0
  6
CONTINUOUS
 62
     7
100
AcDbLine
 10
-127.9263817069
 20
237.2528499004
 30
0.0
 11
-128.1994626468
 21
236.8628499004
 31
0.0
  0
LINE
  5
428
330
1F
100
AcDbEntity
  8
0
  6
CONTINUOUS
 62
     7
100
AcDbLine
 10
-128.1994626468
 20
233.6428499004
 30
0.0
 11
-127.9263817069
 21
233.2528499004
 31
0.0
  0
LINE
  5
429
330
1F
100
AcDbEntity
  8
0
  6
CONTINUOUS
 62
     7
100
AcDbLine
 10
-118.7914115112
 20
237.2528499004
 30
0.0
 11
-118.9367590654
 21
237.2528499004
 31
0.0
  0
LINE
  5
42A
330
1F
100
AcDbEntity
  8
0
  6
CONTINUOUS
 62
     7
100
AcDbLine
 10
-118.9367590654
 20
233.2528499004
 30
0.0
 11
-118.7914115112
 21
233.2528499004
 31
0.0
  0
LINE
  5
42B
330
1F
100
AcDbEntity
  8
0
  6
CONTINUOUS
 62
     7
100
AcDbLine
 10
-125.851853405
 20
237.2528499004
 30
0.0
 11
-126.1249343449
 21
236.8628499004
 31
0.0
  0
LINE
  5
42C
330
1F
100
AcDbEntity
  8
0
  6
CONTINUOUS
 62
     7
100
AcDbLine
 10
-126.1249343449
 20
233.6428499004
 30
0.0
 11
-125.851853405
 21
233.2528499004
 31
0.0
  0
LINE
  5
42D
330
1F
100
AcDbEntity
  8
0
  6
CONTINUOUS
 62
     7
100
AcDbLine
 10
-126.3980152848
 20
237.2528499004
 30
0.0
 11
-126.543362839
 21
237.2528499004
 31
0.0
  0
LINE
  5
42E
330
1F
100
AcDbEntity
  8
0
  6
CONTINUOUS
 62
     7
100
AcDbLine
 10
-126.543362839
 20
233.2528499004
 30
0.0
 11
-126.3980152848
 21
233.2528499004
 31
0.0
  0
LINE
  5
42F
330
1F
100
AcDbEntity
  8
0
  6
CONTINUOUS
 62
     7
100
AcDbLine
 10
-143.6857511339
 20
237.2528499004
 30
0.0
 11
-143.831098688
 21
237.2528499004
 31
0.0
  0
LINE
  5
430
330
1F
100
AcDbEntity
  8
0
  6
CONTINUOUS
 62
     7
100
AcDbLine
 10
-143.831098688
 20
233.2528499004
 30
0.0
 11
-143.6857511339
 21
233.2528499004
 31
0.0
  0
LINE
  5
431
330
1F
100
AcDbEntity
  8
0
  6
CONTINUOUS
 62
     7
100
AcDbLine
 10
-129.3094005748
 20
237.2528499004
 30
0.0
 11
-129.5824815147
 21
236.8628499004
 31
0.0
  0
LINE
  5
432
330
1F
100
AcDbEntity
  8
0
  6
CONTINUOUS
 62
     7
100
AcDbLine
 10
-129.5824815147
 20
233.6428499004
 30
0.0
 11
-129.3094005748
 21
233.2528499004
 31
0.0
  0
LINE
  5
433
330
1F
100
AcDbEntity
  8
0
  6
CONTINUOUS
 62
     7
100
AcDbLine
 10
-112.7131741597
 20
237.2528499004
 30
0.0
 11
-112.9862550996
 21
236.8628499004
 31
0.0
  0
LINE
  5
434
330
1F
100
AcDbEntity
  8
0
  6
CONTINUOUS
 62
     7
100
AcDbLine
 10
-112.9862550996
 20
233.6428499004
 30
0.0
 11
-112.7131741597
 21
233.2528499004
 31
0.0
  0
LINE
  5
435
330
1F
100
AcDbEntity
  8
0
  6
CONTINUOUS
 62
     7
100
AcDbLine
 10
-110.4932983037
 20
237.2528499004
 30
0.0
 11
-110.6386458578
 21
237.2528499004
 31
0.0
  0
LINE
  5
436
330
1F
100
AcDbEntity
  8
0
  6
CONTINUOUS
 62
     7
100
AcDbLine
 10
-110.6386458578
 20
233.2528499004
 30
0.0
 11
-110.4932983037
 21
233.2528499004
 31
0.0
  0
LINE
  5
437
330
1F
100
AcDbEntity
  8
0
  6
CONTINUOUS
 62
     7
100
AcDbLine
 10
-120.3197779333
 20
237.2528499004
 30
0.0
 11
-120.5928588732
 21
236.8628499004
 31
0.0
  0
LINE
  5
438
330
1F
100
AcDbEntity
  8
0
  6
CONTINUOUS
 62
     7
100
AcDbLine
 10
-120.5928588732
 20
233.6428499004
 30
0.0
 11
-120.3197779333
 21
233.2528499004
 31
0.0
  0
LINE
  5
439
330
1F
100
AcDbEntity
  8
0
  6
CONTINUOUS
 62
     7
100
AcDbLine
 10
-140.228203964
 20
237.2528499004
 30
0.0
 11
-140.3735515182
 21
237.2528499004
 31
0.0
  0
LINE
  5
43A
330
1F
100
AcDbEntity
  8
0
  6
CONTINUOUS
 62
     7
100
AcDbLine
 10
-140.3735515182
 20
233.2528499004
 30
0.0
 11
-140.228203964
 21
233.2528499004
 31
0.0
  0
LINE
  5
43B
330
1F
100
AcDbEntity
  8
0
  6
CONTINUOUS
 62
     7
100
AcDbLine
 10
-121.0112873673
 20
237.2528499004
 30
0.0
 11
-121.2843683072
 21
236.8628499004
 31
0.0
  0
LINE
  5
43C
330
1F
100
AcDbEntity
  8
0
  6
CONTINUOUS
 62
     7
100
AcDbLine
 10
-121.2843683072
 20
233.6428499004
 30
0.0
 11
-121.0112873673
 21
233.2528499004
 31
0.0
  0
LINE
  5
43D
330
1F
100
AcDbEntity
  8
0
  6
CONTINUOUS
 62
     7
100
AcDbLine
 10
-116.0253737754
 20
237.2528499004
 30
0.0
 11
-116.1707213295
 21
237.2528499004
 31
0.0
  0
LINE
  5
43E
330
1F
100
AcDbEntity
  8
0
  6
CONTINUOUS
 62
     7
100
AcDbLine
 10
-116.1707213295
 20
233.2528499004
 30
0.0
 11
-116.0253737754
 21
233.2528499004
 31
0.0
  0
LINE
  5
43F
330
1F
100
AcDbEntity
  8
0
  6
CONTINUOUS
 62
     7
100
AcDbLine
 10
-138.1536756622
 20
237.2528499004
 30
0.0
 11
-138.2990232163
 21
237.2528499004
 31
0.0
  0
LINE
  5
440
330
1F
100
AcDbEntity
  8
0
  6
CONTINUOUS
 62
     7
100
AcDbLine
 10
-138.2990232163
 20
233.2528499004
 30
0.0
 11
-138.1536756622
 21
233.2528499004
 31
0.0
  0
LINE
  5
441
330
1F
100
AcDbEntity
  8
0
  6
CONTINUOUS
 62
     7
100
AcDbLine
 10
-143.139589254
 20
237.2528499004
 30
0.0
 11
-143.412670194
 21
236.8628499004
 31
0.0
  0
LINE
  5
442
330
1F
100
AcDbEntity
  8
0
  6
CONTINUOUS
 62
     7
100
AcDbLine
 10
-143.412670194
 20
233.6428499004
 30
0.0
 11
-143.139589254
 21
233.2528499004
 31
0.0
  0
LINE
  5
443
330
1F
100
AcDbEntity
  8
0
  6
CONTINUOUS
 62
     7
100
AcDbLine
 10
-131.9300907565
 20
237.2528499004
 30
0.0
 11
-132.0754383107
 21
237.2528499004
 31
0.0
  0
LINE
  5
444
330
1F
100
AcDbEntity
  8
0
  6
CONTINUOUS
 62
     7
100
AcDbLine
 10
-132.0754383107
 20
233.2528499004
 30
0.0
 11
-131.9300907565
 21
233.2528499004
 31
0.0
  0
LINE
  5
445
330
1F
100
AcDbEntity
  8
0
  6
CONTINUOUS
 62
     7
100
AcDbLine
 10
-111.8763171716
 20
237.2528499004
 30
0.0
 11
-112.0216647257
 21
237.2528499004
 31
0.0
  0
LINE
  5
446
330
1F
100
AcDbEntity
  8
0
  6
CONTINUOUS
 62
     7
100
AcDbLine
 10
-112.0216647257
 20
233.2528499004
 30
0.0
 11
-111.8763171716
 21
233.2528499004
 31
0.0
  0
LINE
  5
447
330
1F
100
AcDbEntity
  8
0
  6
CONTINUOUS
 62
     7
100
AcDbLine
 10
-131.3839288767
 20
237.2528499004
 30
0.0
 11
-131.6570098166
 21
236.8628499004
 31
0.0
  0
LINE
  5
448
330
1F
100
AcDbEntity
  8
0
  6
CONTINUOUS
 62
     7
100
AcDbLine
 10
-131.6570098166
 20
233.6428499004
 30
0.0
 11
-131.3839288767
 21
233.2528499004
 31
0.0
  0
LINE
  5
449
330
1F
100
AcDbEntity
  8
0
  6
CONTINUOUS
 62
     7
100
AcDbLine
 10
-112.5678266056
 20
237.2528499004
 30
0.0
 11
-112.7131741597
 21
237.2528499004
 31
0.0
  0
LINE
  5
44A
330
1F
100
AcDbEntity
  8
0
  6
CONTINUOUS
 62
     7
100
AcDbLine
 10
-112.7131741597
 20
233.2528499004
 30
0.0
 11
-112.5678266056
 21
233.2528499004
 31
0.0
  0
LINE
  5
44B
330
1F
100
AcDbEntity
  8
0
  6
CONTINUOUS
 62
     7
100
AcDbLine
 10
-122.940468115
 20
237.2528499004
 30
0.0
 11
-123.0858156691
 21
237.2528499004
 31
0.0
  0
LINE
  5
44C
330
1F
100
AcDbEntity
  8
0
  6
CONTINUOUS
 62
     7
100
AcDbLine
 10
-123.0858156691
 20
233.2528499004
 30
0.0
 11
-122.940468115
 21
233.2528499004
 31
0.0
  0
LINE
  5
44D
330
1F
100
AcDbEntity
  8
0
  6
CONTINUOUS
 62
     7
100
AcDbLine
 10
-118.0999020772
 20
237.2528499004
 30
0.0
 11
-118.2452496314
 21
237.2528499004
 31
0.0
  0
LINE
  5
44E
330
1F
100
AcDbEntity
  8
0
  6
CONTINUOUS
 62
     7
100
AcDbLine
 10
-118.2452496314
 20
233.2528499004
 30
0.0
 11
-118.0999020772
 21
233.2528499004
 31
0.0
  0
LINE
  5
44F
330
1F
100
AcDbEntity
  8
0
  6
CONTINUOUS
 62
     7
100
AcDbLine
 10
-123.0858156691
 20
237.2528499004
 30
0.0
 11
-123.358896609
 21
236.8628499004
 31
0.0
  0
LINE
  5
450
330
1F
100
AcDbEntity
  8
0
  6
CONTINUOUS
 62
     7
100
AcDbLine
 10
-123.358896609
 20
233.6428499004
 30
0.0
 11
-123.0858156691
 21
233.2528499004
 31
0.0
  0
LINE
  5
451
330
1F
100
AcDbEntity
  8
0
  6
CONTINUOUS
 62
     7
100
AcDbLine
 10
-142.4480798201
 20
237.2528499004
 30
0.0
 11
-142.72116076
 21
236.8628499004
 31
0.0
  0
LINE
  5
452
330
1F
100
AcDbEntity
  8
0
  6
CONTINUOUS
 62
     7
100
AcDbLine
 10
-142.72116076
 20
233.6428499004
 30
0.0
 11
-142.4480798201
 21
233.2528499004
 31
0.0
  0
LINE
  5
453
330
1F
100
AcDbEntity
  8
0
  6
CONTINUOUS
 62
     7
100
AcDbLine
 10
-125.7065058508
 20
237.2528499004
 30
0.0
 11
-125.851853405
 21
237.2528499004
 31
0.0
  0
LINE
  5
454
330
1F
100
AcDbEntity
  8
0
  6
CONTINUOUS
 62
     7
100
AcDbLine
 10
-125.851853405
 20
233.2528499004
 30
0.0
 11
-125.7065058508
 21
233.2528499004
 31
0.0
  0
LINE
  5
455
330
1F
100
AcDbEntity
  8
0
  6
CONTINUOUS
 62
     7
100
AcDbLine
 10
-145.0687700018
 20
237.2528499004
 30
0.0
 11
-145.2141175559
 21
237.2528499004
 31
0.0
  0
LINE
  5
456
330
1F
100
AcDbEntity
  8
0
  6
CONTINUOUS
 62
     7
100
AcDbLine
 10
-145.2141175559
 20
233.2528499004
 30
0.0
 11
-145.0687700018
 21
233.2528499004
 31
0.0
  0
LINE
  5
457
330
1F
100
AcDbEntity
  8
0
  6
CONTINUOUS
 62
     7
100
AcDbLine
 10
-116.1707213295
 20
237.2528499004
 30
0.0
 11
-116.4438022694
 21
236.8628499004
 31
0.0
  0
LINE
  5
458
330
1F
100
AcDbEntity
  8
0
  6
CONTINUOUS
 62
     7
100
AcDbLine
 10
-116.4438022694
 20
233.6428499004
 30
0.0
 11
-116.1707213295
 21
233.2528499004
 31
0.0
  0
LINE
  5
459
330
1F
100
AcDbEntity
  8
0
  6
CONTINUOUS
 62
     7
100
AcDbLine
 10
-136.0791473603
 20
237.2528499004
 30
0.0
 11
-136.2244949144
 21
237.2528499004
 31
0.0
  0
LINE
  5
45A
330
1F
100
AcDbEntity
  8
0
  6
CONTINUOUS
 62
     7
100
AcDbLine
 10
-136.2244949144
 20
233.2528499004
 30
0.0
 11
-136.0791473603
 21
233.2528499004
 31
0.0
  0
LINE
  5
45B
330
1F
100
AcDbEntity
  8
0
  6
CONTINUOUS
 62
     7
100
AcDbLine
 10
-119.6282684993
 20
237.2528499004
 30
0.0
 11
-119.9013494392
 21
236.8628499004
 31
0.0
  0
LINE
  5
45C
330
1F
100
AcDbEntity
  8
0
  6
CONTINUOUS
 62
     7
100
AcDbLine
 10
-119.9013494392
 20
233.6428499004
 30
0.0
 11
-119.6282684993
 21
233.2528499004
 31
0.0
  0
LINE
  5
45D
330
1F
100
AcDbEntity
  8
0
  6
CONTINUOUS
 62
     7
100
AcDbLine
 10
-139.6820420842
 20
237.2528499004
 30
0.0
 11
-139.9551230241
 21
236.8628499004
 31
0.0
  0
LINE
  5
45E
330
1F
100
AcDbEntity
  8
0
  6
CONTINUOUS
 62
     7
100
AcDbLine
 10
-139.9551230241
 20
233.6428499004
 30
0.0
 11
-139.6820420842
 21
233.2528499004
 31
0.0
  0
LINE
  5
45F
330
1F
100
AcDbEntity
  8
0
  6
CONTINUOUS
 62
     7
100
AcDbLine
 10
-109.9471364239
 20
237.2528499004
 30
0.0
 11
-110.2202173638
 21
236.8628499004
 31
0.0
  0
LINE
  5
460
330
1F
100
AcDbEntity
  8
0
  6
CONTINUOUS
 62
     7
100
AcDbLine
 10
-110.2202173638
 20
233.6428499004
 30
0.0
 11
-109.9471364239
 21
233.2528499004
 31
0.0
  0
LINE
  5
461
330
1F
100
AcDbEntity
  8
0
  6
CONTINUOUS
 62
     7
100
AcDbLine
 10
-115.4792118956
 20
237.2528499004
 30
0.0
 11
-115.7522928355
 21
236.8628499004
 31
0.0
  0
LINE
  5
462
330
1F
100
AcDbEntity
  8
0
  6
CONTINUOUS
 62
     7
100
AcDbLine
 10
-115.7522928355
 20
233.6428499004
 30
0.0
 11
-115.4792118956
 21
233.2528499004
 31
0.0
  0
LINE
  5
463
330
1F
100
AcDbEntity
  8
0
  6
CONTINUOUS
 62
     7
100
AcDbLine
 10
-135.3876379263
 20
237.2528499004
 30
0.0
 11
-135.5329854805
 21
237.2528499004
 31
0.0
  0
LINE
  5
464
330
1F
100
AcDbEntity
  8
0
  6
CONTINUOUS
 62
     7
100
AcDbLine
 10
-135.5329854805
 20
233.2528499004
 30
0.0
 11
-135.3876379263
 21
233.2528499004
 31
0.0
  0
LINE
  5
465
330
1F
100
AcDbEntity
  8
0
  6
CONTINUOUS
 62
     7
100
AcDbLine
 10
-111.1848077376
 20
237.2528499004
 30
0.0
 11
-111.3301552918
 21
237.2528499004
 31
0.0
  0
LINE
  5
466
330
1F
100
AcDbEntity
  8
0
  6
CONTINUOUS
 62
     7
100
AcDbLine
 10
-111.3301552918
 20
233.2528499004
 30
0.0
 11
-111.1848077376
 21
233.2528499004
 31
0.0
  0
LINE
  5
467
330
1F
100
AcDbEntity
  8
0
  6
CONTINUOUS
 62
     7
100
AcDbLine
 10
-137.6075137824
 20
237.2528499004
 30
0.0
 11
-137.8805947223
 21
236.8628499004
 31
0.0
  0
LINE
  5
468
330
1F
100
AcDbEntity
  8
0
  6
CONTINUOUS
 62
     7
100
AcDbLine
 10
-137.8805947223
 20
233.6428499004
 30
0.0
 11
-137.6075137824
 21
233.2528499004
 31
0.0
  0
LINE
  5
469
330
1F
100
AcDbEntity
  8
0
  6
CONTINUOUS
 62
     7
100
AcDbLine
 10
-115.3338643414
 20
237.2528499004
 30
0.0
 11
-115.4792118956
 21
237.2528499004
 31
0.0
  0
LINE
  5
46A
330
1F
100
AcDbEntity
  8
0
  6
CONTINUOUS
 62
     7
100
AcDbLine
 10
-115.4792118956
 20
233.2528499004
 30
0.0
 11
-115.3338643414
 21
233.2528499004
 31
0.0
  0
LINE
  5
46B
330
1F
100
AcDbEntity
  8
0
  6
CONTINUOUS
 62
     7
100
AcDbLine
 10
-118.2452496314
 20
237.2528499004
 30
0.0
 11
-118.5183305713
 21
236.8628499004
 31
0.0
  0
LINE
  5
46C
330
1F
100
AcDbEntity
  8
0
  6
CONTINUOUS
 62
     7
100
AcDbLine
 10
-118.5183305713
 20
233.6428499004
 30
0.0
 11
-118.2452496314
 21
233.2528499004
 31
0.0
  0
LINE
  5
46D
330
1F
100
AcDbEntity
  8
0
  6
CONTINUOUS
 62
     7
100
AcDbLine
 10
-127.7810341527
 20
237.2528499004
 30
0.0
 11
-127.9263817069
 21
237.2528499004
 31
0.0
  0
LINE
  5
46E
330
1F
100
AcDbEntity
  8
0
  6
CONTINUOUS
 62
     7
100
AcDbLine
 10
-127.9263817069
 20
233.2528499004
 30
0.0
 11
-127.7810341527
 21
233.2528499004
 31
0.0
  0
LINE
  5
46F
330
1F
100
AcDbEntity
  8
0
  6
CONTINUOUS
 62
     7
100
AcDbLine
 10
-136.7706567942
 20
237.2528499004
 30
0.0
 11
-136.9160043484
 21
237.2528499004
 31
0.0
  0
LINE
  5
470
330
1F
100
AcDbEntity
  8
0
  6
CONTINUOUS
 62
     7
100
AcDbLine
 10
-136.9160043484
 20
233.2528499004
 30
0.0
 11
-136.7706567942
 21
233.2528499004
 31
0.0
  0
LINE
  5
471
330
1F
100
AcDbEntity
  8
0
  6
CONTINUOUS
 62
     7
100
AcDbLine
 10
-116.8622307635
 20
237.2528499004
 30
0.0
 11
-117.1353117034
 21
236.8628499004
 31
0.0
  0
LINE
  5
472
330
1F
100
AcDbEntity
  8
0
  6
CONTINUOUS
 62
     7
100
AcDbLine
 10
-117.1353117034
 20
233.6428499004
 30
0.0
 11
-116.8622307635
 21
233.2528499004
 31
0.0
  0
LINE
  5
473
330
1F
100
AcDbEntity
  8
0
  6
CONTINUOUS
 62
     7
100
AcDbLine
 10
-141.7565703861
 20
237.2528499004
 30
0.0
 11
-142.029651326
 21
236.8628499004
 31
0.0
  0
LINE
  5
474
330
1F
100
AcDbEntity
  8
0
  6
CONTINUOUS
 62
     7
100
AcDbLine
 10
-142.029651326
 20
233.6428499004
 30
0.0
 11
-141.7565703861
 21
233.2528499004
 31
0.0
  0
LINE
  5
475
330
1F
100
AcDbEntity
  8
0
  6
CONTINUOUS
 62
     7
100
AcDbLine
 10
-127.2348722729
 20
237.2528499004
 30
0.0
 11
-127.5079532128
 21
236.8628499004
 31
0.0
  0
LINE
  5
476
330
1F
100
AcDbEntity
  8
0
  6
CONTINUOUS
 62
     7
100
AcDbLine
 10
-127.5079532128
 20
233.6428499004
 30
0.0
 11
-127.2348722729
 21
233.2528499004
 31
0.0
  0
LINE
  5
477
330
1F
100
AcDbEntity
  8
0
  6
CONTINUOUS
 62
     7
100
AcDbLine
 10
-125.160343971
 20
237.2528499004
 30
0.0
 11
-125.4334249109
 21
236.8628499004
 31
0.0
  0
LINE
  5
478
330
1F
100
AcDbEntity
  8
0
  6
CONTINUOUS
 62
     7
100
AcDbLine
 10
-125.4334249109
 20
233.6428499004
 30
0.0
 11
-125.160343971
 21
233.2528499004
 31
0.0
  0
LINE
  5
479
330
1F
100
AcDbEntity
  8
0
  6
CONTINUOUS
 62
     7
100
AcDbLine
 10
-117.5537401974
 20
237.2528499004
 30
0.0
 11
-117.8268211373
 21
236.8628499004
 31
0.0
  0
LINE
  5
47A
330
1F
100
AcDbEntity
  8
0
  6
CONTINUOUS
 62
     7
100
AcDbLine
 10
-117.8268211373
 20
233.6428499004
 30
0.0
 11
-117.5537401974
 21
233.2528499004
 31
0.0
  0
LINE
  5
47B
330
1F
100
AcDbEntity
  8
0
  6
CONTINUOUS
 62
     7
100
AcDbLine
 10
-134.8414760465
 20
237.2528499004
 30
0.0
 11
-135.1145569864
 21
236.8628499004
 31
0.0
  0
LINE
  5
47C
330
1F
100
AcDbEntity
  8
0
  6
CONTINUOUS
 62
     7
100
AcDbLine
 10
-135.1145569864
 20
233.6428499004
 30
0.0
 11
-134.8414760465
 21
233.2528499004
 31
0.0
  0
LINE
  5
47D
330
1F
100
AcDbEntity
  8
0
  6
CONTINUOUS
 62
     7
100
AcDbLine
 10
-109.1787069298
 20
237.2528499004
 30
0.0
 11
-109.2556269899
 21
237.2528499004
 31
0.0
  0
LINE
  5
47E
330
1F
100
AcDbEntity
  8
0
  6
CONTINUOUS
 62
     7
100
AcDbLine
 10
-109.2556269899
 20
233.2528499004
 30
0.0
 11
-109.1787069298
 21
233.2528499004
 31
0.0
  0
LINE
  5
47F
330
1F
100
AcDbEntity
  8
0
  6
CONTINUOUS
 62
     7
100
AcDbLine
 10
-125.0149964169
 20
237.2528499004
 30
0.0
 11
-125.160343971
 21
237.2528499004
 31
0.0
  0
LINE
  5
480
330
1F
100
AcDbEntity
  8
0
  6
CONTINUOUS
 62
     7
100
AcDbLine
 10
-125.160343971
 20
233.2528499004
 30
0.0
 11
-125.0149964169
 21
233.2528499004
 31
0.0
  0
LINE
  5
481
330
1F
100
AcDbEntity
  8
0
  6
CONTINUOUS
 62
     7
100
AcDbLine
 10
-136.9160043484
 20
237.2528499004
 30
0.0
 11
-137.1890852883
 21
236.8628499004
 31
0.0
  0
LINE
  5
482
330
1F
100
AcDbEntity
  8
0
  6
CONTINUOUS
 62
     7
100
AcDbLine
 10
-137.1890852883
 20
233.6428499004
 30
0.0
 11
-136.9160043484
 21
233.2528499004
 31
0.0
  0
LINE
  5
483
330
1F
100
AcDbEntity
  8
0
  6
CONTINUOUS
 62
     7
100
AcDbLine
 10
-144.522608122
 20
237.2528499004
 30
0.0
 11
-144.7956890619
 21
236.8628499004
 31
0.0
  0
LINE
  5
484
330
1F
100
AcDbEntity
  8
0
  6
CONTINUOUS
 62
     7
100
AcDbLine
 10
-144.7956890619
 20
233.6428499004
 30
0.0
 11
-144.522608122
 21
233.2528499004
 31
0.0
  0
LINE
  5
485
330
1F
100
AcDbEntity
  8
0
  6
CONTINUOUS
 62
     7
100
AcDbLine
 10
-121.7027968012
 20
237.2528499004
 30
0.0
 11
-121.9758777411
 21
236.8628499004
 31
0.0
  0
LINE
  5
486
330
1F
100
AcDbEntity
  8
0
  6
CONTINUOUS
 62
     7
100
AcDbLine
 10
-121.9758777411
 20
233.6428499004
 30
0.0
 11
-121.7027968012
 21
233.2528499004
 31
0.0
  0
LINE
  5
487
330
1F
100
AcDbEntity
  8
0
  6
CONTINUOUS
 62
     7
100
AcDbLine
 10
-139.5366945301
 20
237.2528499004
 30
0.0
 11
-139.6820420842
 21
237.2528499004
 31
0.0
  0
LINE
  5
488
330
1F
100
AcDbEntity
  8
0
  6
CONTINUOUS
 62
     7
100
AcDbLine
 10
-139.6820420842
 20
233.2528499004
 30
0.0
 11
-139.5366945301
 21
233.2528499004
 31
0.0
  0
LINE
  5
489
330
1F
100
AcDbEntity
  8
0
  6
CONTINUOUS
 62
     7
100
AcDbLine
 10
-132.0754383107
 20
237.2528499004
 30
0.0
 11
-132.3485192506
 21
236.8628499004
 31
0.0
  0
LINE
  5
48A
330
1F
100
AcDbEntity
  8
0
  6
CONTINUOUS
 62
     7
100
AcDbLine
 10
-132.3485192506
 20
233.6428499004
 30
0.0
 11
-132.0754383107
 21
233.2528499004
 31
0.0
  0
LINE
  5
48B
330
1F
100
AcDbEntity
  8
0
  6
CONTINUOUS
 62
     7
100
AcDbLine
 10
-134.1499666125
 20
237.2528499004
 30
0.0
 11
-134.4230475524
 21
236.8628499004
 31
0.0
  0
LINE
  5
48C
330
1F
100
AcDbEntity
  8
0
  6
CONTINUOUS
 62
     7
100
AcDbLine
 10
-134.4230475524
 20
233.6428499004
 30
0.0
 11
-134.1499666125
 21
233.2528499004
 31
0.0
  0
LINE
  5
48D
330
1F
100
AcDbEntity
  8
0
  6
CONTINUOUS
 62
     7
100
AcDbLine
 10
-114.7877024616
 20
237.2528499004
 30
0.0
 11
-115.0607834015
 21
236.8628499004
 31
0.0
  0
LINE
  5
48E
330
1F
100
AcDbEntity
  8
0
  6
CONTINUOUS
 62
     7
100
AcDbLine
 10
-115.0607834015
 20
233.6428499004
 30
0.0
 11
-114.7877024616
 21
233.2528499004
 31
0.0
  0
LINE
  5
48F
330
1F
100
AcDbEntity
  8
0
  6
CONTINUOUS
 62
     7
100
AcDbLine
 10
-137.4621662282
 20
237.2528499004
 30
0.0
 11
-137.6075137824
 21
237.2528499004
 31
0.0
  0
LINE
  5
490
330
1F
100
AcDbEntity
  8
0
  6
CONTINUOUS
 62
     7
100
AcDbLine
 10
-137.6075137824
 20
233.2528499004
 30
0.0
 11
-137.4621662282
 21
233.2528499004
 31
0.0
  0
LINE
  5
491
330
1F
100
AcDbEntity
  8
0
  6
CONTINUOUS
 62
     7
100
AcDbLine
 10
-144.3772605678
 20
237.2528499004
 30
0.0
 11
-144.522608122
 21
237.2528499004
 31
0.0
  0
LINE
  5
492
330
1F
100
AcDbEntity
  8
0
  6
CONTINUOUS
 62
     7
100
AcDbLine
 10
-144.522608122
 20
233.2528499004
 30
0.0
 11
-144.3772605678
 21
233.2528499004
 31
0.0
  0
LINE
  5
493
330
1F
100
AcDbEntity
  8
0
  6
CONTINUOUS
 62
     7
100
AcDbLine
 10
-109.8017888697
 20
237.2528499004
 30
0.0
 11
-109.9471364239
 21
237.2528499004
 31
0.0
  0
LINE
  5
494
330
1F
100
AcDbEntity
  8
0
  6
CONTINUOUS
 62
     7
100
AcDbLine
 10
-109.9471364239
 20
233.2528499004
 30
0.0
 11
-109.8017888697
 21
233.2528499004
 31
0.0
  0
LINE
  5
495
330
1F
100
AcDbEntity
  8
0
  6
CONTINUOUS
 62
     7
100
AcDbLine
 10
-126.543362839
 20
237.2528499004
 30
0.0
 11
-126.8164437789
 21
236.8628499004
 31
0.0
  0
LINE
  5
496
330
1F
100
AcDbEntity
  8
0
  6
CONTINUOUS
 62
     7
100
AcDbLine
 10
-126.8164437789
 20
233.6428499004
 30
0.0
 11
-126.543362839
 21
233.2528499004
 31
0.0
  0
LINE
  5
497
330
1F
100
AcDbEntity
  8
0
  6
CONTINUOUS
 62
     7
100
AcDbLine
 10
-143.831098688
 20
237.2528499004
 30
0.0
 11
-144.1041796279
 21
236.8628499004
 31
0.0
  0
LINE
  5
498
330
1F
100
AcDbEntity
  8
0
  6
CONTINUOUS
 62
     7
100
AcDbLine
 10
-144.1041796279
 20
233.6428499004
 30
0.0
 11
-143.831098688
 21
233.2528499004
 31
0.0
  0
LINE
  5
499
330
1F
100
AcDbEntity
  8
0
  6
CONTINUOUS
 62
     7
100
AcDbLine
 10
-134.6961284923
 20
237.2528499004
 30
0.0
 11
-134.8414760465
 21
237.2528499004
 31
0.0
  0
LINE
  5
49A
330
1F
100
AcDbEntity
  8
0
  6
CONTINUOUS
 62
     7
100
AcDbLine
 10
-134.8414760465
 20
233.2528499004
 30
0.0
 11
-134.6961284923
 21
233.2528499004
 31
0.0
  0
LINE
  5
49B
330
1F
100
AcDbEntity
  8
0
  6
CONTINUOUS
 62
     7
100
AcDbLine
 10
-127.0895247188
 20
237.2528499004
 30
0.0
 11
-127.2348722729
 21
237.2528499004
 31
0.0
  0
LINE
  5
49C
330
1F
100
AcDbEntity
  8
0
  6
CONTINUOUS
 62
     7
100
AcDbLine
 10
-127.2348722729
 20
233.2528499004
 30
0.0
 11
-127.0895247188
 21
233.2528499004
 31
0.0
  0
LINE
  5
49D
330
1F
100
AcDbEntity
  8
0
  6
CONTINUOUS
 62
     7
100
AcDbLine
 10
-136.2244949144
 20
237.2528499004
 30
0.0
 11
-136.4975758543
 21
236.8628499004
 31
0.0
  0
LINE
  5
49E
330
1F
100
AcDbEntity
  8
0
  6
CONTINUOUS
 62
     7
100
AcDbLine
 10
-136.4975758543
 20
233.6428499004
 30
0.0
 11
-136.2244949144
 21
233.2528499004
 31
0.0
  0
LINE
  5
49F
330
1F
100
AcDbEntity
  8
0
  6
CONTINUOUS
 62
     7
100
AcDbLine
 10
-138.9905326503
 20
237.2528499004
 30
0.0
 11
-139.2636135902
 21
236.8628499004
 31
0.0
  0
LINE
  5
4A0
330
1F
100
AcDbEntity
  8
0
  6
CONTINUOUS
 62
     7
100
AcDbLine
 10
-139.2636135902
 20
233.6428499004
 30
0.0
 11
-138.9905326503
 21
233.2528499004
 31
0.0
  0
LINE
  5
4A1
330
1F
100
AcDbEntity
  8
0
  6
CONTINUOUS
 62
     7
100
AcDbLine
 10
-124.4688345371
 20
237.2528499004
 30
0.0
 11
-124.741915477
 21
236.8628499004
 31
0.0
  0
LINE
  5
4A2
330
1F
100
AcDbEntity
  8
0
  6
CONTINUOUS
 62
     7
100
AcDbLine
 10
-124.741915477
 20
233.6428499004
 30
0.0
 11
-124.4688345371
 21
233.2528499004
 31
0.0
  0
LINE
  5
4A3
330
1F
100
AcDbEntity
  8
0
  6
CONTINUOUS
 62
     7
100
AcDbLine
 10
-116.7168832093
 20
237.2528499004
 30
0.0
 11
-116.8622307635
 21
237.2528499004
 31
0.0
  0
LINE
  5
4A4
330
1F
100
AcDbEntity
  8
0
  6
CONTINUOUS
 62
     7
100
AcDbLine
 10
-116.8622307635
 20
233.2528499004
 30
0.0
 11
-116.7168832093
 21
233.2528499004
 31
0.0
  0
LINE
  5
4A5
330
1F
100
AcDbEntity
  8
0
  6
CONTINUOUS
 62
     7
100
AcDbLine
 10
-129.8555624546
 20
233.2528499004
 30
0.0
 11
-129.5824815147
 21
233.6428499004
 31
0.0
  0
LINE
  5
4A6
330
1F
100
AcDbEntity
  8
0
  6
CONTINUOUS
 62
     7
100
AcDbLine
 10
-129.5824815147
 20
236.8628499004
 30
0.0
 11
-129.8555624546
 21
237.2528499004
 31
0.0
  0
LINE
  5
4A7
330
1F
100
AcDbEntity
  8
0
  6
CONTINUOUS
 62
     7
100
AcDbLine
 10
-125.0149964169
 20
233.2528499004
 30
0.0
 11
-124.741915477
 21
233.6428499004
 31
0.0
  0
LINE
  5
4A8
330
1F
100
AcDbEntity
  8
0
  6
CONTINUOUS
 62
     7
100
AcDbLine
 10
-124.741915477
 20
236.8628499004
 30
0.0
 11
-125.0149964169
 21
237.2528499004
 31
0.0
  0
LINE
  5
4A9
330
1F
100
AcDbEntity
  8
0
  6
CONTINUOUS
 62
     7
100
AcDbLine
 10
-119.4829209452
 20
233.2528499004
 30
0.0
 11
-119.2098400053
 21
233.6428499004
 31
0.0
  0
LINE
  5
4AA
330
1F
100
AcDbEntity
  8
0
  6
CONTINUOUS
 62
     7
100
AcDbLine
 10
-119.2098400053
 20
236.8628499004
 30
0.0
 11
-119.4829209452
 21
237.2528499004
 31
0.0
  0
LINE
  5
4AB
330
1F
100
AcDbEntity
  8
0
  6
CONTINUOUS
 62
     7
100
AcDbLine
 10
-144.3772605678
 20
233.2528499004
 30
0.0
 11
-144.1041796279
 21
233.6428499004
 31
0.0
  0
LINE
  5
4AC
330
1F
100
AcDbEntity
  8
0
  6
CONTINUOUS
 62
     7
100
AcDbLine
 10
-144.1041796279
 20
236.8628499004
 30
0.0
 11
-144.3772605678
 21
237.2528499004
 31
0.0
  0
LINE
  5
4AD
330
1F
100
AcDbEntity
  8
0
  6
CONTINUOUS
 62
     7
100
AcDbLine
 10
-114.6423549074
 20
233.2528499004
 30
0.0
 11
-114.3692739675
 21
233.6428499004
 31
0.0
  0
LINE
  5
4AE
330
1F
100
AcDbEntity
  8
0
  6
CONTINUOUS
 62
     7
100
AcDbLine
 10
-114.3692739675
 20
236.8628499004
 30
0.0
 11
-114.6423549074
 21
237.2528499004
 31
0.0
  0
LINE
  5
4AF
330
1F
100
AcDbEntity
  8
0
  6
CONTINUOUS
 62
     7
100
AcDbLine
 10
-109.8017888697
 20
233.2528499004
 30
0.0
 11
-109.5287079298
 21
233.6428499004
 31
0.0
  0
LINE
  5
4B0
330
1F
100
AcDbEntity
  8
0
  6
CONTINUOUS
 62
     7
100
AcDbLine
 10
-109.5287079298
 20
236.8628499004
 30
0.0
 11
-109.8017888697
 21
237.2528499004
 31
0.0
  0
LINE
  5
4B1
330
1F
100
AcDbEntity
  8
0
  6
CONTINUOUS
 62
     7
100
AcDbLine
 10
-116.7168832093
 20
233.2528499004
 30
0.0
 11
-116.4438022694
 21
233.6428499004
 31
0.0
  0
LINE
  5
4B2
330
1F
100
AcDbEntity
  8
0
  6
CONTINUOUS
 62
     7
100
AcDbLine
 10
-116.4438022694
 20
236.8628499004
 30
0.0
 11
-116.7168832093
 21
237.2528499004
 31
0.0
  0
LINE
  5
4B3
330
1F
100
AcDbEntity
  8
0
  6
CONTINUOUS
 62
     7
100
AcDbLine
 10
-139.5366945301
 20
233.2528499004
 30
0.0
 11
-139.2636135902
 21
233.6428499004
 31
0.0
  0
LINE
  5
4B4
330
1F
100
AcDbEntity
  8
0
  6
CONTINUOUS
 62
     7
100
AcDbLine
 10
-139.2636135902
 20
236.8628499004
 30
0.0
 11
-139.5366945301
 21
237.2528499004
 31
0.0
  0
LINE
  5
4B5
330
1F
100
AcDbEntity
  8
0
  6
CONTINUOUS
 62
     7
100
AcDbLine
 10
-132.6216001905
 20
233.2528499004
 30
0.0
 11
-132.3485192506
 21
233.6428499004
 31
0.0
  0
LINE
  5
4B6
330
1F
100
AcDbEntity
  8
0
  6
CONTINUOUS
 62
     7
100
AcDbLine
 10
-132.3485192506
 20
236.8628499004
 30
0.0
 11
-132.6216001905
 21
237.2528499004
 31
0.0
  0
LINE
  5
4B7
330
1F
100
AcDbEntity
  8
0
  6
CONTINUOUS
 62
     7
100
AcDbLine
 10
-120.1744303791
 20
233.2528499004
 30
0.0
 11
-119.9013494392
 21
233.6428499004
 31
0.0
  0
LINE
  5
4B8
330
1F
100
AcDbEntity
  8
0
  6
CONTINUOUS
 62
     7
100
AcDbLine
 10
-119.9013494392
 20
236.8628499004
 30
0.0
 11
-120.1744303791
 21
237.2528499004
 31
0.0
  0
LINE
  5
4B9
330
1F
100
AcDbEntity
  8
0
  6
CONTINUOUS
 62
     7
100
AcDbLine
 10
-124.3234869829
 20
233.2528499004
 30
0.0
 11
-124.050406043
 21
233.6428499004
 31
0.0
  0
LINE
  5
4BA
330
1F
100
AcDbEntity
  8
0
  6
CONTINUOUS
 62
     7
100
AcDbLine
 10
-124.050406043
 20
236.8628499004
 30
0.0
 11
-124.3234869829
 21
237.2528499004
 31
0.0
  0
LINE
  5
4BB
330
1F
100
AcDbEntity
  8
0
  6
CONTINUOUS
 62
     7
100
AcDbLine
 10
-113.9508454735
 20
233.2528499004
 30
0.0
 11
-113.6777645336
 21
233.6428499004
 31
0.0
  0
LINE
  5
4BC
330
1F
100
AcDbEntity
  8
0
  6
CONTINUOUS
 62
     7
100
AcDbLine
 10
-113.6777645336
 20
236.8628499004
 30
0.0
 11
-113.9508454735
 21
237.2528499004
 31
0.0
  0
LINE
  5
4BD
330
1F
100
AcDbEntity
  8
0
  6
CONTINUOUS
 62
     7
100
AcDbLine
 10
-122.248958681
 20
233.2528499004
 30
0.0
 11
-121.9758777411
 21
233.6428499004
 31
0.0
  0
LINE
  5
4BE
330
1F
100
AcDbEntity
  8
0
  6
CONTINUOUS
 62
     7
100
AcDbLine
 10
-121.9758777411
 20
236.8628499004
 30
0.0
 11
-122.248958681
 21
237.2528499004
 31
0.0
  0
LINE
  5
4BF
330
1F
100
AcDbEntity
  8
0
  6
CONTINUOUS
 62
     7
100
AcDbLine
 10
-134.6961284923
 20
233.2528499004
 30
0.0
 11
-134.4230475524
 21
233.6428499004
 31
0.0
  0
LINE
  5
4C0
330
1F
100
AcDbEntity
  8
0
  6
CONTINUOUS
 62
     7
100
AcDbLine
 10
-134.4230475524
 20
236.8628499004
 30
0.0
 11
-134.6961284923
 21
237.2528499004
 31
0.0
  0
LINE
  5
4C1
330
1F
100
AcDbEntity
  8
0
  6
CONTINUOUS
 62
     7
100
AcDbLine
 10
-131.9300907565
 20
233.2528499004
 30
0.0
 11
-131.6570098166
 21
233.6428499004
 31
0.0
  0
LINE
  5
4C2
330
1F
100
AcDbEntity
  8
0
  6
CONTINUOUS
 62
     7
100
AcDbLine
 10
-131.6570098166
 20
236.8628499004
 30
0.0
 11
-131.9300907565
 21
237.2528499004
 31
0.0
  0
LINE
  5
4C3
330
1F
100
AcDbEntity
  8
0
  6
CONTINUOUS
 62
     7
100
AcDbLine
 10
-136.7706567942
 20
233.2528499004
 30
0.0
 11
-136.4975758543
 21
233.6428499004
 31
0.0
  0
LINE
  5
4C4
330
1F
100
AcDbEntity
  8
0
  6
CONTINUOUS
 62
     7
100
AcDbLine
 10
-136.4975758543
 20
236.8628499004
 30
0.0
 11
-136.7706567942
 21
237.2528499004
 31
0.0
  0
LINE
  5
4C5
330
1F
100
AcDbEntity
  8
0
  6
CONTINUOUS
 62
     7
100
AcDbLine
 10
-141.611222832
 20
233.2528499004
 30
0.0
 11
-141.3381418921
 21
233.6428499004
 31
0.0
  0
LINE
  5
4C6
330
1F
100
AcDbEntity
  8
0
  6
CONTINUOUS
 62
     7
100
AcDbLine
 10
-141.3381418921
 20
236.8628499004
 30
0.0
 11
-141.611222832
 21
237.2528499004
 31
0.0
  0
LINE
  5
4C7
330
1F
100
AcDbEntity
  8
0
  6
CONTINUOUS
 62
     7
100
AcDbLine
 10
-143.6857511339
 20
233.2528499004
 30
0.0
 11
-143.412670194
 21
233.6428499004
 31
0.0
  0
LINE
  5
4C8
330
1F
100
AcDbEntity
  8
0
  6
CONTINUOUS
 62
     7
100
AcDbLine
 10
-143.412670194
 20
236.8628499004
 30
0.0
 11
-143.6857511339
 21
237.2528499004
 31
0.0
  0
LINE
  5
4C9
330
1F
100
AcDbEntity
  8
0
  6
CONTINUOUS
 62
     7
100
AcDbLine
 10
-145.7602794357
 20
233.2528499004
 30
0.0
 11
-145.4871984958
 21
233.6428499004
 31
0.0
  0
LINE
  5
4CA
330
1F
100
AcDbEntity
  8
0
  6
CONTINUOUS
 62
     7
100
AcDbLine
 10
-145.4871984958
 20
236.8628499004
 30
0.0
 11
-145.7602794357
 21
237.2528499004
 31
0.0
  0
LINE
  5
4CB
330
1F
100
AcDbEntity
  8
0
  6
CONTINUOUS
 62
     7
100
AcDbLine
 10
-121.5574492471
 20
233.2528499004
 30
0.0
 11
-121.2843683072
 21
233.6428499004
 31
0.0
  0
LINE
  5
4CC
330
1F
100
AcDbEntity
  8
0
  6
CONTINUOUS
 62
     7
100
AcDbLine
 10
-121.2843683072
 20
236.8628499004
 30
0.0
 11
-121.5574492471
 21
237.2528499004
 31
0.0
  0
LINE
  5
4CD
330
1F
100
AcDbEntity
  8
0
  6
CONTINUOUS
 62
     7
100
AcDbLine
 10
-134.0046190584
 20
233.2528499004
 30
0.0
 11
-133.7315381185
 21
233.6428499004
 31
0.0
  0
LINE
  5
4CE
330
1F
100
AcDbEntity
  8
0
  6
CONTINUOUS
 62
     7
100
AcDbLine
 10
-133.7315381185
 20
236.8628499004
 30
0.0
 11
-134.0046190584
 21
237.2528499004
 31
0.0
  0
LINE
  5
4CF
330
1F
100
AcDbEntity
  8
0
  6
CONTINUOUS
 62
     7
100
AcDbLine
 10
-129.1640530206
 20
233.2528499004
 30
0.0
 11
-128.8909720807
 21
233.6428499004
 31
0.0
  0
LINE
  5
4D0
330
1F
100
AcDbEntity
  8
0
  6
CONTINUOUS
 62
     7
100
AcDbLine
 10
-128.8909720807
 20
236.8628499004
 30
0.0
 11
-129.1640530206
 21
237.2528499004
 31
0.0
  0
LINE
  5
4D1
330
1F
100
AcDbEntity
  8
0
  6
CONTINUOUS
 62
     7
100
AcDbLine
 10
-136.0791473603
 20
233.2528499004
 30
0.0
 11
-135.8060664204
 21
233.6428499004
 31
0.0
  0
LINE
  5
4D2
330
1F
100
AcDbEntity
  8
0
  6
CONTINUOUS
 62
     7
100
AcDbLine
 10
-135.8060664204
 20
236.8628499004
 30
0.0
 11
-136.0791473603
 21
237.2528499004
 31
0.0
  0
LINE
  5
4D3
330
1F
100
AcDbEntity
  8
0
  6
CONTINUOUS
 62
     7
100
AcDbLine
 10
-131.2385813225
 20
233.2528499004
 30
0.0
 11
-130.9655003826
 21
233.6428499004
 31
0.0
  0
LINE
  5
4D4
330
1F
100
AcDbEntity
  8
0
  6
CONTINUOUS
 62
     7
100
AcDbLine
 10
-130.9655003826
 20
236.8628499004
 30
0.0
 11
-131.2385813225
 21
237.2528499004
 31
0.0
  0
LINE
  5
4D5
330
1F
100
AcDbEntity
  8
0
  6
CONTINUOUS
 62
     7
100
AcDbLine
 10
-138.8451850961
 20
233.2528499004
 30
0.0
 11
-138.5721041562
 21
233.6428499004
 31
0.0
  0
LINE
  5
4D6
330
1F
100
AcDbEntity
  8
0
  6
CONTINUOUS
 62
     7
100
AcDbLine
 10
-138.5721041562
 20
236.8628499004
 30
0.0
 11
-138.8451850961
 21
237.2528499004
 31
0.0
  0
LINE
  5
4D7
330
1F
100
AcDbEntity
  8
0
  6
CONTINUOUS
 62
     7
100
AcDbLine
 10
-142.9942416999
 20
233.2528499004
 30
0.0
 11
-142.72116076
 21
233.6428499004
 31
0.0
  0
LINE
  5
4D8
330
1F
100
AcDbEntity
  8
0
  6
CONTINUOUS
 62
     7
100
AcDbLine
 10
-142.72116076
 20
236.8628499004
 30
0.0
 11
-142.9942416999
 21
237.2528499004
 31
0.0
  0
LINE
  5
4D9
330
1F
100
AcDbEntity
  8
0
  6
CONTINUOUS
 62
     7
100
AcDbLine
 10
-127.0895247188
 20
233.2528499004
 30
0.0
 11
-126.8164437789
 21
233.6428499004
 31
0.0
  0
LINE
  5
4DA
330
1F
100
AcDbEntity
  8
0
  6
CONTINUOUS
 62
     7
100
AcDbLine
 10
-126.8164437789
 20
236.8628499004
 30
0.0
 11
-127.0895247188
 21
237.2528499004
 31
0.0
  0
LINE
  5
4DB
330
1F
100
AcDbEntity
  8
0
  6
CONTINUOUS
 62
     7
100
AcDbLine
 10
-118.7914115112
 20
233.2528499004
 30
0.0
 11
-118.5183305713
 21
233.6428499004
 31
0.0
  0
LINE
  5
4DC
330
1F
100
AcDbEntity
  8
0
  6
CONTINUOUS
 62
     7
100
AcDbLine
 10
-118.5183305713
 20
236.8628499004
 30
0.0
 11
-118.7914115112
 21
237.2528499004
 31
0.0
  0
LINE
  5
4DD
330
1F
100
AcDbEntity
  8
0
  6
CONTINUOUS
 62
     7
100
AcDbLine
 10
-123.6319775489
 20
233.2528499004
 30
0.0
 11
-123.358896609
 21
233.6428499004
 31
0.0
  0
LINE
  5
4DE
330
1F
100
AcDbEntity
  8
0
  6
CONTINUOUS
 62
     7
100
AcDbLine
 10
-123.358896609
 20
236.8628499004
 30
0.0
 11
-123.6319775489
 21
237.2528499004
 31
0.0
  0
LINE
  5
4DF
330
1F
100
AcDbEntity
  8
0
  6
CONTINUOUS
 62
     7
100
AcDbLine
 10
-113.2593360395
 20
233.2528499004
 30
0.0
 11
-112.9862550996
 21
233.6428499004
 31
0.0
  0
LINE
  5
4E0
330
1F
100
AcDbEntity
  8
0
  6
CONTINUOUS
 62
     7
100
AcDbLine
 10
-112.9862550996
 20
236.8628499004
 30
0.0
 11
-113.2593360395
 21
237.2528499004
 31
0.0
  0
LINE
  5
4E1
330
1F
100
AcDbEntity
  8
0
  6
CONTINUOUS
 62
     7
100
AcDbLine
 10
-140.919713398
 20
233.2528499004
 30
0.0
 11
-140.6466324581
 21
233.6428499004
 31
0.0
  0
LINE
  5
4E2
330
1F
100
AcDbEntity
  8
0
  6
CONTINUOUS
 62
     7
100
AcDbLine
 10
-140.6466324581
 20
236.8628499004
 30
0.0
 11
-140.919713398
 21
237.2528499004
 31
0.0
  0
LINE
  5
4E3
330
1F
100
AcDbEntity
  8
0
  6
CONTINUOUS
 62
     7
100
AcDbLine
 10
-111.1848077376
 20
233.2528499004
 30
0.0
 11
-110.9117267977
 21
233.6428499004
 31
0.0
  0
LINE
  5
4E4
330
1F
100
AcDbEntity
  8
0
  6
CONTINUOUS
 62
     7
100
AcDbLine
 10
-110.9117267977
 20
236.8628499004
 30
0.0
 11
-111.1848077376
 21
237.2528499004
 31
0.0
  0
LINE
  5
4E5
330
1F
100
AcDbEntity
  8
0
  6
CONTINUOUS
 62
     7
100
AcDbLine
 10
-111.8763171716
 20
233.2528499004
 30
0.0
 11
-111.6032362317
 21
233.6428499004
 31
0.0
  0
LINE
  5
4E6
330
1F
100
AcDbEntity
  8
0
  6
CONTINUOUS
 62
     7
100
AcDbLine
 10
-111.6032362317
 20
236.8628499004
 30
0.0
 11
-111.8763171716
 21
237.2528499004
 31
0.0
  0
LINE
  5
4E7
330
1F
100
AcDbEntity
  8
0
  6
CONTINUOUS
 62
     7
100
AcDbLine
 10
-118.0999020772
 20
233.2528499004
 30
0.0
 11
-117.8268211373
 21
233.6428499004
 31
0.0
  0
LINE
  5
4E8
330
1F
100
AcDbEntity
  8
0
  6
CONTINUOUS
 62
     7
100
AcDbLine
 10
-117.8268211373
 20
236.8628499004
 30
0.0
 11
-118.0999020772
 21
237.2528499004
 31
0.0
  0
LINE
  5
4E9
330
1F
100
AcDbEntity
  8
0
  6
CONTINUOUS
 62
     7
100
AcDbLine
 10
-126.3980152848
 20
233.2528499004
 30
0.0
 11
-126.1249343449
 21
233.6428499004
 31
0.0
  0
LINE
  5
4EA
330
1F
100
AcDbEntity
  8
0
  6
CONTINUOUS
 62
     7
100
AcDbLine
 10
-126.1249343449
 20
236.8628499004
 30
0.0
 11
-126.3980152848
 21
237.2528499004
 31
0.0
  0
LINE
  5
4EB
330
1F
100
AcDbEntity
  8
0
  6
CONTINUOUS
 62
     7
100
AcDbLine
 10
-110.4932983037
 20
233.2528499004
 30
0.0
 11
-110.2202173638
 21
233.6428499004
 31
0.0
  0
LINE
  5
4EC
330
1F
100
AcDbEntity
  8
0
  6
CONTINUOUS
 62
     7
100
AcDbLine
 10
-110.2202173638
 20
236.8628499004
 30
0.0
 11
-110.4932983037
 21
237.2528499004
 31
0.0
  0
LINE
  5
4ED
330
1F
100
AcDbEntity
  8
0
  6
CONTINUOUS
 62
     7
100
AcDbLine
 10
-145.7602794357
 20
237.2528499004
 30
0.0
 11
-145.7887069298
 21
237.2528499004
 31
0.0
  0
LINE
  5
4EE
330
1F
100
AcDbEntity
  8
0
  6
CONTINUOUS
 62
     7
100
AcDbLine
 10
-145.7887069298
 20
233.2528499004
 30
0.0
 11
-145.7602794357
 21
233.2528499004
 31
0.0
  0
LINE
  5
4EF
330
1F
100
AcDbEntity
  8
0
  6
CONTINUOUS
 62
     7
100
AcDbLine
 10
-122.940468115
 20
233.2528499004
 30
0.0
 11
-122.6673871751
 21
233.6428499004
 31
0.0
  0
LINE
  5
4F0
330
1F
100
AcDbEntity
  8
0
  6
CONTINUOUS
 62
     7
100
AcDbLine
 10
-122.6673871751
 20
236.8628499004
 30
0.0
 11
-122.940468115
 21
237.2528499004
 31
0.0
  0
LINE
  5
4F1
330
1F
100
AcDbEntity
  8
0
  6
CONTINUOUS
 62
     7
100
AcDbLine
 10
-127.7810341527
 20
233.2528499004
 30
0.0
 11
-127.5079532128
 21
233.6428499004
 31
0.0
  0
LINE
  5
4F2
330
1F
100
AcDbEntity
  8
0
  6
CONTINUOUS
 62
     7
100
AcDbLine
 10
-127.5079532128
 20
236.8628499004
 30
0.0
 11
-127.7810341527
 21
237.2528499004
 31
0.0
  0
LINE
  5
4F3
330
1F
100
AcDbEntity
  8
0
  6
CONTINUOUS
 62
     7
100
AcDbLine
 10
-120.8659398131
 20
233.2528499004
 30
0.0
 11
-120.5928588732
 21
233.6428499004
 31
0.0
  0
LINE
  5
4F4
330
1F
100
AcDbEntity
  8
0
  6
CONTINUOUS
 62
     7
100
AcDbLine
 10
-120.5928588732
 20
236.8628499004
 30
0.0
 11
-120.8659398131
 21
237.2528499004
 31
0.0
  0
LINE
  5
4F5
330
1F
100
AcDbEntity
  8
0
  6
CONTINUOUS
 62
     7
100
AcDbLine
 10
-112.5678266056
 20
233.2528499004
 30
0.0
 11
-112.2947456656
 21
233.6428499004
 31
0.0
  0
LINE
  5
4F6
330
1F
100
AcDbEntity
  8
0
  6
CONTINUOUS
 62
     7
100
AcDbLine
 10
-112.2947456656
 20
236.8628499004
 30
0.0
 11
-112.5678266056
 21
237.2528499004
 31
0.0
  0
LINE
  5
4F7
330
1F
100
AcDbEntity
  8
0
  6
CONTINUOUS
 62
     7
100
AcDbLine
 10
-133.3131096244
 20
233.2528499004
 30
0.0
 11
-133.0400286845
 21
233.6428499004
 31
0.0
  0
LINE
  5
4F8
330
1F
100
AcDbEntity
  8
0
  6
CONTINUOUS
 62
     7
100
AcDbLine
 10
-133.0400286845
 20
236.8628499004
 30
0.0
 11
-133.3131096244
 21
237.2528499004
 31
0.0
  0
LINE
  5
4F9
330
1F
100
AcDbEntity
  8
0
  6
CONTINUOUS
 62
     7
100
AcDbLine
 10
-138.1536756622
 20
233.2528499004
 30
0.0
 11
-137.8805947223
 21
233.6428499004
 31
0.0
  0
LINE
  5
4FA
330
1F
100
AcDbEntity
  8
0
  6
CONTINUOUS
 62
     7
100
AcDbLine
 10
-137.8805947223
 20
236.8628499004
 30
0.0
 11
-138.1536756622
 21
237.2528499004
 31
0.0
  0
LINE
  5
4FB
330
1F
100
AcDbEntity
  8
0
  6
CONTINUOUS
 62
     7
100
AcDbLine
 10
-145.0687700018
 20
233.2528499004
 30
0.0
 11
-144.7956890619
 21
233.6428499004
 31
0.0
  0
LINE
  5
4FC
330
1F
100
AcDbEntity
  8
0
  6
CONTINUOUS
 62
     7
100
AcDbLine
 10
-144.7956890619
 20
236.8628499004
 30
0.0
 11
-145.0687700018
 21
237.2528499004
 31
0.0
  0
LINE
  5
4FD
330
1F
100
AcDbEntity
  8
0
  6
CONTINUOUS
 62
     7
100
AcDbLine
 10
-137.4621662282
 20
233.2528499004
 30
0.0
 11
-137.1890852883
 21
233.6428499004
 31
0.0
  0
LINE
  5
4FE
330
1F
100
AcDbEntity
  8
0
  6
CONTINUOUS
 62
     7
100
AcDbLine
 10
-137.1890852883
 20
236.8628499004
 30
0.0
 11
-137.4621662282
 21
237.2528499004
 31
0.0
  0
LINE
  5
4FF
330
1F
100
AcDbEntity
  8
0
  6
CONTINUOUS
 62
     7
100
AcDbLine
 10
-116.0253737754
 20
233.2528499004
 30
0.0
 11
-115.7522928355
 21
233.6428499004
 31
0.0
  0
LINE
  5
500
330
1F
100
AcDbEntity
  8
0
  6
CONTINUOUS
 62
     7
100
AcDbLine
 10
-115.7522928355
 20
236.8628499004
 30
0.0
 11
-116.0253737754
 21
237.2528499004
 31
0.0
  0
LINE
  5
501
330
1F
100
AcDbEntity
  8
0
  6
CONTINUOUS
 62
     7
100
AcDbLine
 10
-135.3876379263
 20
233.2528499004
 30
0.0
 11
-135.1145569864
 21
233.6428499004
 31
0.0
  0
LINE
  5
502
330
1F
100
AcDbEntity
  8
0
  6
CONTINUOUS
 62
     7
100
AcDbLine
 10
-135.1145569864
 20
236.8628499004
 30
0.0
 11
-135.3876379263
 21
237.2528499004
 31
0.0
  0
LINE
  5
503
330
1F
100
AcDbEntity
  8
0
  6
CONTINUOUS
 62
     7
100
AcDbLine
 10
-130.5470718886
 20
233.2528499004
 30
0.0
 11
-130.2739909487
 21
233.6428499004
 31
0.0
  0
LINE
  5
504
330
1F
100
AcDbEntity
  8
0
  6
CONTINUOUS
 62
     7
100
AcDbLine
 10
-130.2739909487
 20
236.8628499004
 30
0.0
 11
-130.5470718886
 21
237.2528499004
 31
0.0
  0
LINE
  5
505
330
1F
100
AcDbEntity
  8
0
  6
CONTINUOUS
 62
     7
100
AcDbLine
 10
-142.3027322659
 20
233.2528499004
 30
0.0
 11
-142.029651326
 21
233.6428499004
 31
0.0
  0
LINE
  5
506
330
1F
100
AcDbEntity
  8
0
  6
CONTINUOUS
 62
     7
100
AcDbLine
 10
-142.029651326
 20
236.8628499004
 30
0.0
 11
-142.3027322659
 21
237.2528499004
 31
0.0
  0
LINE
  5
507
330
1F
100
AcDbEntity
  8
0
  6
CONTINUOUS
 62
     7
100
AcDbLine
 10
-115.3338643414
 20
233.2528499004
 30
0.0
 11
-115.0607834015
 21
233.6428499004
 31
0.0
  0
LINE
  5
508
330
1F
100
AcDbEntity
  8
0
  6
CONTINUOUS
 62
     7
100
AcDbLine
 10
-115.0607834015
 20
236.8628499004
 30
0.0
 11
-115.3338643414
 21
237.2528499004
 31
0.0
  0
LINE
  5
509
330
1F
100
AcDbEntity
  8
0
  6
CONTINUOUS
 62
     7
100
AcDbLine
 10
-128.4725435867
 20
233.2528499004
 30
0.0
 11
-128.1994626468
 21
233.6428499004
 31
0.0
  0
LINE
  5
50A
330
1F
100
AcDbEntity
  8
0
  6
CONTINUOUS
 62
     7
100
AcDbLine
 10
-128.1994626468
 20
236.8628499004
 30
0.0
 11
-128.4725435867
 21
237.2528499004
 31
0.0
  0
LINE
  5
50B
330
1F
100
AcDbEntity
  8
0
  6
CONTINUOUS
 62
     7
100
AcDbLine
 10
-125.7065058508
 20
233.2528499004
 30
0.0
 11
-125.4334249109
 21
233.6428499004
 31
0.0
  0
LINE
  5
50C
330
1F
100
AcDbEntity
  8
0
  6
CONTINUOUS
 62
     7
100
AcDbLine
 10
-125.4334249109
 20
236.8628499004
 30
0.0
 11
-125.7065058508
 21
237.2528499004
 31
0.0
  0
LINE
  5
50D
330
1F
100
AcDbEntity
  8
0
  6
CONTINUOUS
 62
     7
100
AcDbLine
 10
-117.4083926433
 20
233.2528499004
 30
0.0
 11
-117.1353117034
 21
233.6428499004
 31
0.0
  0
LINE
  5
50E
330
1F
100
AcDbEntity
  8
0
  6
CONTINUOUS
 62
     7
100
AcDbLine
 10
-117.1353117034
 20
236.8628499004
 30
0.0
 11
-117.4083926433
 21
237.2528499004
 31
0.0
  0
LINE
  5
50F
330
1F
100
AcDbEntity
  8
0
  6
CONTINUOUS
 62
     7
100
AcDbLine
 10
-140.228203964
 20
233.2528499004
 30
0.0
 11
-139.9551230241
 21
233.6428499004
 31
0.0
  0
LINE
  5
510
330
1F
100
AcDbEntity
  8
0
  6
CONTINUOUS
 62
     7
100
AcDbLine
 10
-139.9551230241
 20
236.8628499004
 30
0.0
 11
-140.228203964
 21
237.2528499004
 31
0.0
  0
LINE
  5
511
330
1F
100
AcDbEntity
  8
0
  6
CONTINUOUS
 62
     7
100
AcDbLine
 10
-145.7887069298
 20
237.2528499004
 30
0.0
 11
-146.1787069298
 21
236.8628499004
 31
0.0
  0
LINE
  5
512
330
1F
100
AcDbEntity
  8
0
  6
CONTINUOUS
 62
     7
100
AcDbLine
 10
-146.1787069298
 20
233.6428499004
 30
0.0
 11
-145.7887069298
 21
233.2528499004
 31
0.0
  0
LINE
  5
513
330
1F
100
AcDbEntity
  8
0
  6
CONTINUOUS
 62
     7
100
AcDbLine
 10
-114.9287069298
 20
260.7528499004
 30
0.0
 11
-115.1787069298
 21
260.5028499004
 31
0.0
  0
LINE
  5
514
330
1F
100
AcDbEntity
  8
0
  6
CONTINUOUS
 62
     7
100
AcDbLine
 10
-115.1787069298
 20
248.0028499004
 30
0.0
 11
-114.9287069298
 21
247.7528499004
 31
0.0
  0
LINE
  5
515
330
1F
100
AcDbEntity
  8
0
  6
CONTINUOUS
 62
     7
100
AcDbLine
 10
-114.9287069298
 20
247.7528499004
 30
0.0
 11
-109.1787069298
 21
247.7528499004
 31
0.0
  0
LINE
  5
516
330
1F
100
AcDbEntity
  8
0
  6
CONTINUOUS
 62
     7
100
AcDbLine
 10
-109.1787069298
 20
260.7528499004
 30
0.0
 11
-114.9287069298
 21
260.7528499004
 31
0.0
  0
LINE
  5
517
330
1F
100
AcDbEntity
  8
0
  6
CONTINUOUS
 62
     7
100
AcDbLine
 10
-158.4287069298
 20
260.7528499004
 30
0.0
 11
-164.1787069298
 21
260.7528499004
 31
0.0
  0
LINE
  5
518
330
1F
100
AcDbEntity
  8
0
  6
CONTINUOUS
 62
     7
100
AcDbLine
 10
-164.1787069298
 20
247.7528499004
 30
0.0
 11
-158.4287069298
 21
247.7528499004
 31
0.0
  0
LINE
  5
519
330
1F
100
AcDbEntity
  8
0
  6
CONTINUOUS
 62
     7
100
AcDbLine
 10
-158.4287069298
 20
247.7528499004
 30
0.0
 11
-158.1787069298
 21
248.0028499004
 31
0.0
  0
LINE
  5
51A
330
1F
100
AcDbEntity
  8
0
  6
CONTINUOUS
 62
     7
100
AcDbLine
 10
-158.1787069298
 20
260.5028499004
 30
0.0
 11
-158.4287069298
 21
260.7528499004
 31
0.0
  0
LINE
  5
51B
330
1F
100
AcDbEntity
  8
0
  6
CONTINUOUS
 62
     7
100
AcDbLine
 10
-167.1787069298
 20
260.2528499004
 30
0.0
 11
-168.1787069298
 21
260.2528499004
 31
0.0
  0
LINE
  5
51C
330
1F
100
AcDbEntity
  8
0
  6
CONTINUOUS
 62
     7
100
AcDbLine
 10
-168.1787069298
 20
248.2528499004
 30
0.0
 11
-167.1787069298
 21
248.2528499004
 31
0.0
  0
LINE
  5
51D
330
1F
100
AcDbEntity
  8
0
  6
CONTINUOUS
 62
     7
100
AcDbLine
 10
-106.1787069298
 20
248.2528499004
 30
0.0
 11
-105.1787069298
 21
248.2528499004
 31
0.0
  0
LINE
  5
51E
330
1F
100
AcDbEntity
  8
0
  6
CONTINUOUS
 62
     7
100
AcDbLine
 10
-105.1787069298
 20
260.2528499004
 30
0.0
 11
-106.1787069298
 21
260.2528499004
 31
0.0
  0
LWPOLYLINE
  5
51F
330
1F
100
AcDbEntity
  8
0
  6
CONTINUOUS
 62
     7
100
AcDbPolyline
 90
        4
 70
   128
 43
0.0
 10
-96.6787069298
 20
266.5415911466
 10
-95.9326372683
 20
266.5416806034
 10
-95.2334459075
 20
266.5419433526
 10
-94.9211709115
 20
266.542130951
  0
LWPOLYLINE
  5
520
330
1F
100
AcDbEntity
  8
0
  6
CONTINUOUS
 62
     7
100
AcDbPolyline
 90
        4
 70
   128
 43
0.0
 10
-98.4161418366
 20
266.5421172786
 10
-98.1239679521
 20
266.5419433526
 10
-97.4247765913
 20
266.5416806034
 10
-96.6787069298
 20
266.5415911466
  0
LWPOLYLINE
  5
521
330
1F
100
AcDbEntity
  8
0
  6
CONTINUOUS
 62
     7
100
AcDbPolyline
 90
        6
 70
   128
 43
0.0
 10
-96.6787069298
 20
266.9303823485
 10
-96.0189189259
 20
266.9304684218
 10
-95.40806438
 20
266.930720258
 10
-94.8914475792
 20
266.9311191796
 10
-94.5073836282
 20
266.9316356003
 10
-94.4829219939
 20
266.9316816535
  0
LWPOLYLINE
  5
522
330
1F
100
AcDbEntity
  8
0
  6
CONTINUOUS
 62
     7
100
AcDbPolyline
 90
        6
 70
   128
 43
0.0
 10
-98.8744912275
 20
266.9316816522
 10
-98.8500302314
 20
266.9316356003
 10
-98.4659662804
 20
266.9311191796
 10
-97.9493494796
 20
266.930720258
 10
-97.3384949337
 20
266.9304684218
 10
-96.6787069298
 20
266.9303823485
  0
LWPOLYLINE
  5
523
330
1F
100
AcDbEntity
  8
0
  6
CONTINUOUS
 62
     7
100
AcDbPolyline
 90
        3
 70
   128
 43
0.0
 10
-96.6787069298
 20
266.4631449109
 10
-95.9326372683
 20
266.4632343676
 10
-95.3555986819
 20
266.463436801
  0
LWPOLYLINE
  5
524
330
1F
100
AcDbEntity
  8
0
  6
CONTINUOUS
 62
     7
100
AcDbPolyline
 90
        3
 70
   128
 43
0.0
 10
-98.0018151777
 20
266.463436801
 10
-97.4247765913
 20
266.4632343676
 10
-96.6787069298
 20
266.4631449109
  0
ARC
  5
525
330
1F
100
AcDbEntity
  8
0
  6
CONTINUOUS
 62
     7
100
AcDbCircle
 10
-95.8273054107
 20
491.531430799
 30
0.0
 40
224.3021680549278
100
AcDbArc
 50
269.1636275706
 51
270.4072327118
  0
LWPOLYLINE
  5
526
330
1F
100
AcDbEntity
  8
0
  6
CONTINUOUS
 62
     7
100
AcDbPolyline
 90
        6
 70
   128
 43
0.0
 10
-96.6787069298
 20
267.105608071
 10
-97.3765058653
 20
267.1056952654
 10
-98.0267509566
 20
267.1059509065
 10
-98.5851290752
 20
267.1063575727
 10
-99.013587675
 20
267.1068875504
 10
-99.1935240443
 20
267.1072445648
  0
LWPOLYLINE
  5
527
330
1F
100
AcDbEntity
  8
0
  6
CONTINUOUS
 62
     7
100
AcDbPolyline
 90
        6
 70
   128
 43
0.0
 10
-94.1485577265
 20
267.1072831406
 10
-94.3438261846
 20
267.1068875504
 10
-94.7722847845
 20
267.1063575727
 10
-95.330662903
 20
267.1059509065
 10
-95.9809079943
 20
267.1056952654
 10
-96.6787069298
 20
267.105608071
  0
LINE
  5
528
330
1F
100
AcDbEntity
  8
0
  6
CONTINUOUS
 62
     7
100
AcDbLine
 10
-97.5447323336
 20
267.2542677514
 30
0.0
 11
-98.4107577374
 21
267.2528440448
 31
0.0
  0
LINE
  5
529
330
1F
100
AcDbEntity
  8
0
  6
CONTINUOUS
 62
     7
100
AcDbLine
 10
-97.5447323336
 20
267.2514203383
 30
0.0
 11
-98.4107577374
 21
267.2528440448
 31
0.0
  0
LINE
  5
52A
330
1F
100
AcDbEntity
  8
0
  6
CONTINUOUS
 62
     7
100
AcDbLine
 10
-95.812681526
 20
267.2514203383
 30
0.0
 11
-97.5447323336
 21
267.2514203383
 31
0.0
  0
LINE
  5
52B
330
1F
100
AcDbEntity
  8
0
  6
CONTINUOUS
 62
     7
100
AcDbLine
 10
-95.812681526
 20
267.2514203383
 30
0.0
 11
-94.9466561222
 21
267.2528440448
 31
0.0
  0
LINE
  5
52C
330
1F
100
AcDbEntity
  8
0
  6
CONTINUOUS
 62
     7
100
AcDbLine
 10
-95.812681526
 20
267.2542677514
 30
0.0
 11
-94.9466561222
 21
267.2528440448
 31
0.0
  0
LINE
  5
52D
330
1F
100
AcDbEntity
  8
0
  6
CONTINUOUS
 62
     7
100
AcDbLine
 10
-95.812681526
 20
267.2542677514
 30
0.0
 11
-97.5447323336
 21
267.2542677514
 31
0.0
  0
LINE
  5
52E
330
1F
100
AcDbEntity
  8
0
  6
CONTINUOUS
 62
     7
100
AcDbLine
 10
-95.812681526
 20
267.2514203383
 30
0.0
 11
-95.812681526
 21
267.2542677514
 31
0.0
  0
LINE
  5
52F
330
1F
100
AcDbEntity
  8
0
  6
CONTINUOUS
 62
     7
100
AcDbLine
 10
-97.5447323336
 20
267.2514203383
 30
0.0
 11
-97.5447323336
 21
267.2542677514
 31
0.0
  0
LWPOLYLINE
  5
530
330
1F
100
AcDbEntity
  8
0
  6
CONTINUOUS
 62
     7
100
AcDbPolyline
 90
        7
 70
   128
 43
0.0
 10
-178.4298909269
 20
266.5421266047
 10
-178.3556172267
 20
266.5420775195
 10
-177.6843021355
 20
266.5417558764
 10
-176.9498017992
 20
266.5416027962
 10
-176.1982675752
 20
266.5416278975
 10
-175.4769211228
 20
266.5418296029
 10
-174.919561594
 20
266.542132056
  0
LWPOLYLINE
  5
531
330
1F
100
AcDbEntity
  8
0
  6
CONTINUOUS
 62
     7
100
AcDbPolyline
 90
       10
 70
   128
 43
0.0
 10
-178.8922117491
 20
266.9317166963
 10
-178.7185336425
 20
266.9314231567
 10
-178.2789578676
 20
266.9309482869
 10
-177.7206988013
 20
266.9306035905
 10
-177.0851599647
 20
266.9304146322
 10
-176.4194763658
 20
266.9303954262
 10
-175.773018712
 20
266.9305473968
 10
-175.1937318101
 20
266.9308592731
 10
-174.7245787195
 20
266.9313079247
 10
-174.4829219939
 20
266.9316816535
  0
LWPOLYLINE
  5
532
330
1F
100
AcDbEntity
  8
0
  6
CONTINUOUS
 62
     7
100
AcDbPolyline
 90
        6
 70
   128
 43
0.0
 10
-178.0018151777
 20
266.463436801
 10
-177.6843021355
 20
266.4633096407
 10
-176.9498017992
 20
266.4631565605
 10
-176.1982675752
 20
266.4631816617
 10
-175.4769211228
 20
266.4633833672
 10
-175.3555986819
 20
266.463436801
  0
LWPOLYLINE
  5
533
330
1F
100
AcDbEntity
  8
0
  6
CONTINUOUS
 62
     7
100
AcDbPolyline
 90
       24
 70
   128
 43
0.0
 10
-178.4014235191
 20
267.2511966092
 10
-177.8692493385
 20
267.2508165572
 10
-177.2487780738
 20
267.2505868746
 10
-176.5860272403
 20
267.2505245961
 10
-175.9301500353
 20
267.2506343404
 10
-175.3297898708
 20
267.2509079684
 10
-174.8294727137
 20
267.2513251864
 10
-174.4663047987
 20
267.2518550511
 10
-174.2672206287
 20
267.2524582649
 10
-174.2469853658
 20
267.2530900903
 10
-174.407099767
 20
267.2537036676
 10
-174.7356888795
 20
267.2542534907
 10
-175.2083827521
 20
267.2546987816
 10
-175.7901238426
 20
267.2550065151
 10
-176.4377670758
 20
267.2551538681
 10
-177.1032797156
 20
267.2551299121
 10
-177.7373037343
 20
267.2549364238
 10
-178.2928164707
 20
267.2545877533
 10
-178.7286180865
 20
267.2541097599
 10
-179.0123871696
 20
267.2535378942
 10
-179.1230778651
 20
267.2529145689
 10
-179.0524807507
 20
267.2522860131
 10
-178.8058316912
 20
267.251698844
 10
-178.4014235191
 20
267.2511966092
  0
LWPOLYLINE
  5
534
330
1F
100
AcDbEntity
  8
0
  6
CONTINUOUS
 62
     7
100
AcDbPolyline
 90
       11
 70
   128
 43
0.0
 10
-174.1160094802
 20
267.1073720894
 10
-174.3387748795
 20
267.1068958907
 10
-174.7651312983
 20
267.1063643879
 10
-175.3218947341
 20
267.1059557322
 10
-175.9711226788
 20
267.1056977728
 10
-176.6685713209
 20
267.1056080891
 10
-177.3667106879
 20
267.105692793
 10
-178.0179637358
 20
267.1059461121
 10
-178.5779486456
 20
267.1063507831
 10
-179.0085033712
 20
267.1068792282
 10
-179.1919141265
 20
267.1072406207
  0
LINE
  5
535
330
1F
100
AcDbEntity
  8
0
  6
CONTINUOUS
 62
     7
100
AcDbLine
 10
-175.0040008626
 20
267.2524245307
 30
0.0
 11
-175.4585749896
 21
267.2540108582
 31
0.0
  0
LINE
  5
536
330
1F
100
AcDbEntity
  8
0
  6
CONTINUOUS
 62
     7
100
AcDbLine
 10
-177.1332810568
 20
267.2544303723
 30
0.0
 11
-175.4585749896
 21
267.2540108582
 31
0.0
  0
LINE
  5
537
330
1F
100
AcDbEntity
  8
0
  6
CONTINUOUS
 62
     7
100
AcDbLine
 10
-178.353412997
 20
267.2532635589
 30
0.0
 11
-177.1332810568
 21
267.2544303723
 31
0.0
  0
LINE
  5
538
330
1F
100
AcDbEntity
  8
0
  6
CONTINUOUS
 62
     7
100
AcDbLine
 10
-178.353412997
 20
267.2532635589
 30
0.0
 11
-177.89883887
 21
267.2516772314
 31
0.0
  0
LINE
  5
539
330
1F
100
AcDbEntity
  8
0
  6
CONTINUOUS
 62
     7
100
AcDbLine
 10
-176.2241328028
 20
267.2512577173
 30
0.0
 11
-177.89883887
 21
267.2516772314
 31
0.0
  0
LINE
  5
53A
330
1F
100
AcDbEntity
  8
0
  6
CONTINUOUS
 62
     7
100
AcDbLine
 10
-176.2241328028
 20
267.2512577173
 30
0.0
 11
-175.0040008626
 21
267.2524245307
 31
0.0
  0
LINE
  5
53B
330
1F
100
AcDbEntity
  8
0
  6
CONTINUOUS
 62
     7
100
AcDbLine
 10
-175.4585749896
 20
267.251989821
 30
0.0
 11
-175.4585749896
 21
267.2540108582
 31
0.0
  0
LINE
  5
53C
330
1F
100
AcDbEntity
  8
0
  6
CONTINUOUS
 62
     7
100
AcDbLine
 10
-177.1332810568
 20
267.2514854591
 30
0.0
 11
-177.1332810568
 21
267.2544303723
 31
0.0
  0
LINE
  5
53D
330
1F
100
AcDbEntity
  8
0
  6
CONTINUOUS
 62
     7
100
AcDbLine
 10
-99.5169381993
 20
267.2528499004
 30
0.0
 11
-99.1242000922
 21
267.2528499004
 31
0.0
  0
LINE
  5
53E
330
1F
100
AcDbEntity
  8
0
  6
CONTINUOUS
 62
     7
100
AcDbLine
 10
-127.6787069298
 20
258.249051548
 30
0.0
 11
-127.6787069298
 21
258.2566446495
 31
0.0
  0
ELLIPSE
  5
53F
330
1F
100
AcDbEntity
  8
0
  6
CONTINUOUS
 62
     7
100
AcDbEllipse
 10
-124.6787069298
 20
262.2604393985
 30
0.0
 11
2.970068635477219E-12
 21
5.004743436288095
 31
0.0
210
0.0
220
0.0
230
1.0
 40
0.9990522119
 41
2.49809154479711
 42
3.141592653590401
  0
LINE
  5
540
330
1F
100
AcDbEntity
  8
0
  6
CONTINUOUS
 62
     7
100
AcDbLine
 10
-124.6787069298
 20
257.2556959622
 30
0.0
 11
-124.6787069298
 21
257.2500011361
 31
0.0
  0
ELLIPSE
  5
541
330
1F
100
AcDbEntity
  8
0
  6
CONTINUOUS
 62
     7
100
AcDbEllipse
 10
-124.6787069298
 20
262.2452531955
 30
0.0
 11
5.0
 21
-2.955857780762017E-12
 31
0.0
210
0.0
220
0.0
230
1.0
 40
0.9990504119
 41
4.068887871592006
 42
4.712388980385297
  0
LINE
  5
542
330
1F
100
AcDbEntity
  8
0
  6
CONTINUOUS
 62
     7
100
AcDbLine
 10
-127.6787069298
 20
250.2490551514
 30
0.0
 11
-127.6787069298
 21
258.249051548
 31
0.0
  0
LINE
  5
543
330
1F
100
AcDbEntity
  8
0
  6
CONTINUOUS
 62
     7
100
AcDbLine
 10
-124.6787069298
 20
257.2500011361
 30
0.0
 11
-124.6787069298
 21
251.2500038387
 31
0.0
  0
ELLIPSE
  5
544
330
1F
100
AcDbEntity
  8
0
  6
CONTINUOUS
 62
     7
100
AcDbEllipse
 10
-124.6787069298
 20
246.2452604024
 30
0.0
 11
2.984279490192421E-12
 21
5.004743436288095
 31
0.0
210
0.0
220
0.0
230
1.0
 40
0.9990522119
 41
0.0
 42
0.6435011087938787
  0
LINE
  5
545
330
1F
100
AcDbEntity
  8
0
  6
CONTINUOUS
 62
     7
100
AcDbLine
 10
-145.6787069298
 20
258.249051548
 30
0.0
 11
-127.6787069298
 21
258.249051548
 31
0.0
  0
LINE
  5
546
330
1F
100
AcDbEntity
  8
0
  6
CONTINUOUS
 62
     7
100
AcDbLine
 10
-145.6787069298
 20
258.249051548
 30
0.0
 11
-145.6787069298
 21
258.2566446495
 31
0.0
  0
LINE
  5
547
330
1F
100
AcDbEntity
  8
0
  6
CONTINUOUS
 62
     7
100
AcDbLine
 10
-145.6787069298
 20
258.2566446495
 30
0.0
 11
-127.6787069298
 21
258.2566446495
 31
0.0
  0
LINE
  5
548
330
1F
100
AcDbEntity
  8
0
  6
CONTINUOUS
 62
     7
100
AcDbLine
 10
-145.6787069298
 20
250.2490551514
 30
0.0
 11
-127.6787069298
 21
250.2490551514
 31
0.0
  0
LINE
  5
549
330
1F
100
AcDbEntity
  8
0
  6
CONTINUOUS
 62
     7
100
AcDbLine
 10
-145.6787069298
 20
250.2490551514
 30
0.0
 11
-145.6787069298
 21
258.249051548
 31
0.0
  0
LINE
  5
54A
330
1F
100
AcDbEntity
  8
0
  6
CONTINUOUS
 62
     7
100
AcDbLine
 10
-148.6787069298
 20
257.2500011361
 30
0.0
 11
-148.6787069298
 21
257.2556959622
 31
0.0
  0
ELLIPSE
  5
54B
330
1F
100
AcDbEntity
  8
0
  6
CONTINUOUS
 62
     7
100
AcDbEllipse
 10
-148.6787069298
 20
262.2604393985
 30
0.0
 11
2.984279490192421E-12
 21
5.004743436288095
 31
0.0
210
0.0
220
0.0
230
1.0
 40
0.9990522119
 41
3.141592653590404
 42
3.785093762383688
  0
ELLIPSE
  5
54C
330
1F
100
AcDbEntity
  8
0
  6
CONTINUOUS
 62
     7
100
AcDbEllipse
 10
-148.6787069298
 20
262.2452531955
 30
0.0
 11
5.0
 21
-2.955857780762017E-12
 31
0.0
210
0.0
220
0.0
230
1.0
 40
0.9990504119
 41
4.712388980385295
 42
5.355890089178577
  0
ELLIPSE
  5
54D
330
1F
100
AcDbEntity
  8
0
  6
CONTINUOUS
 62
     7
100
AcDbEllipse
 10
-148.6787069298
 20
246.2452604024
 30
0.0
 11
2.984279490192421E-12
 21
5.004743436288095
 31
0.0
210
0.0
220
0.0
230
1.0
 40
0.9990522119
 41
5.639684198386924
 42
6.283185307179586
  0
LINE
  5
54E
330
1F
100
AcDbEntity
  8
0
  6
CONTINUOUS
 62
     7
100
AcDbLine
 10
-148.6787069298
 20
251.2500038387
 30
0.0
 11
-148.6787069298
 21
257.2500011361
 31
0.0
  0
LINE
  5
54F
330
1F
100
AcDbEntity
  8
0
  6
CONTINUOUS
 62
     7
100
AcDbLine
 10
-115.1787069298
 20
257.2500011361
 30
0.0
 11
-124.6787069298
 21
257.2500011361
 31
0.0
  0
LINE
  5
550
330
1F
100
AcDbEntity
  8
0
  6
CONTINUOUS
 62
     7
100
AcDbLine
 10
-115.1787069298
 20
251.2500038387
 30
0.0
 11
-124.6787069298
 21
251.2500038387
 31
0.0
  0
LINE
  5
551
330
1F
100
AcDbEntity
  8
0
  6
CONTINUOUS
 62
     7
100
AcDbLine
 10
-115.1787069298
 20
257.2556959622
 30
0.0
 11
-124.6787069298
 21
257.2556959622
 31
0.0
  0
LINE
  5
552
330
1F
100
AcDbEntity
  8
0
  6
CONTINUOUS
 62
     7
100
AcDbLine
 10
-148.6787069298
 20
251.2500038387
 30
0.0
 11
-158.1787069298
 21
251.2500038387
 31
0.0
  0
LINE
  5
553
330
1F
100
AcDbEntity
  8
0
  6
CONTINUOUS
 62
     7
100
AcDbLine
 10
-148.6787069298
 20
257.2500011361
 30
0.0
 11
-158.1787069298
 21
257.2500011361
 31
0.0
  0
LINE
  5
554
330
1F
100
AcDbEntity
  8
0
  6
CONTINUOUS
 62
     7
100
AcDbLine
 10
-148.6787069298
 20
257.2556959622
 30
0.0
 11
-158.1787069298
 21
257.2556959622
 31
0.0
  0
ARC
  5
555
330
1F
100
AcDbEntity
  8
0
  6
CONTINUOUS
 62
     7
100
AcDbCircle
 10
-208.1787048912
 20
364.2527978873
 30
0.0
 40
9.99999796137296
100
AcDbArc
 50
0.0000141273
 51
90.0000116805
  0
LWPOLYLINE
  5
556
330
1F
100
AcDbEntity
  8
0
  6
CONTINUOUS
 62
     7
100
AcDbPolyline
 90
        9
 70
   128
 43
0.0
 10
-198.1787069298
 20
364.252800353
 10
-198.2747805278
 20
364.2518745151
 10
-198.5593092672
 20
364.2509842567
 10
-199.0213588683
 20
364.2501637898
 10
-199.6431730239
 20
364.2494446445
 10
-200.4008557647
 20
364.2488544573
 10
-201.265289768
 20
364.2484159086
 10
-202.2032553197
 20
364.2481458516
 10
-203.1787069298
 20
364.2480546645
  0
ARC
  5
557
330
1F
100
AcDbEntity
  8
0
  6
CONTINUOUS
 62
     7
100
AcDbCircle
 10
-208.1787058037
 20
364.2480535385
 30
0.0
 40
4.999998873922165
100
AcDbArc
 50
0.0000129039
 51
90.0000129039
  0
LINE
  5
558
330
1F
100
AcDbEntity
  8
0
  6
CONTINUOUS
 62
     7
100
AcDbLine
 10
-208.1787069298
 20
374.2527958487
 30
0.0
 11
-208.1787069298
 21
369.2480524124
 31
0.0
  0
LINE
  5
559
330
1F
100
AcDbEntity
  8
0
  6
CONTINUOUS
 62
     7
100
AcDbLine
 10
-208.1787069298
 20
374.2527958487
 30
0.0
 11
-218.1787069298
 21
374.2527958487
 31
0.0
  0
LINE
  5
55A
330
1F
100
AcDbEntity
  8
0
  6
CONTINUOUS
 62
     7
100
AcDbLine
 10
-208.1787069298
 20
369.2480524124
 30
0.0
 11
-218.1787069298
 21
369.2480524124
 31
0.0
  0
LINE
  5
55B
330
1F
100
AcDbEntity
  8
0
  6
CONTINUOUS
 62
     7
100
AcDbLine
 10
-218.1787069298
 20
374.2527958487
 30
0.0
 11
-218.1787069298
 21
369.2480524124
 31
0.0
  0
ARC
  5
55C
330
1F
100
AcDbEntity
  8
0
  6
CONTINUOUS
 62
     7
100
AcDbCircle
 10
-218.1787093955
 20
364.2527983144
 30
0.0
 40
9.999997534315773
100
AcDbArc
 50
89.9999858727
 51
179.9999883195
  0
ARC
  5
55D
330
1F
100
AcDbEntity
  8
0
  6
CONTINUOUS
 62
     7
100
AcDbCircle
 10
-218.1787080559
 20
364.2480535385
 30
0.0
 40
4.999998873922109
100
AcDbArc
 50
89.9999870961
 51
179.9999870961
  0
LWPOLYLINE
  5
55E
330
1F
100
AcDbEntity
  8
0
  6
CONTINUOUS
 62
     7
100
AcDbPolyline
 90
        9
 70
   128
 43
0.0
 10
-228.1787069298
 20
364.252800353
 10
-228.0826333318
 20
364.2518745151
 10
-227.7981045924
 20
364.2509842567
 10
-227.3360549913
 20
364.2501637898
 10
-226.7142408357
 20
364.2494446445
 10
-225.9565580949
 20
364.2488544573
 10
-225.0921240916
 20
364.2484159086
 10
-224.1541585399
 20
364.2481458516
 10
-223.1787069298
 20
364.2480546645
  0
LINE
  5
55F
330
1F
100
AcDbEntity
  8
0
  6
CONTINUOUS
 62
     7
100
AcDbLine
 10
-218.1787069298
 20
234.2481132206
 30
0.0
 11
-168.1787069298
 21
234.2481132206
 31
0.0
  0
ARC
  5
560
330
1F
100
AcDbEntity
  8
0
  6
CONTINUOUS
 62
     7
100
AcDbCircle
 10
-218.1787080559
 20
239.2481120945
 30
0.0
 40
4.999998873922222
100
AcDbArc
 50
180.0000129039
 51
270.0000129039
  0
LINE
  5
561
330
1F
100
AcDbEntity
  8
0
  6
CONTINUOUS
 62
     7
100
AcDbLine
 10
-223.1787069298
 20
364.2480546645
 30
0.0
 11
-223.1787069298
 21
239.2481109685
 31
0.0
  0
LINE
  5
562
330
1F
100
AcDbEntity
  8
0
  6
CONTINUOUS
 62
     7
100
AcDbLine
 10
-203.1787069298
 20
277.2480938521
 30
0.0
 11
-203.1787069298
 21
364.2480546645
 31
0.0
  0
ARC
  5
563
330
1F
100
AcDbEntity
  8
0
  6
CONTINUOUS
 62
     7
100
AcDbCircle
 10
-188.178710308
 20
277.2480972303
 30
0.0
 40
14.99999662176644
100
AcDbArc
 50
180.0000129039
 51
270.0000129039
  0
LINE
  5
564
330
1F
100
AcDbEntity
  8
0
  6
CONTINUOUS
 62
     7
100
AcDbLine
 10
-168.1787069298
 20
262.2481006085
 30
0.0
 11
-188.1787069298
 21
262.2481006085
 31
0.0
  0
LINE
  5
565
330
1F
100
AcDbEntity
  8
0
  6
CONTINUOUS
 62
     7
100
AcDbLine
 10
-168.1787069298
 20
234.2481132206
 30
0.0
 11
-168.1787069298
 21
250.9314809155
 31
0.0
  0
LINE
  5
566
330
1F
100
AcDbEntity
  8
0
  6
CONTINUOUS
 62
     7
100
AcDbLine
 10
-168.1787069298
 20
257.5647275084
 30
0.0
 11
-168.1787069298
 21
262.2481006085
 31
0.0
  0
LINE
  5
567
330
1F
100
AcDbEntity
  8
0
  6
CONTINUOUS
 62
     7
100
AcDbLine
 10
-228.1787069298
 20
364.252800353
 30
0.0
 11
-228.1787069298
 21
239.2528566569
 31
0.0
  0
LWPOLYLINE
  5
568
330
1F
100
AcDbEntity
  8
0
  6
CONTINUOUS
 62
     7
100
AcDbPolyline
 90
        9
 70
   128
 43
0.0
 10
-228.1787069298
 20
239.2528566569
 10
-228.0826333318
 20
239.251930819
 10
-227.7981045924
 20
239.2510405606
 10
-227.3360549913
 20
239.2502200937
 10
-226.7142408357
 20
239.2495009484
 10
-225.9565580949
 20
239.2489107612
 10
-225.0921240916
 20
239.2484722125
 10
-224.1541585399
 20
239.2482021555
 10
-223.1787069298
 20
239.2481109685
  0
LINE
  5
569
330
1F
100
AcDbEntity
  8
0
  6
CONTINUOUS
 62
     7
100
AcDbLine
 10
-198.1787069298
 20
277.2528395405
 30
0.0
 11
-198.1787069298
 21
364.252800353
 31
0.0
  0
LWPOLYLINE
  5
56A
330
1F
100
AcDbEntity
  8
0
  6
CONTINUOUS
 62
     7
100
AcDbPolyline
 90
        9
 70
   128
 43
0.0
 10
-198.1787069298
 20
277.2528395405
 10
-198.2747805278
 20
277.2519137026
 10
-198.5593092672
 20
277.2510234442
 10
-199.0213588683
 20
277.2502029773
 10
-199.6431730239
 20
277.249483832
 10
-200.4008557647
 20
277.2488936448
 10
-201.265289768
 20
277.2484550961
 10
-202.2032553197
 20
277.2481850391
 10
-203.1787069298
 20
277.2480938521
  0
ARC
  5
56B
330
1F
100
AcDbEntity
  8
0
  6
CONTINUOUS
 62
     7
100
AcDbCircle
 10
-188.1787093955
 20
277.2528415791
 30
0.0
 40
9.999997534315773
100
AcDbArc
 50
180.0000116805
 51
270.0000141273
  0
LINE
  5
56C
330
1F
100
AcDbEntity
  8
0
  6
CONTINUOUS
 62
     7
100
AcDbLine
 10
-188.1787069298
 20
267.2528440448
 30
0.0
 11
-188.1787069298
 21
262.2481006085
 31
0.0
  0
LINE
  5
56D
330
1F
100
AcDbEntity
  8
0
  6
CONTINUOUS
 62
     7
100
AcDbLine
 10
-168.1787069298
 20
267.2528440448
 30
0.0
 11
-168.1787069298
 21
262.2481006085
 31
0.0
  0
LINE
  5
56E
330
1F
100
AcDbEntity
  8
0
  6
CONTINUOUS
 62
     7
100
AcDbLine
 10
-179.544732513
 20
267.2528440448
 30
0.0
 11
-188.1787069298
 21
267.2528440448
 31
0.0
  0
SPLINE
  5
56F
330
1F
100
AcDbEntity
  8
0
  6
CONTINUOUS
 62
     7
100
AcDbSpline
210
0.0
220
0.0
230
1.0
 70
     8
 71
     3
 72
    19
 73
    15
 74
     0
 42
0.00000001
 43
0.00000001
 40
0.0
 40
0.0
 40
0.0
 40
0.0
 40
0.0632672408983182
 40
0.1266582944237516
 40
0.251923260300046
 40
0.3758666526220508
 40
0.4379161708751733
 40
0.4996682302707792
 40
0.5613263102837719
 40
0.6234546600318722
 40
0.7477882506711588
 40
0.8729325070024271
 40
0.936333502794274
 40
1.0
 40
1.0
 40
1.0
 40
1.0
 10
-173.8126813465539
 20
267.252844044828
 30
0.0
 10
-173.823953872792
 20
267.2457800881853
 30
0.0
 10
-173.8465209853593
 20
267.2316383508889
 30
0.0
 10
-174.0798171751337
 20
267.092654203053
 30
0.0
 10
-174.6013457782131
 20
266.8029745928696
 30
0.0
 10
-175.3736482978521
 20
266.4829910513786
 30
0.0
 10
-176.0968389103544
 20
266.3212722922834
 30
0.0
 10
-176.6752435009272
 20
266.2758046178213
 30
0.0
 10
-177.2541063742772
 20
266.3202735075571
 30
0.0
 10
-177.9791749294468
 20
266.4812819073291
 30
0.0
 10
-178.7533355405886
 20
266.8015887416728
 30
0.0
 10
-179.2760425483684
 20
267.0917553198669
 30
0.0
 10
-179.5105436687204
 20
267.2314209135017
 30
0.0
 10
-179.5333203679977
 20
267.2456930607308
 30
0.0
 10
-179.5447325130451
 20
267.252844044828
 30
0.0
  0
LINE
  5
570
330
1F
100
AcDbEntity
  8
0
  6
CONTINUOUS
 62
     7
100
AcDbLine
 10
-168.1787069298
 20
267.2528440448
 30
0.0
 11
-173.8126813466
 21
267.2528440448
 31
0.0
  0
ARC
  5
571
330
1F
100
AcDbEntity
  8
0
  6
CONTINUOUS
 62
     7
100
AcDbCircle
 10
-218.1787089684
 20
239.2528591226
 30
0.0
 40
9.999997961372978
100
AcDbArc
 50
180.0000141273
 51
270.0000116805
  0
LINE
  5
572
330
1F
100
AcDbEntity
  8
0
  6
CONTINUOUS
 62
     7
100
AcDbLine
 10
-218.1787069298
 20
229.2528611612
 30
0.0
 11
-218.1787069298
 21
234.2481132206
 31
0.0
  0
LINE
  5
573
330
1F
100
AcDbEntity
  8
0
  6
CONTINUOUS
 62
     7
100
AcDbLine
 10
-218.1787069298
 20
229.2528611612
 30
0.0
 11
-168.1787069298
 21
229.2528611612
 31
0.0
  0
LINE
  5
574
330
1F
100
AcDbEntity
  8
0
  6
CONTINUOUS
 62
     7
100
AcDbLine
 10
-168.1787069298
 20
234.2481132206
 30
0.0
 11
-168.1787069298
 21
229.2528611612
 31
0.0
  0
LINE
  5
575
330
1F
100
AcDbEntity
  8
0
  6
CONTINUOUS
 62
     7
100
AcDbLine
 10
-178.9414954546
 20
266.9648639806
 30
0.0
 11
-178.7941544579
 21
266.8786831079
 31
0.0
  0
LINE
  5
576
330
1F
100
AcDbEntity
  8
0
  6
CONTINUOUS
 62
     7
100
AcDbLine
 10
-174.5633459075
 20
266.8786457754
 30
0.0
 11
-174.4164261063
 21
266.9646247821
 31
0.0
  0
LINE
  5
577
330
1F
100
AcDbEntity
  8
0
  6
CONTINUOUS
 62
     7
100
AcDbLine
 10
-55.1787069298
 20
369.2480524124
 30
0.0
 11
-55.1787069298
 21
374.2527958487
 31
0.0
  0
ARC
  5
578
330
1F
100
AcDbEntity
  8
0
  6
CONTINUOUS
 62
     7
100
AcDbCircle
 10
-55.1787044641
 20
364.2527983144
 30
0.0
 40
9.99999753431569
100
AcDbArc
 50
0.0000116805
 51
90.0000141273
  0
LWPOLYLINE
  5
579
330
1F
100
AcDbEntity
  8
0
  6
CONTINUOUS
 62
     7
100
AcDbPolyline
 90
        9
 70
   128
 43
0.0
 10
-50.1787069298
 20
364.2480546645
 10
-49.2032553197
 20
364.2481458516
 10
-48.265289768
 20
364.2484159086
 10
-47.4008557647
 20
364.2488544573
 10
-46.6431730239
 20
364.2494446445
 10
-46.0213588683
 20
364.2501637898
 10
-45.5593092672
 20
364.2509842567
 10
-45.2747805278
 20
364.2518745151
 10
-45.1787069298
 20
364.252800353
  0
ARC
  5
57A
330
1F
100
AcDbEntity
  8
0
  6
CONTINUOUS
 62
     7
100
AcDbCircle
 10
-55.1787058037
 20
364.2480535385
 30
0.0
 40
4.999998873922123
100
AcDbArc
 50
0.0000129039
 51
90.0000129039
  0
LINE
  5
57B
330
1F
100
AcDbEntity
  8
0
  6
CONTINUOUS
 62
     7
100
AcDbLine
 10
-65.1787069298
 20
369.2480524124
 30
0.0
 11
-65.1787069298
 21
374.2527958487
 31
0.0
  0
LINE
  5
57C
330
1F
100
AcDbEntity
  8
0
  6
CONTINUOUS
 62
     7
100
AcDbLine
 10
-65.1787069298
 20
374.2527958487
 30
0.0
 11
-55.1787069298
 21
374.2527958487
 31
0.0
  0
LINE
  5
57D
330
1F
100
AcDbEntity
  8
0
  6
CONTINUOUS
 62
     7
100
AcDbLine
 10
-55.1787069298
 20
369.2480524124
 30
0.0
 11
-65.1787069298
 21
369.2480524124
 31
0.0
  0
LWPOLYLINE
  5
57E
330
1F
100
AcDbEntity
  8
0
  6
CONTINUOUS
 62
     7
100
AcDbPolyline
 90
        9
 70
   128
 43
0.0
 10
-70.1787069298
 20
364.2480546645
 10
-71.1541585399
 20
364.2481458516
 10
-72.0921240916
 20
364.2484159086
 10
-72.9565580949
 20
364.2488544573
 10
-73.7142408357
 20
364.2494446445
 10
-74.3360549913
 20
364.2501637898
 10
-74.7981045924
 20
364.2509842567
 10
-75.0826333318
 20
364.2518745151
 10
-75.1787069298
 20
364.252800353
  0
ARC
  5
57F
330
1F
100
AcDbEntity
  8
0
  6
CONTINUOUS
 62
     7
100
AcDbCircle
 10
-65.1787089684
 20
364.2527978873
 30
0.0
 40
9.999997961373063
100
AcDbArc
 50
89.9999883195
 51
179.9999858727
  0
ARC
  5
580
330
1F
100
AcDbEntity
  8
0
  6
CONTINUOUS
 62
     7
100
AcDbCircle
 10
-65.1787080559
 20
364.2480535385
 30
0.0
 40
4.999998873922123
100
AcDbArc
 50
89.9999870961
 51
179.9999870961
  0
LINE
  5
581
330
1F
100
AcDbEntity
  8
0
  6
CONTINUOUS
 62
     7
100
AcDbLine
 10
-85.1787069298
 20
262.2481006085
 30
0.0
 11
-105.1787069298
 21
262.2481006085
 31
0.0
  0
ARC
  5
582
330
1F
100
AcDbEntity
  8
0
  6
CONTINUOUS
 62
     7
100
AcDbCircle
 10
-85.1787035516
 20
277.2480972303
 30
0.0
 40
14.99999662176651
100
AcDbArc
 50
269.9999870961
 51
359.9999870961
  0
LINE
  5
583
330
1F
100
AcDbEntity
  8
0
  6
CONTINUOUS
 62
     7
100
AcDbLine
 10
-70.1787069298
 20
364.2480546645
 30
0.0
 11
-70.1787069298
 21
277.2480938521
 31
0.0
  0
LINE
  5
584
330
1F
100
AcDbEntity
  8
0
  6
CONTINUOUS
 62
     7
100
AcDbLine
 10
-50.1787069298
 20
239.2481109685
 30
0.0
 11
-50.1787069298
 21
364.2480546645
 31
0.0
  0
ARC
  5
585
330
1F
100
AcDbEntity
  8
0
  6
CONTINUOUS
 62
     7
100
AcDbCircle
 10
-55.1787058037
 20
239.2481120945
 30
0.0
 40
4.999998873922194
100
AcDbArc
 50
269.9999870961
 51
359.9999870961
  0
LINE
  5
586
330
1F
100
AcDbEntity
  8
0
  6
CONTINUOUS
 62
     7
100
AcDbLine
 10
-105.1787069298
 20
234.2481132206
 30
0.0
 11
-55.1787069298
 21
234.2481132206
 31
0.0
  0
LINE
  5
587
330
1F
100
AcDbEntity
  8
0
  6
CONTINUOUS
 62
     7
100
AcDbLine
 10
-105.1787069298
 20
262.2481006085
 30
0.0
 11
-105.1787069298
 21
257.5647275084
 31
0.0
  0
LINE
  5
588
330
1F
100
AcDbEntity
  8
0
  6
CONTINUOUS
 62
     7
100
AcDbLine
 10
-105.1787069298
 20
250.9314809155
 30
0.0
 11
-105.1787069298
 21
234.2481132206
 31
0.0
  0
LINE
  5
589
330
1F
100
AcDbEntity
  8
0
  6
CONTINUOUS
 62
     7
100
AcDbLine
 10
-45.1787069298
 20
364.252800353
 30
0.0
 11
-45.1787069298
 21
239.2528566569
 31
0.0
  0
LWPOLYLINE
  5
58A
330
1F
100
AcDbEntity
  8
0
  6
CONTINUOUS
 62
     7
100
AcDbPolyline
 90
        9
 70
   128
 43
0.0
 10
-50.1787069298
 20
239.2481109685
 10
-49.2032553197
 20
239.2482021555
 10
-48.265289768
 20
239.2484722125
 10
-47.4008557647
 20
239.2489107612
 10
-46.6431730239
 20
239.2495009484
 10
-46.0213588683
 20
239.2502200937
 10
-45.5593092672
 20
239.2510405606
 10
-45.2747805278
 20
239.251930819
 10
-45.1787069298
 20
239.2528566569
  0
LWPOLYLINE
  5
58B
330
1F
100
AcDbEntity
  8
0
  6
CONTINUOUS
 62
     7
100
AcDbPolyline
 90
        9
 70
   128
 43
0.0
 10
-70.1787069298
 20
277.2480938521
 10
-71.1541585399
 20
277.2481850391
 10
-72.0921240916
 20
277.2484550961
 10
-72.9565580949
 20
277.2488936448
 10
-73.7142408357
 20
277.249483832
 10
-74.3360549913
 20
277.2502029773
 10
-74.7981045924
 20
277.2510234442
 10
-75.0826333318
 20
277.2519137026
 10
-75.1787069298
 20
277.2528395405
  0
LINE
  5
58C
330
1F
100
AcDbEntity
  8
0
  6
CONTINUOUS
 62
     7
100
AcDbLine
 10
-75.1787069298
 20
277.2528395405
 30
0.0
 11
-75.1787069298
 21
364.252800353
 31
0.0
  0
LINE
  5
58D
330
1F
100
AcDbEntity
  8
0
  6
CONTINUOUS
 62
     7
100
AcDbLine
 10
-85.1787069298
 20
262.2481006085
 30
0.0
 11
-85.1787069298
 21
267.2528440448
 31
0.0
  0
ARC
  5
58E
330
1F
100
AcDbEntity
  8
0
  6
CONTINUOUS
 62
     7
100
AcDbCircle
 10
-85.1787044641
 20
277.2528415791
 30
0.0
 40
9.999997534315773
100
AcDbArc
 50
269.9999858727
 51
359.9999883195
  0
LINE
  5
58F
330
1F
100
AcDbEntity
  8
0
  6
CONTINUOUS
 62
     7
100
AcDbLine
 10
-105.1787069298
 20
262.2481006085
 30
0.0
 11
-105.1787069298
 21
267.2528440448
 31
0.0
  0
LINE
  5
590
330
1F
100
AcDbEntity
  8
0
  6
CONTINUOUS
 62
     7
100
AcDbLine
 10
-105.1787069298
 20
267.2528440448
 30
0.0
 11
-99.544732513
 21
267.2528440448
 31
0.0
  0
SPLINE
  5
591
330
1F
100
AcDbEntity
  8
0
  6
CONTINUOUS
 62
     7
100
AcDbSpline
210
0.0
220
0.0
230
1.0
 70
     8
 71
     3
 72
    19
 73
    15
 74
     0
 42
0.00000001
 43
0.00000001
 40
0.0
 40
0.0
 40
0.0
 40
0.0
 40
0.0632672408983184
 40
0.1266582944237519
 40
0.251923260300046
 40
0.3758666526220506
 40
0.4379161708751734
 40
0.4996682302707792
 40
0.5613263102837729
 40
0.623454660031872
 40
0.7477882506711585
 40
0.8729325070024271
 40
0.9363335027942736
 40
1.0
 40
1.0
 40
1.0
 40
1.0
 10
-93.81268134655387
 20
267.2528440448281
 30
0.0
 10
-93.82395387279205
 20
267.2457800881853
 30
0.0
 10
-93.84652098535935
 20
267.231638350889
 30
0.0
 10
-94.0798171751337
 20
267.092654203053
 30
0.0
 10
-94.60134577821309
 20
266.8029745928696
 30
0.0
 10
-95.37364829785217
 20
266.4829910513787
 30
0.0
 10
-96.09683891035436
 20
266.3212722922834
 30
0.0
 10
-96.6752435009272
 20
266.2758046178213
 30
0.0
 10
-97.2541063742772
 20
266.3202735075572
 30
0.0
 10
-97.9791749294468
 20
266.4812819073291
 30
0.0
 10
-98.75333554058864
 20
266.8015887416728
 30
0.0
 10
-99.27604254836838
 20
267.091755319867
 30
0.0
 10
-99.5105436687204
 20
267.2314209135017
 30
0.0
 10
-99.53332036799772
 20
267.2456930607309
 30
0.0
 10
-99.54473251304512
 20
267.2528440448281
 30
0.0
  0
LINE
  5
592
330
1F
100
AcDbEntity
  8
0
  6
CONTINUOUS
 62
     7
100
AcDbLine
 10
-93.8126813466
 20
267.2528440448
 30
0.0
 11
-85.1787069298
 21
267.2528440448
 31
0.0
  0
ARC
  5
593
330
1F
100
AcDbEntity
  8
0
  6
CONTINUOUS
 62
     7
100
AcDbCircle
 10
-55.1787048912
 20
239.2528591226
 30
0.0
 40
9.999997961373039
100
AcDbArc
 50
269.9999883195
 51
359.9999858727
  0
LINE
  5
594
330
1F
100
AcDbEntity
  8
0
  6
CONTINUOUS
 62
     7
100
AcDbLine
 10
-55.1787069298
 20
234.2481132206
 30
0.0
 11
-55.1787069298
 21
229.2528611612
 31
0.0
  0
LINE
  5
595
330
1F
100
AcDbEntity
  8
0
  6
CONTINUOUS
 62
     7
100
AcDbLine
 10
-55.1787069298
 20
229.2528611612
 30
0.0
 11
-105.1787069298
 21
229.2528611612
 31
0.0
  0
LINE
  5
596
330
1F
100
AcDbEntity
  8
0
  6
CONTINUOUS
 62
     7
100
AcDbLine
 10
-105.1787069298
 20
229.2528611612
 30
0.0
 11
-105.1787069298
 21
234.2481132206
 31
0.0
  0
LINE
  5
597
330
1F
100
AcDbEntity
  8
0
  6
CONTINUOUS
 62
     7
100
AcDbLine
 10
-98.9414954546
 20
266.9648639806
 30
0.0
 11
-98.7941544579
 21
266.8786831079
 31
0.0
  0
LINE
  5
598
330
1F
100
AcDbEntity
  8
0
  6
CONTINUOUS
 62
     7
100
AcDbLine
 10
-94.5633459075
 20
266.8786457754
 30
0.0
 11
-94.4164261064
 21
266.964624782
 31
0.0
  0
LINE
  5
599
330
1F
100
AcDbEntity
  8
0
  6
CONTINUOUS
 62
     7
100
AcDbLine
 10
-138.5721041562
 20
236.8628499004
 30
0.0
 11
-138.5721041562
 21
233.6428499004
 31
0.0
  0
LINE
  5
59A
330
1F
100
AcDbEntity
  8
0
  6
CONTINUOUS
 62
     7
100
AcDbLine
 10
-138.2990232163
 20
237.2528499004
 30
0.0
 11
-138.2990232163
 21
233.2528499004
 31
0.0
  0
LINE
  5
59B
330
1F
100
AcDbEntity
  8
0
  6
CONTINUOUS
 62
     7
100
AcDbLine
 10
-114.6423549074
 20
237.2528499004
 30
0.0
 11
-114.6423549074
 21
233.2528499004
 31
0.0
  0
LINE
  5
59C
330
1F
100
AcDbEntity
  8
0
  6
CONTINUOUS
 62
     7
100
AcDbLine
 10
-114.7877024616
 20
237.2528499004
 30
0.0
 11
-114.7877024616
 21
233.2528499004
 31
0.0
  0
LINE
  5
59D
330
1F
100
AcDbEntity
  8
0
  6
CONTINUOUS
 62
     7
100
AcDbLine
 10
-109.5287079298
 20
236.8628499004
 30
0.0
 11
-109.5287079298
 21
233.6428499004
 31
0.0
  0
LINE
  5
59E
330
1F
100
AcDbEntity
  8
0
  6
CONTINUOUS
 62
     7
100
AcDbLine
 10
-109.2556269899
 20
237.2528499004
 30
0.0
 11
-109.2556269899
 21
233.2528499004
 31
0.0
  0
LINE
  5
59F
330
1F
100
AcDbEntity
  8
0
  6
CONTINUOUS
 62
     7
100
AcDbLine
 10
-119.4829209452
 20
237.2528499004
 30
0.0
 11
-119.4829209452
 21
233.2528499004
 31
0.0
  0
LINE
  5
5A0
330
1F
100
AcDbEntity
  8
0
  6
CONTINUOUS
 62
     7
100
AcDbLine
 10
-119.6282684993
 20
237.2528499004
 30
0.0
 11
-119.6282684993
 21
233.2528499004
 31
0.0
  0
LINE
  5
5A1
330
1F
100
AcDbEntity
  8
0
  6
CONTINUOUS
 62
     7
100
AcDbLine
 10
-129.1640530206
 20
237.2528499004
 30
0.0
 11
-129.1640530206
 21
233.2528499004
 31
0.0
  0
LINE
  5
5A2
330
1F
100
AcDbEntity
  8
0
  6
CONTINUOUS
 62
     7
100
AcDbLine
 10
-129.3094005748
 20
237.2528499004
 30
0.0
 11
-129.3094005748
 21
233.2528499004
 31
0.0
  0
LINE
  5
5A3
330
1F
100
AcDbEntity
  8
0
  6
CONTINUOUS
 62
     7
100
AcDbLine
 10
-124.050406043
 20
236.8628499004
 30
0.0
 11
-124.050406043
 21
233.6428499004
 31
0.0
  0
LINE
  5
5A4
330
1F
100
AcDbEntity
  8
0
  6
CONTINUOUS
 62
     7
100
AcDbLine
 10
-123.7773251031
 20
237.2528499004
 30
0.0
 11
-123.7773251031
 21
233.2528499004
 31
0.0
  0
LINE
  5
5A5
330
1F
100
AcDbEntity
  8
0
  6
CONTINUOUS
 62
     7
100
AcDbLine
 10
-140.919713398
 20
237.2528499004
 30
0.0
 11
-140.919713398
 21
233.2528499004
 31
0.0
  0
LINE
  5
5A6
330
1F
100
AcDbEntity
  8
0
  6
CONTINUOUS
 62
     7
100
AcDbLine
 10
-141.0650609522
 20
237.2528499004
 30
0.0
 11
-141.0650609522
 21
233.2528499004
 31
0.0
  0
LINE
  5
5A7
330
1F
100
AcDbEntity
  8
0
  6
CONTINUOUS
 62
     7
100
AcDbLine
 10
-138.8451850961
 20
237.2528499004
 30
0.0
 11
-138.8451850961
 21
233.2528499004
 31
0.0
  0
LINE
  5
5A8
330
1F
100
AcDbEntity
  8
0
  6
CONTINUOUS
 62
     7
100
AcDbLine
 10
-138.9905326503
 20
237.2528499004
 30
0.0
 11
-138.9905326503
 21
233.2528499004
 31
0.0
  0
LINE
  5
5A9
330
1F
100
AcDbEntity
  8
0
  6
CONTINUOUS
 62
     7
100
AcDbLine
 10
-124.3234869829
 20
237.2528499004
 30
0.0
 11
-124.3234869829
 21
233.2528499004
 31
0.0
  0
LINE
  5
5AA
330
1F
100
AcDbEntity
  8
0
  6
CONTINUOUS
 62
     7
100
AcDbLine
 10
-124.4688345371
 20
237.2528499004
 30
0.0
 11
-124.4688345371
 21
233.2528499004
 31
0.0
  0
LINE
  5
5AB
330
1F
100
AcDbEntity
  8
0
  6
CONTINUOUS
 62
     7
100
AcDbLine
 10
-140.6466324581
 20
236.8628499004
 30
0.0
 11
-140.6466324581
 21
233.6428499004
 31
0.0
  0
LINE
  5
5AC
330
1F
100
AcDbEntity
  8
0
  6
CONTINUOUS
 62
     7
100
AcDbLine
 10
-140.3735515182
 20
237.2528499004
 30
0.0
 11
-140.3735515182
 21
233.2528499004
 31
0.0
  0
LINE
  5
5AD
330
1F
100
AcDbEntity
  8
0
  6
CONTINUOUS
 62
     7
100
AcDbLine
 10
-123.6319775489
 20
237.2528499004
 30
0.0
 11
-123.6319775489
 21
233.2528499004
 31
0.0
  0
LINE
  5
5AE
330
1F
100
AcDbEntity
  8
0
  6
CONTINUOUS
 62
     7
100
AcDbLine
 10
-133.7315381185
 20
236.8628499004
 30
0.0
 11
-133.7315381185
 21
233.6428499004
 31
0.0
  0
LINE
  5
5AF
330
1F
100
AcDbEntity
  8
0
  6
CONTINUOUS
 62
     7
100
AcDbLine
 10
-133.4584571786
 20
237.2528499004
 30
0.0
 11
-133.4584571786
 21
233.2528499004
 31
0.0
  0
LINE
  5
5B0
330
1F
100
AcDbEntity
  8
0
  6
CONTINUOUS
 62
     7
100
AcDbLine
 10
-135.8060664204
 20
236.8628499004
 30
0.0
 11
-135.8060664204
 21
233.6428499004
 31
0.0
  0
LINE
  5
5B1
330
1F
100
AcDbEntity
  8
0
  6
CONTINUOUS
 62
     7
100
AcDbLine
 10
-135.5329854805
 20
237.2528499004
 30
0.0
 11
-135.5329854805
 21
233.2528499004
 31
0.0
  0
LINE
  5
5B2
330
1F
100
AcDbEntity
  8
0
  6
CONTINUOUS
 62
     7
100
AcDbLine
 10
-128.8909720807
 20
236.8628499004
 30
0.0
 11
-128.8909720807
 21
233.6428499004
 31
0.0
  0
LINE
  5
5B3
330
1F
100
AcDbEntity
  8
0
  6
CONTINUOUS
 62
     7
100
AcDbLine
 10
-128.6178911408
 20
237.2528499004
 30
0.0
 11
-128.6178911408
 21
233.2528499004
 31
0.0
  0
LINE
  5
5B4
330
1F
100
AcDbEntity
  8
0
  6
CONTINUOUS
 62
     7
100
AcDbLine
 10
-113.9508454735
 20
237.2528499004
 30
0.0
 11
-113.9508454735
 21
233.2528499004
 31
0.0
  0
LINE
  5
5B5
330
1F
100
AcDbEntity
  8
0
  6
CONTINUOUS
 62
     7
100
AcDbLine
 10
-114.0961930276
 20
237.2528499004
 30
0.0
 11
-114.0961930276
 21
233.2528499004
 31
0.0
  0
LINE
  5
5B6
330
1F
100
AcDbEntity
  8
0
  6
CONTINUOUS
 62
     7
100
AcDbLine
 10
-129.8555624546
 20
237.2528499004
 30
0.0
 11
-129.8555624546
 21
233.2528499004
 31
0.0
  0
LINE
  5
5B7
330
1F
100
AcDbEntity
  8
0
  6
CONTINUOUS
 62
     7
100
AcDbLine
 10
-130.0009100088
 20
237.2528499004
 30
0.0
 11
-130.0009100088
 21
233.2528499004
 31
0.0
  0
LINE
  5
5B8
330
1F
100
AcDbEntity
  8
0
  6
CONTINUOUS
 62
     7
100
AcDbLine
 10
-121.5574492471
 20
237.2528499004
 30
0.0
 11
-121.5574492471
 21
233.2528499004
 31
0.0
  0
LINE
  5
5B9
330
1F
100
AcDbEntity
  8
0
  6
CONTINUOUS
 62
     7
100
AcDbLine
 10
-121.7027968012
 20
237.2528499004
 30
0.0
 11
-121.7027968012
 21
233.2528499004
 31
0.0
  0
LINE
  5
5BA
330
1F
100
AcDbEntity
  8
0
  6
CONTINUOUS
 62
     7
100
AcDbLine
 10
-122.6673871751
 20
236.8628499004
 30
0.0
 11
-122.6673871751
 21
233.6428499004
 31
0.0
  0
LINE
  5
5BB
330
1F
100
AcDbEntity
  8
0
  6
CONTINUOUS
 62
     7
100
AcDbLine
 10
-122.3943062352
 20
237.2528499004
 30
0.0
 11
-122.3943062352
 21
233.2528499004
 31
0.0
  0
LINE
  5
5BC
330
1F
100
AcDbEntity
  8
0
  6
CONTINUOUS
 62
     7
100
AcDbLine
 10
-110.9117267977
 20
236.8628499004
 30
0.0
 11
-110.9117267977
 21
233.6428499004
 31
0.0
  0
LINE
  5
5BD
330
1F
100
AcDbEntity
  8
0
  6
CONTINUOUS
 62
     7
100
AcDbLine
 10
-110.6386458578
 20
237.2528499004
 30
0.0
 11
-110.6386458578
 21
233.2528499004
 31
0.0
  0
LINE
  5
5BE
330
1F
100
AcDbEntity
  8
0
  6
CONTINUOUS
 62
     7
100
AcDbLine
 10
-112.2947456656
 20
236.8628499004
 30
0.0
 11
-112.2947456656
 21
233.6428499004
 31
0.0
  0
LINE
  5
5BF
330
1F
100
AcDbEntity
  8
0
  6
CONTINUOUS
 62
     7
100
AcDbLine
 10
-112.0216647257
 20
237.2528499004
 30
0.0
 11
-112.0216647257
 21
233.2528499004
 31
0.0
  0
LINE
  5
5C0
330
1F
100
AcDbEntity
  8
0
  6
CONTINUOUS
 62
     7
100
AcDbLine
 10
-131.2385813225
 20
237.2528499004
 30
0.0
 11
-131.2385813225
 21
233.2528499004
 31
0.0
  0
LINE
  5
5C1
330
1F
100
AcDbEntity
  8
0
  6
CONTINUOUS
 62
     7
100
AcDbLine
 10
-131.3839288767
 20
237.2528499004
 30
0.0
 11
-131.3839288767
 21
233.2528499004
 31
0.0
  0
LINE
  5
5C2
330
1F
100
AcDbEntity
  8
0
  6
CONTINUOUS
 62
     7
100
AcDbLine
 10
-133.3131096244
 20
237.2528499004
 30
0.0
 11
-133.3131096244
 21
233.2528499004
 31
0.0
  0
LINE
  5
5C3
330
1F
100
AcDbEntity
  8
0
  6
CONTINUOUS
 62
     7
100
AcDbLine
 10
-142.9942416999
 20
237.2528499004
 30
0.0
 11
-142.9942416999
 21
233.2528499004
 31
0.0
  0
LINE
  5
5C4
330
1F
100
AcDbEntity
  8
0
  6
CONTINUOUS
 62
     7
100
AcDbLine
 10
-143.139589254
 20
237.2528499004
 30
0.0
 11
-143.139589254
 21
233.2528499004
 31
0.0
  0
LINE
  5
5C5
330
1F
100
AcDbEntity
  8
0
  6
CONTINUOUS
 62
     7
100
AcDbLine
 10
-113.6777645336
 20
236.8628499004
 30
0.0
 11
-113.6777645336
 21
233.6428499004
 31
0.0
  0
LINE
  5
5C6
330
1F
100
AcDbEntity
  8
0
  6
CONTINUOUS
 62
     7
100
AcDbLine
 10
-113.4046835937
 20
237.2528499004
 30
0.0
 11
-113.4046835937
 21
233.2528499004
 31
0.0
  0
LINE
  5
5C7
330
1F
100
AcDbEntity
  8
0
  6
CONTINUOUS
 62
     7
100
AcDbLine
 10
-134.0046190584
 20
237.2528499004
 30
0.0
 11
-134.0046190584
 21
233.2528499004
 31
0.0
  0
LINE
  5
5C8
330
1F
100
AcDbEntity
  8
0
  6
CONTINUOUS
 62
     7
100
AcDbLine
 10
-134.1499666125
 20
237.2528499004
 30
0.0
 11
-134.1499666125
 21
233.2528499004
 31
0.0
  0
LINE
  5
5C9
330
1F
100
AcDbEntity
  8
0
  6
CONTINUOUS
 62
     7
100
AcDbLine
 10
-111.6032362317
 20
236.8628499004
 30
0.0
 11
-111.6032362317
 21
233.6428499004
 31
0.0
  0
LINE
  5
5CA
330
1F
100
AcDbEntity
  8
0
  6
CONTINUOUS
 62
     7
100
AcDbLine
 10
-111.3301552918
 20
237.2528499004
 30
0.0
 11
-111.3301552918
 21
233.2528499004
 31
0.0
  0
LINE
  5
5CB
330
1F
100
AcDbEntity
  8
0
  6
CONTINUOUS
 62
     7
100
AcDbLine
 10
-114.3692739675
 20
236.8628499004
 30
0.0
 11
-114.3692739675
 21
233.6428499004
 31
0.0
  0
LINE
  5
5CC
330
1F
100
AcDbEntity
  8
0
  6
CONTINUOUS
 62
     7
100
AcDbLine
 10
-120.1744303791
 20
237.2528499004
 30
0.0
 11
-120.1744303791
 21
233.2528499004
 31
0.0
  0
LINE
  5
5CD
330
1F
100
AcDbEntity
  8
0
  6
CONTINUOUS
 62
     7
100
AcDbLine
 10
-120.3197779333
 20
237.2528499004
 30
0.0
 11
-120.3197779333
 21
233.2528499004
 31
0.0
  0
LINE
  5
5CE
330
1F
100
AcDbEntity
  8
0
  6
CONTINUOUS
 62
     7
100
AcDbLine
 10
-133.0400286845
 20
236.8628499004
 30
0.0
 11
-133.0400286845
 21
233.6428499004
 31
0.0
  0
LINE
  5
5CF
330
1F
100
AcDbEntity
  8
0
  6
CONTINUOUS
 62
     7
100
AcDbLine
 10
-132.7669477446
 20
237.2528499004
 30
0.0
 11
-132.7669477446
 21
233.2528499004
 31
0.0
  0
LINE
  5
5D0
330
1F
100
AcDbEntity
  8
0
  6
CONTINUOUS
 62
     7
100
AcDbLine
 10
-120.8659398131
 20
237.2528499004
 30
0.0
 11
-120.8659398131
 21
233.2528499004
 31
0.0
  0
LINE
  5
5D1
330
1F
100
AcDbEntity
  8
0
  6
CONTINUOUS
 62
     7
100
AcDbLine
 10
-121.0112873673
 20
237.2528499004
 30
0.0
 11
-121.0112873673
 21
233.2528499004
 31
0.0
  0
LINE
  5
5D2
330
1F
100
AcDbEntity
  8
0
  6
CONTINUOUS
 62
     7
100
AcDbLine
 10
-130.5470718886
 20
237.2528499004
 30
0.0
 11
-130.5470718886
 21
233.2528499004
 31
0.0
  0
LINE
  5
5D3
330
1F
100
AcDbEntity
  8
0
  6
CONTINUOUS
 62
     7
100
AcDbLine
 10
-130.6924194427
 20
237.2528499004
 30
0.0
 11
-130.6924194427
 21
233.2528499004
 31
0.0
  0
LINE
  5
5D4
330
1F
100
AcDbEntity
  8
0
  6
CONTINUOUS
 62
     7
100
AcDbLine
 10
-130.2739909487
 20
236.8628499004
 30
0.0
 11
-130.2739909487
 21
233.6428499004
 31
0.0
  0
LINE
  5
5D5
330
1F
100
AcDbEntity
  8
0
  6
CONTINUOUS
 62
     7
100
AcDbLine
 10
-130.9655003826
 20
236.8628499004
 30
0.0
 11
-130.9655003826
 21
233.6428499004
 31
0.0
  0
LINE
  5
5D6
330
1F
100
AcDbEntity
  8
0
  6
CONTINUOUS
 62
     7
100
AcDbLine
 10
-145.4871984958
 20
236.8628499004
 30
0.0
 11
-145.4871984958
 21
233.6428499004
 31
0.0
  0
LINE
  5
5D7
330
1F
100
AcDbEntity
  8
0
  6
CONTINUOUS
 62
     7
100
AcDbLine
 10
-145.2141175559
 20
237.2528499004
 30
0.0
 11
-145.2141175559
 21
233.2528499004
 31
0.0
  0
LINE
  5
5D8
330
1F
100
AcDbEntity
  8
0
  6
CONTINUOUS
 62
     7
100
AcDbLine
 10
-141.3381418921
 20
236.8628499004
 30
0.0
 11
-141.3381418921
 21
233.6428499004
 31
0.0
  0
LINE
  5
5D9
330
1F
100
AcDbEntity
  8
0
  6
CONTINUOUS
 62
     7
100
AcDbLine
 10
-119.2098400053
 20
236.8628499004
 30
0.0
 11
-119.2098400053
 21
233.6428499004
 31
0.0
  0
LINE
  5
5DA
330
1F
100
AcDbEntity
  8
0
  6
CONTINUOUS
 62
     7
100
AcDbLine
 10
-118.9367590654
 20
237.2528499004
 30
0.0
 11
-118.9367590654
 21
233.2528499004
 31
0.0
  0
LINE
  5
5DB
330
1F
100
AcDbEntity
  8
0
  6
CONTINUOUS
 62
     7
100
AcDbLine
 10
-122.248958681
 20
237.2528499004
 30
0.0
 11
-122.248958681
 21
233.2528499004
 31
0.0
  0
LINE
  5
5DC
330
1F
100
AcDbEntity
  8
0
  6
CONTINUOUS
 62
     7
100
AcDbLine
 10
-141.611222832
 20
237.2528499004
 30
0.0
 11
-141.611222832
 21
233.2528499004
 31
0.0
  0
LINE
  5
5DD
330
1F
100
AcDbEntity
  8
0
  6
CONTINUOUS
 62
     7
100
AcDbLine
 10
-141.7565703861
 20
237.2528499004
 30
0.0
 11
-141.7565703861
 21
233.2528499004
 31
0.0
  0
LINE
  5
5DE
330
1F
100
AcDbEntity
  8
0
  6
CONTINUOUS
 62
     7
100
AcDbLine
 10
-117.4083926433
 20
237.2528499004
 30
0.0
 11
-117.4083926433
 21
233.2528499004
 31
0.0
  0
LINE
  5
5DF
330
1F
100
AcDbEntity
  8
0
  6
CONTINUOUS
 62
     7
100
AcDbLine
 10
-117.5537401974
 20
237.2528499004
 30
0.0
 11
-117.5537401974
 21
233.2528499004
 31
0.0
  0
LINE
  5
5E0
330
1F
100
AcDbEntity
  8
0
  6
CONTINUOUS
 62
     7
100
AcDbLine
 10
-113.2593360395
 20
237.2528499004
 30
0.0
 11
-113.2593360395
 21
233.2528499004
 31
0.0
  0
LINE
  5
5E1
330
1F
100
AcDbEntity
  8
0
  6
CONTINUOUS
 62
     7
100
AcDbLine
 10
-132.6216001905
 20
237.2528499004
 30
0.0
 11
-132.6216001905
 21
233.2528499004
 31
0.0
  0
LINE
  5
5E2
330
1F
100
AcDbEntity
  8
0
  6
CONTINUOUS
 62
     7
100
AcDbLine
 10
-142.3027322659
 20
237.2528499004
 30
0.0
 11
-142.3027322659
 21
233.2528499004
 31
0.0
  0
LINE
  5
5E3
330
1F
100
AcDbEntity
  8
0
  6
CONTINUOUS
 62
     7
100
AcDbLine
 10
-142.4480798201
 20
237.2528499004
 30
0.0
 11
-142.4480798201
 21
233.2528499004
 31
0.0
  0
LINE
  5
5E4
330
1F
100
AcDbEntity
  8
0
  6
CONTINUOUS
 62
     7
100
AcDbLine
 10
-128.4725435867
 20
237.2528499004
 30
0.0
 11
-128.4725435867
 21
233.2528499004
 31
0.0
  0
LINE
  5
5E5
330
1F
100
AcDbEntity
  8
0
  6
CONTINUOUS
 62
     7
100
AcDbLine
 10
-128.1994626468
 20
236.8628499004
 30
0.0
 11
-128.1994626468
 21
233.6428499004
 31
0.0
  0
LINE
  5
5E6
330
1F
100
AcDbEntity
  8
0
  6
CONTINUOUS
 62
     7
100
AcDbLine
 10
-127.9263817069
 20
237.2528499004
 30
0.0
 11
-127.9263817069
 21
233.2528499004
 31
0.0
  0
LINE
  5
5E7
330
1F
100
AcDbEntity
  8
0
  6
CONTINUOUS
 62
     7
100
AcDbLine
 10
-118.7914115112
 20
237.2528499004
 30
0.0
 11
-118.7914115112
 21
233.2528499004
 31
0.0
  0
LINE
  5
5E8
330
1F
100
AcDbEntity
  8
0
  6
CONTINUOUS
 62
     7
100
AcDbLine
 10
-126.1249343449
 20
236.8628499004
 30
0.0
 11
-126.1249343449
 21
233.6428499004
 31
0.0
  0
LINE
  5
5E9
330
1F
100
AcDbEntity
  8
0
  6
CONTINUOUS
 62
     7
100
AcDbLine
 10
-125.851853405
 20
237.2528499004
 30
0.0
 11
-125.851853405
 21
233.2528499004
 31
0.0
  0
LINE
  5
5EA
330
1F
100
AcDbEntity
  8
0
  6
CONTINUOUS
 62
     7
100
AcDbLine
 10
-126.3980152848
 20
237.2528499004
 30
0.0
 11
-126.3980152848
 21
233.2528499004
 31
0.0
  0
LINE
  5
5EB
330
1F
100
AcDbEntity
  8
0
  6
CONTINUOUS
 62
     7
100
AcDbLine
 10
-126.543362839
 20
237.2528499004
 30
0.0
 11
-126.543362839
 21
233.2528499004
 31
0.0
  0
LINE
  5
5EC
330
1F
100
AcDbEntity
  8
0
  6
CONTINUOUS
 62
     7
100
AcDbLine
 10
-143.6857511339
 20
237.2528499004
 30
0.0
 11
-143.6857511339
 21
233.2528499004
 31
0.0
  0
LINE
  5
5ED
330
1F
100
AcDbEntity
  8
0
  6
CONTINUOUS
 62
     7
100
AcDbLine
 10
-143.831098688
 20
237.2528499004
 30
0.0
 11
-143.831098688
 21
233.2528499004
 31
0.0
  0
LINE
  5
5EE
330
1F
100
AcDbEntity
  8
0
  6
CONTINUOUS
 62
     7
100
AcDbLine
 10
-129.5824815147
 20
236.8628499004
 30
0.0
 11
-129.5824815147
 21
233.6428499004
 31
0.0
  0
LINE
  5
5EF
330
1F
100
AcDbEntity
  8
0
  6
CONTINUOUS
 62
     7
100
AcDbLine
 10
-112.9862550996
 20
236.8628499004
 30
0.0
 11
-112.9862550996
 21
233.6428499004
 31
0.0
  0
LINE
  5
5F0
330
1F
100
AcDbEntity
  8
0
  6
CONTINUOUS
 62
     7
100
AcDbLine
 10
-112.7131741597
 20
237.2528499004
 30
0.0
 11
-112.7131741597
 21
233.2528499004
 31
0.0
  0
LINE
  5
5F1
330
1F
100
AcDbEntity
  8
0
  6
CONTINUOUS
 62
     7
100
AcDbLine
 10
-110.4932983037
 20
237.2528499004
 30
0.0
 11
-110.4932983037
 21
233.2528499004
 31
0.0
  0
LINE
  5
5F2
330
1F
100
AcDbEntity
  8
0
  6
CONTINUOUS
 62
     7
100
AcDbLine
 10
-120.5928588732
 20
236.8628499004
 30
0.0
 11
-120.5928588732
 21
233.6428499004
 31
0.0
  0
LINE
  5
5F3
330
1F
100
AcDbEntity
  8
0
  6
CONTINUOUS
 62
     7
100
AcDbLine
 10
-140.228203964
 20
237.2528499004
 30
0.0
 11
-140.228203964
 21
233.2528499004
 31
0.0
  0
LINE
  5
5F4
330
1F
100
AcDbEntity
  8
0
  6
CONTINUOUS
 62
     7
100
AcDbLine
 10
-121.2843683072
 20
236.8628499004
 30
0.0
 11
-121.2843683072
 21
233.6428499004
 31
0.0
  0
LINE
  5
5F5
330
1F
100
AcDbEntity
  8
0
  6
CONTINUOUS
 62
     7
100
AcDbLine
 10
-116.0253737754
 20
237.2528499004
 30
0.0
 11
-116.0253737754
 21
233.2528499004
 31
0.0
  0
LINE
  5
5F6
330
1F
100
AcDbEntity
  8
0
  6
CONTINUOUS
 62
     7
100
AcDbLine
 10
-116.1707213295
 20
237.2528499004
 30
0.0
 11
-116.1707213295
 21
233.2528499004
 31
0.0
  0
LINE
  5
5F7
330
1F
100
AcDbEntity
  8
0
  6
CONTINUOUS
 62
     7
100
AcDbLine
 10
-138.1536756622
 20
237.2528499004
 30
0.0
 11
-138.1536756622
 21
233.2528499004
 31
0.0
  0
LINE
  5
5F8
330
1F
100
AcDbEntity
  8
0
  6
CONTINUOUS
 62
     7
100
AcDbLine
 10
-143.412670194
 20
236.8628499004
 30
0.0
 11
-143.412670194
 21
233.6428499004
 31
0.0
  0
LINE
  5
5F9
330
1F
100
AcDbEntity
  8
0
  6
CONTINUOUS
 62
     7
100
AcDbLine
 10
-131.9300907565
 20
237.2528499004
 30
0.0
 11
-131.9300907565
 21
233.2528499004
 31
0.0
  0
LINE
  5
5FA
330
1F
100
AcDbEntity
  8
0
  6
CONTINUOUS
 62
     7
100
AcDbLine
 10
-132.0754383107
 20
237.2528499004
 30
0.0
 11
-132.0754383107
 21
233.2528499004
 31
0.0
  0
LINE
  5
5FB
330
1F
100
AcDbEntity
  8
0
  6
CONTINUOUS
 62
     7
100
AcDbLine
 10
-111.8763171716
 20
237.2528499004
 30
0.0
 11
-111.8763171716
 21
233.2528499004
 31
0.0
  0
LINE
  5
5FC
330
1F
100
AcDbEntity
  8
0
  6
CONTINUOUS
 62
     7
100
AcDbLine
 10
-131.6570098166
 20
236.8628499004
 30
0.0
 11
-131.6570098166
 21
233.6428499004
 31
0.0
  0
LINE
  5
5FD
330
1F
100
AcDbEntity
  8
0
  6
CONTINUOUS
 62
     7
100
AcDbLine
 10
-112.5678266056
 20
237.2528499004
 30
0.0
 11
-112.5678266056
 21
233.2528499004
 31
0.0
  0
LINE
  5
5FE
330
1F
100
AcDbEntity
  8
0
  6
CONTINUOUS
 62
     7
100
AcDbLine
 10
-122.940468115
 20
237.2528499004
 30
0.0
 11
-122.940468115
 21
233.2528499004
 31
0.0
  0
LINE
  5
5FF
330
1F
100
AcDbEntity
  8
0
  6
CONTINUOUS
 62
     7
100
AcDbLine
 10
-123.0858156691
 20
237.2528499004
 30
0.0
 11
-123.0858156691
 21
233.2528499004
 31
0.0
  0
LINE
  5
600
330
1F
100
AcDbEntity
  8
0
  6
CONTINUOUS
 62
     7
100
AcDbLine
 10
-118.0999020772
 20
237.2528499004
 30
0.0
 11
-118.0999020772
 21
233.2528499004
 31
0.0
  0
LINE
  5
601
330
1F
100
AcDbEntity
  8
0
  6
CONTINUOUS
 62
     7
100
AcDbLine
 10
-118.2452496314
 20
237.2528499004
 30
0.0
 11
-118.2452496314
 21
233.2528499004
 31
0.0
  0
LINE
  5
602
330
1F
100
AcDbEntity
  8
0
  6
CONTINUOUS
 62
     7
100
AcDbLine
 10
-123.358896609
 20
236.8628499004
 30
0.0
 11
-123.358896609
 21
233.6428499004
 31
0.0
  0
LINE
  5
603
330
1F
100
AcDbEntity
  8
0
  6
CONTINUOUS
 62
     7
100
AcDbLine
 10
-142.72116076
 20
236.8628499004
 30
0.0
 11
-142.72116076
 21
233.6428499004
 31
0.0
  0
LINE
  5
604
330
1F
100
AcDbEntity
  8
0
  6
CONTINUOUS
 62
     7
100
AcDbLine
 10
-125.7065058508
 20
237.2528499004
 30
0.0
 11
-125.7065058508
 21
233.2528499004
 31
0.0
  0
LINE
  5
605
330
1F
100
AcDbEntity
  8
0
  6
CONTINUOUS
 62
     7
100
AcDbLine
 10
-145.0687700018
 20
237.2528499004
 30
0.0
 11
-145.0687700018
 21
233.2528499004
 31
0.0
  0
LINE
  5
606
330
1F
100
AcDbEntity
  8
0
  6
CONTINUOUS
 62
     7
100
AcDbLine
 10
-116.4438022694
 20
236.8628499004
 30
0.0
 11
-116.4438022694
 21
233.6428499004
 31
0.0
  0
LINE
  5
607
330
1F
100
AcDbEntity
  8
0
  6
CONTINUOUS
 62
     7
100
AcDbLine
 10
-136.0791473603
 20
237.2528499004
 30
0.0
 11
-136.0791473603
 21
233.2528499004
 31
0.0
  0
LINE
  5
608
330
1F
100
AcDbEntity
  8
0
  6
CONTINUOUS
 62
     7
100
AcDbLine
 10
-136.2244949144
 20
237.2528499004
 30
0.0
 11
-136.2244949144
 21
233.2528499004
 31
0.0
  0
LINE
  5
609
330
1F
100
AcDbEntity
  8
0
  6
CONTINUOUS
 62
     7
100
AcDbLine
 10
-119.9013494392
 20
236.8628499004
 30
0.0
 11
-119.9013494392
 21
233.6428499004
 31
0.0
  0
LINE
  5
60A
330
1F
100
AcDbEntity
  8
0
  6
CONTINUOUS
 62
     7
100
AcDbLine
 10
-139.9551230241
 20
236.8628499004
 30
0.0
 11
-139.9551230241
 21
233.6428499004
 31
0.0
  0
LINE
  5
60B
330
1F
100
AcDbEntity
  8
0
  6
CONTINUOUS
 62
     7
100
AcDbLine
 10
-139.6820420842
 20
237.2528499004
 30
0.0
 11
-139.6820420842
 21
233.2528499004
 31
0.0
  0
LINE
  5
60C
330
1F
100
AcDbEntity
  8
0
  6
CONTINUOUS
 62
     7
100
AcDbLine
 10
-110.2202173638
 20
236.8628499004
 30
0.0
 11
-110.2202173638
 21
233.6428499004
 31
0.0
  0
LINE
  5
60D
330
1F
100
AcDbEntity
  8
0
  6
CONTINUOUS
 62
     7
100
AcDbLine
 10
-109.9471364239
 20
237.2528499004
 30
0.0
 11
-109.9471364239
 21
233.2528499004
 31
0.0
  0
LINE
  5
60E
330
1F
100
AcDbEntity
  8
0
  6
CONTINUOUS
 62
     7
100
AcDbLine
 10
-115.7522928355
 20
236.8628499004
 30
0.0
 11
-115.7522928355
 21
233.6428499004
 31
0.0
  0
LINE
  5
60F
330
1F
100
AcDbEntity
  8
0
  6
CONTINUOUS
 62
     7
100
AcDbLine
 10
-115.4792118956
 20
237.2528499004
 30
0.0
 11
-115.4792118956
 21
233.2528499004
 31
0.0
  0
LINE
  5
610
330
1F
100
AcDbEntity
  8
0
  6
CONTINUOUS
 62
     7
100
AcDbLine
 10
-135.3876379263
 20
237.2528499004
 30
0.0
 11
-135.3876379263
 21
233.2528499004
 31
0.0
  0
LINE
  5
611
330
1F
100
AcDbEntity
  8
0
  6
CONTINUOUS
 62
     7
100
AcDbLine
 10
-111.1848077376
 20
237.2528499004
 30
0.0
 11
-111.1848077376
 21
233.2528499004
 31
0.0
  0
LINE
  5
612
330
1F
100
AcDbEntity
  8
0
  6
CONTINUOUS
 62
     7
100
AcDbLine
 10
-137.8805947223
 20
236.8628499004
 30
0.0
 11
-137.8805947223
 21
233.6428499004
 31
0.0
  0
LINE
  5
613
330
1F
100
AcDbEntity
  8
0
  6
CONTINUOUS
 62
     7
100
AcDbLine
 10
-137.6075137824
 20
237.2528499004
 30
0.0
 11
-137.6075137824
 21
233.2528499004
 31
0.0
  0
LINE
  5
614
330
1F
100
AcDbEntity
  8
0
  6
CONTINUOUS
 62
     7
100
AcDbLine
 10
-115.3338643414
 20
237.2528499004
 30
0.0
 11
-115.3338643414
 21
233.2528499004
 31
0.0
  0
LINE
  5
615
330
1F
100
AcDbEntity
  8
0
  6
CONTINUOUS
 62
     7
100
AcDbLine
 10
-118.5183305713
 20
236.8628499004
 30
0.0
 11
-118.5183305713
 21
233.6428499004
 31
0.0
  0
LINE
  5
616
330
1F
100
AcDbEntity
  8
0
  6
CONTINUOUS
 62
     7
100
AcDbLine
 10
-127.7810341527
 20
237.2528499004
 30
0.0
 11
-127.7810341527
 21
233.2528499004
 31
0.0
  0
LINE
  5
617
330
1F
100
AcDbEntity
  8
0
  6
CONTINUOUS
 62
     7
100
AcDbLine
 10
-136.7706567942
 20
237.2528499004
 30
0.0
 11
-136.7706567942
 21
233.2528499004
 31
0.0
  0
LINE
  5
618
330
1F
100
AcDbEntity
  8
0
  6
CONTINUOUS
 62
     7
100
AcDbLine
 10
-136.9160043484
 20
237.2528499004
 30
0.0
 11
-136.9160043484
 21
233.2528499004
 31
0.0
  0
LINE
  5
619
330
1F
100
AcDbEntity
  8
0
  6
CONTINUOUS
 62
     7
100
AcDbLine
 10
-117.1353117034
 20
236.8628499004
 30
0.0
 11
-117.1353117034
 21
233.6428499004
 31
0.0
  0
LINE
  5
61A
330
1F
100
AcDbEntity
  8
0
  6
CONTINUOUS
 62
     7
100
AcDbLine
 10
-116.8622307635
 20
237.2528499004
 30
0.0
 11
-116.8622307635
 21
233.2528499004
 31
0.0
  0
LINE
  5
61B
330
1F
100
AcDbEntity
  8
0
  6
CONTINUOUS
 62
     7
100
AcDbLine
 10
-142.029651326
 20
236.8628499004
 30
0.0
 11
-142.029651326
 21
233.6428499004
 31
0.0
  0
LINE
  5
61C
330
1F
100
AcDbEntity
  8
0
  6
CONTINUOUS
 62
     7
100
AcDbLine
 10
-127.5079532128
 20
236.8628499004
 30
0.0
 11
-127.5079532128
 21
233.6428499004
 31
0.0
  0
LINE
  5
61D
330
1F
100
AcDbEntity
  8
0
  6
CONTINUOUS
 62
     7
100
AcDbLine
 10
-127.2348722729
 20
237.2528499004
 30
0.0
 11
-127.2348722729
 21
233.2528499004
 31
0.0
  0
LINE
  5
61E
330
1F
100
AcDbEntity
  8
0
  6
CONTINUOUS
 62
     7
100
AcDbLine
 10
-125.4334249109
 20
236.8628499004
 30
0.0
 11
-125.4334249109
 21
233.6428499004
 31
0.0
  0
LINE
  5
61F
330
1F
100
AcDbEntity
  8
0
  6
CONTINUOUS
 62
     7
100
AcDbLine
 10
-125.160343971
 20
237.2528499004
 30
0.0
 11
-125.160343971
 21
233.2528499004
 31
0.0
  0
LINE
  5
620
330
1F
100
AcDbEntity
  8
0
  6
CONTINUOUS
 62
     7
100
AcDbLine
 10
-117.8268211373
 20
236.8628499004
 30
0.0
 11
-117.8268211373
 21
233.6428499004
 31
0.0
  0
LINE
  5
621
330
1F
100
AcDbEntity
  8
0
  6
CONTINUOUS
 62
     7
100
AcDbLine
 10
-135.1145569864
 20
236.8628499004
 30
0.0
 11
-135.1145569864
 21
233.6428499004
 31
0.0
  0
LINE
  5
622
330
1F
100
AcDbEntity
  8
0
  6
CONTINUOUS
 62
     7
100
AcDbLine
 10
-134.8414760465
 20
237.2528499004
 30
0.0
 11
-134.8414760465
 21
233.2528499004
 31
0.0
  0
LINE
  5
623
330
1F
100
AcDbEntity
  8
0
  6
CONTINUOUS
 62
     7
100
AcDbLine
 10
-125.0149964169
 20
237.2528499004
 30
0.0
 11
-125.0149964169
 21
233.2528499004
 31
0.0
  0
LINE
  5
624
330
1F
100
AcDbEntity
  8
0
  6
CONTINUOUS
 62
     7
100
AcDbLine
 10
-137.1890852883
 20
236.8628499004
 30
0.0
 11
-137.1890852883
 21
233.6428499004
 31
0.0
  0
LINE
  5
625
330
1F
100
AcDbEntity
  8
0
  6
CONTINUOUS
 62
     7
100
AcDbLine
 10
-144.7956890619
 20
236.8628499004
 30
0.0
 11
-144.7956890619
 21
233.6428499004
 31
0.0
  0
LINE
  5
626
330
1F
100
AcDbEntity
  8
0
  6
CONTINUOUS
 62
     7
100
AcDbLine
 10
-144.522608122
 20
237.2528499004
 30
0.0
 11
-144.522608122
 21
233.2528499004
 31
0.0
  0
LINE
  5
627
330
1F
100
AcDbEntity
  8
0
  6
CONTINUOUS
 62
     7
100
AcDbLine
 10
-121.9758777411
 20
236.8628499004
 30
0.0
 11
-121.9758777411
 21
233.6428499004
 31
0.0
  0
LINE
  5
628
330
1F
100
AcDbEntity
  8
0
  6
CONTINUOUS
 62
     7
100
AcDbLine
 10
-139.5366945301
 20
237.2528499004
 30
0.0
 11
-139.5366945301
 21
233.2528499004
 31
0.0
  0
LINE
  5
629
330
1F
100
AcDbEntity
  8
0
  6
CONTINUOUS
 62
     7
100
AcDbLine
 10
-132.3485192506
 20
236.8628499004
 30
0.0
 11
-132.3485192506
 21
233.6428499004
 31
0.0
  0
LINE
  5
62A
330
1F
100
AcDbEntity
  8
0
  6
CONTINUOUS
 62
     7
100
AcDbLine
 10
-134.4230475524
 20
236.8628499004
 30
0.0
 11
-134.4230475524
 21
233.6428499004
 31
0.0
  0
LINE
  5
62B
330
1F
100
AcDbEntity
  8
0
  6
CONTINUOUS
 62
     7
100
AcDbLine
 10
-115.0607834015
 20
236.8628499004
 30
0.0
 11
-115.0607834015
 21
233.6428499004
 31
0.0
  0
LINE
  5
62C
330
1F
100
AcDbEntity
  8
0
  6
CONTINUOUS
 62
     7
100
AcDbLine
 10
-137.4621662282
 20
237.2528499004
 30
0.0
 11
-137.4621662282
 21
233.2528499004
 31
0.0
  0
LINE
  5
62D
330
1F
100
AcDbEntity
  8
0
  6
CONTINUOUS
 62
     7
100
AcDbLine
 10
-144.3772605678
 20
237.2528499004
 30
0.0
 11
-144.3772605678
 21
233.2528499004
 31
0.0
  0
LINE
  5
62E
330
1F
100
AcDbEntity
  8
0
  6
CONTINUOUS
 62
     7
100
AcDbLine
 10
-109.8017888697
 20
237.2528499004
 30
0.0
 11
-109.8017888697
 21
233.2528499004
 31
0.0
  0
LINE
  5
62F
330
1F
100
AcDbEntity
  8
0
  6
CONTINUOUS
 62
     7
100
AcDbLine
 10
-126.8164437789
 20
236.8628499004
 30
0.0
 11
-126.8164437789
 21
233.6428499004
 31
0.0
  0
LINE
  5
630
330
1F
100
AcDbEntity
  8
0
  6
CONTINUOUS
 62
     7
100
AcDbLine
 10
-144.1041796279
 20
236.8628499004
 30
0.0
 11
-144.1041796279
 21
233.6428499004
 31
0.0
  0
LINE
  5
631
330
1F
100
AcDbEntity
  8
0
  6
CONTINUOUS
 62
     7
100
AcDbLine
 10
-134.6961284923
 20
237.2528499004
 30
0.0
 11
-134.6961284923
 21
233.2528499004
 31
0.0
  0
LINE
  5
632
330
1F
100
AcDbEntity
  8
0
  6
CONTINUOUS
 62
     7
100
AcDbLine
 10
-127.0895247188
 20
237.2528499004
 30
0.0
 11
-127.0895247188
 21
233.2528499004
 31
0.0
  0
LINE
  5
633
330
1F
100
AcDbEntity
  8
0
  6
CONTINUOUS
 62
     7
100
AcDbLine
 10
-136.4975758543
 20
236.8628499004
 30
0.0
 11
-136.4975758543
 21
233.6428499004
 31
0.0
  0
LINE
  5
634
330
1F
100
AcDbEntity
  8
0
  6
CONTINUOUS
 62
     7
100
AcDbLine
 10
-139.2636135902
 20
236.8628499004
 30
0.0
 11
-139.2636135902
 21
233.6428499004
 31
0.0
  0
LINE
  5
635
330
1F
100
AcDbEntity
  8
0
  6
CONTINUOUS
 62
     7
100
AcDbLine
 10
-124.741915477
 20
236.8628499004
 30
0.0
 11
-124.741915477
 21
233.6428499004
 31
0.0
  0
LINE
  5
636
330
1F
100
AcDbEntity
  8
0
  6
CONTINUOUS
 62
     7
100
AcDbLine
 10
-116.7168832093
 20
237.2528499004
 30
0.0
 11
-116.7168832093
 21
233.2528499004
 31
0.0
  0
LINE
  5
637
330
1F
100
AcDbEntity
  8
0
  6
CONTINUOUS
 62
     7
100
AcDbLine
 10
-145.7602794357
 20
237.2528499004
 30
0.0
 11
-145.7602794357
 21
233.2528499004
 31
0.0
  0
LINE
  5
638
330
1F
100
AcDbEntity
  8
0
  6
CONTINUOUS
 62
     7
100
AcDbLine
 10
-145.7887069298
 20
237.1003059431
 30
0.0
 11
-145.7887069298
 21
233.2528499004
 31
0.0
  0
LINE
  5
639
330
1F
100
AcDbEntity
  8
0
  6
CONTINUOUS
 62
     7
100
AcDbLine
 10
-145.7887069298
 20
237.2528499004
 30
0.0
 11
-145.7887069298
 21
237.1003059431
 31
0.0
  0
LINE
  5
63A
330
1F
100
AcDbEntity
  8
0
  6
CONTINUOUS
 62
     7
100
AcDbLine
 10
-146.1787069298
 20
236.7400520148
 30
0.0
 11
-146.1787069298
 21
233.6428499004
 31
0.0
  0
LINE
  5
63B
330
1F
100
AcDbEntity
  8
0
  6
CONTINUOUS
 62
     7
100
AcDbLine
 10
-146.1787069298
 20
236.8628499004
 30
0.0
 11
-146.1787069298
 21
236.7400520148
 31
0.0
  0
LINE
  5
63C
330
1F
100
AcDbEntity
  8
0
  6
CONTINUOUS
 62
     7
100
AcDbLine
 10
-151.2287069298
 20
232.6596295615
 30
0.0
 11
-151.2287069298
 21
237.8460702394
 31
0.0
  0
ARC
  5
63D
330
1F
100
AcDbEntity
  8
0
  6
CONTINUOUS
 62
     7
100
AcDbCircle
 10
-151.2255469183
 20
237.7991942009
 30
0.0
 40
0.0469824292992691
100
AcDbArc
 50
4.4626915246
 51
93.8565930628
  0
LINE
  5
63E
330
1F
100
AcDbEntity
  8
0
  6
CONTINUOUS
 62
     7
100
AcDbLine
 10
-151.1787069298
 20
237.8028499004
 30
0.0
 11
-151.1787069298
 21
232.7028499004
 31
0.0
  0
ARC
  5
63F
330
1F
100
AcDbEntity
  8
0
  6
CONTINUOUS
 62
     7
100
AcDbCircle
 10
-151.2255469183
 20
232.7065056
 30
0.0
 40
0.0469824292992172
100
AcDbArc
 50
266.1434069372
 51
355.5373084755
  0
LINE
  5
640
330
1F
100
AcDbEntity
  8
0
  6
CONTINUOUS
 62
     7
100
AcDbLine
 10
-164.1787069298
 20
237.8528499004
 30
0.0
 11
-151.2287069298
 21
237.8528499004
 31
0.0
  0
LINE
  5
641
330
1F
100
AcDbEntity
  8
0
  6
CONTINUOUS
 62
     7
100
AcDbLine
 10
-151.2287069298
 20
237.8528499004
 30
0.0
 11
-151.2287069298
 21
237.8460702394
 31
0.0
  0
ARC
  5
642
330
1F
100
AcDbEntity
  8
0
  6
CONTINUOUS
 62
     7
100
AcDbCircle
 10
-151.2287069298
 20
237.8028499004
 30
0.0
 40
0.0500000000000114
100
AcDbArc
 50
0.0
 51
90.0
  0
ARC
  5
643
330
1F
100
AcDbEntity
  8
0
  6
CONTINUOUS
 62
     7
100
AcDbCircle
 10
-151.2287069298
 20
232.7028499004
 30
0.0
 40
0.0500000000000114
100
AcDbArc
 50
270.0
 51
0.0
  0
LINE
  5
644
330
1F
100
AcDbEntity
  8
0
  6
CONTINUOUS
 62
     7
100
AcDbLine
 10
-151.2287069298
 20
232.6596295615
 30
0.0
 11
-151.2287069298
 21
232.6528499004
 31
0.0
  0
LINE
  5
645
330
1F
100
AcDbEntity
  8
0
  6
CONTINUOUS
 62
     7
100
AcDbLine
 10
-151.2287069298
 20
232.6528499004
 30
0.0
 11
-164.1787069298
 21
232.6528499004
 31
0.0
  0
LINE
  5
646
330
1F
100
AcDbEntity
  8
0
  6
CONTINUOUS
 62
     7
100
AcDbLine
 10
-115.1787069298
 20
251.8587936
 30
0.0
 11
-115.1787069298
 21
260.5028499004
 31
0.0
  0
LINE
  5
647
330
1F
100
AcDbEntity
  8
0
  6
CONTINUOUS
 62
     7
100
AcDbLine
 10
-115.1787069298
 20
248.0028499004
 30
0.0
 11
-115.1787069298
 21
251.8587936
 31
0.0
  0
LINE
  5
648
330
1F
100
AcDbEntity
  8
0
  6
CONTINUOUS
 62
     7
100
AcDbLine
 10
-114.9287069298
 20
251.763031348
 30
0.0
 11
-114.9287069298
 21
247.7528499004
 31
0.0
  0
LINE
  5
649
330
1F
100
AcDbEntity
  8
0
  6
CONTINUOUS
 62
     7
100
AcDbLine
 10
-114.9287069298
 20
260.7528499004
 30
0.0
 11
-114.9287069298
 21
251.763031348
 31
0.0
  0
LINE
  5
64A
330
1F
100
AcDbEntity
  8
0
  6
CONTINUOUS
 62
     7
100
AcDbLine
 10
-158.4287069298
 20
247.7528499004
 30
0.0
 11
-158.4287069298
 21
260.7528499004
 31
0.0
  0
LINE
  5
64B
330
1F
100
AcDbEntity
  8
0
  6
CONTINUOUS
 62
     7
100
AcDbLine
 10
-158.1787069298
 20
260.5028499004
 30
0.0
 11
-158.1787069298
 21
248.0028499004
 31
0.0
  0
LINE
  5
64C
330
1F
100
AcDbEntity
  8
0
  6
CONTINUOUS
 62
     7
100
AcDbLine
 10
-168.1787069298
 20
254.2471550743
 30
0.0
 11
-168.1787069298
 21
250.9314809155
 31
0.0
  0
LINE
  5
64D
330
1F
100
AcDbEntity
  8
0
  6
CONTINUOUS
 62
     7
100
AcDbLine
 10
-168.1787069298
 20
257.5647275084
 30
0.0
 11
-168.1787069298
 21
254.2471550743
 31
0.0
  0
LINE
  5
64E
330
1F
100
AcDbEntity
  8
0
  6
CONTINUOUS
 62
     7
100
AcDbLine
 10
-105.1787069298
 20
254.2471550743
 30
0.0
 11
-105.1787069298
 21
257.5647275084
 31
0.0
  0
LINE
  5
64F
330
1F
100
AcDbEntity
  8
0
  6
CONTINUOUS
 62
     7
100
AcDbLine
 10
-105.1787069298
 20
250.9314809155
 30
0.0
 11
-105.1787069298
 21
254.2471550743
 31
0.0
  0
LINE
  5
650
330
1F
100
AcDbEntity
  8
0
  6
CONTINUOUS
 62
     7
100
AcDbLine
 10
-106.1787069298
 20
262.2528499004
 30
0.0
 11
-109.1787069298
 21
262.2528499004
 31
0.0
  0
LINE
  5
651
330
1F
100
AcDbEntity
  8
0
  6
CONTINUOUS
 62
     7
100
AcDbLine
 10
-109.1787069298
 20
267.2528499004
 30
0.0
 11
-106.1787069298
 21
267.2528499004
 31
0.0
  0
LINE
  5
652
330
1F
100
AcDbEntity
  8
0
  6
CONTINUOUS
 62
     7
100
AcDbLine
 10
-109.1787069298
 20
262.2528499004
 30
0.0
 11
-109.1787069298
 21
267.2528499004
 31
0.0
  0
LINE
  5
653
330
1F
100
AcDbEntity
  8
0
  6
CONTINUOUS
 62
     7
100
AcDbLine
 10
-106.1787069298
 20
267.2528499004
 30
0.0
 11
-106.1787069298
 21
262.2528499004
 31
0.0
  0
LINE
  5
654
330
1F
100
AcDbEntity
  8
0
  6
CONTINUOUS
 62
     7
100
AcDbLine
 10
-109.1787069298
 20
234.2528499004
 30
0.0
 11
-106.1787069298
 21
234.2528499004
 31
0.0
  0
LINE
  5
655
330
1F
100
AcDbEntity
  8
0
  6
CONTINUOUS
 62
     7
100
AcDbLine
 10
-109.1787069298
 20
262.2528499004
 30
0.0
 11
-109.1787069298
 21
234.2528499004
 31
0.0
  0
LINE
  5
656
330
1F
100
AcDbEntity
  8
0
  6
CONTINUOUS
 62
     7
100
AcDbLine
 10
-106.1787069298
 20
262.2528499004
 30
0.0
 11
-106.1787069298
 21
234.2528499004
 31
0.0
  0
LINE
  5
657
330
1F
100
AcDbEntity
  8
0
  6
CONTINUOUS
 62
     7
100
AcDbLine
 10
-106.1787069298
 20
229.2528499004
 30
0.0
 11
-109.1787069298
 21
229.2528499004
 31
0.0
  0
LINE
  5
658
330
1F
100
AcDbEntity
  8
0
  6
CONTINUOUS
 62
     7
100
AcDbLine
 10
-109.1787069298
 20
229.2528499004
 30
0.0
 11
-109.1787069298
 21
234.2528499004
 31
0.0
  0
LINE
  5
659
330
1F
100
AcDbEntity
  8
0
  6
CONTINUOUS
 62
     7
100
AcDbLine
 10
-106.1787069298
 20
234.2528499004
 30
0.0
 11
-106.1787069298
 21
229.2528499004
 31
0.0
  0
LINE
  5
65A
330
1F
100
AcDbEntity
  8
0
  6
CONTINUOUS
 62
     7
100
AcDbLine
 10
-164.1787069298
 20
262.2528499004
 30
0.0
 11
-167.1787069298
 21
262.2528499004
 31
0.0
  0
LINE
  5
65B
330
1F
100
AcDbEntity
  8
0
  6
CONTINUOUS
 62
     7
100
AcDbLine
 10
-167.1787069298
 20
262.2528499004
 30
0.0
 11
-167.1787069298
 21
267.2528499004
 31
0.0
  0
LINE
  5
65C
330
1F
100
AcDbEntity
  8
0
  6
CONTINUOUS
 62
     7
100
AcDbLine
 10
-167.1787069298
 20
267.2528499004
 30
0.0
 11
-164.1787069298
 21
267.2528499004
 31
0.0
  0
LINE
  5
65D
330
1F
100
AcDbEntity
  8
0
  6
CONTINUOUS
 62
     7
100
AcDbLine
 10
-164.1787069298
 20
267.2528499004
 30
0.0
 11
-164.1787069298
 21
262.2528499004
 31
0.0
  0
LINE
  5
65E
330
1F
100
AcDbEntity
  8
0
  6
CONTINUOUS
 62
     7
100
AcDbLine
 10
-167.1787069298
 20
234.2528499004
 30
0.0
 11
-164.1787069298
 21
234.2528499004
 31
0.0
  0
LINE
  5
65F
330
1F
100
AcDbEntity
  8
0
  6
CONTINUOUS
 62
     7
100
AcDbLine
 10
-164.1787069298
 20
262.2528499004
 30
0.0
 11
-164.1787069298
 21
234.2528499004
 31
0.0
  0
LINE
  5
660
330
1F
100
AcDbEntity
  8
0
  6
CONTINUOUS
 62
     7
100
AcDbLine
 10
-167.1787069298
 20
262.2528499004
 30
0.0
 11
-167.1787069298
 21
234.2528499004
 31
0.0
  0
LINE
  5
661
330
1F
100
AcDbEntity
  8
0
  6
CONTINUOUS
 62
     7
100
AcDbLine
 10
-164.1787069298
 20
229.2528499004
 30
0.0
 11
-167.1787069298
 21
229.2528499004
 31
0.0
  0
LINE
  5
662
330
1F
100
AcDbEntity
  8
0
  6
CONTINUOUS
 62
     7
100
AcDbLine
 10
-164.1787069298
 20
234.2528499004
 30
0.0
 11
-164.1787069298
 21
229.2528499004
 31
0.0
  0
LINE
  5
663
330
1F
100
AcDbEntity
  8
0
  6
CONTINUOUS
 62
     7
100
AcDbLine
 10
-167.1787069298
 20
229.2528499004
 30
0.0
 11
-167.1787069298
 21
234.2528499004
 31
0.0
  0
LINE
  5
664
330
1F
100
AcDbEntity
  8
0
  6
CONTINUOUS
 62
     7
100
AcDbLine
 10
-173.9956941382
 20
267.1858562866
 30
0.0
 11
-173.8126813466
 21
267.2528440448
 31
0.0
  0
LINE
  5
665
330
1F
100
AcDbEntity
  8
0
  6
CONTINUOUS
 62
     7
100
AcDbLine
 10
-179.544732513
 20
267.2528440448
 30
0.0
 11
-179.3617197214
 21
267.1858562866
 31
0.0
  0
LINE
  5
666
330
1F
100
AcDbEntity
  8
0
  6
CONTINUOUS
 62
     7
100
AcDbLine
 10
-93.8126813466
 20
267.2528440448
 30
0.0
 11
-94.0700421066
 21
267.1586428679
 31
0.0
  0
LINE
  5
667
330
1F
100
AcDbEntity
  8
0
  6
CONTINUOUS
 62
     7
100
AcDbLine
 10
-99.287371753
 20
267.1586428679
 30
0.0
 11
-99.544732513
 21
267.2528440448
 31
0.0
  0
LINE
  5
668
330
1F
100
AcDbEntity
  8
0
  6
CONTINUOUS
 62
     7
100
AcDbLine
 10
-151.2287069298
 20
237.8460702394
 30
0.0
 11
-164.1787069298
 21
237.8460702394
 31
0.0
  0
LINE
  5
669
330
1F
100
AcDbEntity
  8
0
  6
CONTINUOUS
 62
     7
100
AcDbLine
 10
-164.1787069298
 20
232.6596295615
 30
0.0
 11
-151.2287069298
 21
232.6596295615
 31
0.0
  0
ENDSEC
  0
SECTION
  2
OBJECTS
  0
DICTIONARY
  5
C
330
0
100
AcDbDictionary
  3
ACAD_GROUP
350
D
  3
ACAD_MLINESTYLE
350
17
  3
ACAD_SCALELIST
350
47
  3
DWGPROPS
350
66A
  0
DICTIONARY
  5
D
102
{ACAD_REACTORS
330
C
102
}
330
C
100
AcDbDictionary
  0
DICTIONARY
  5
17
102
{ACAD_REACTORS
330
C
102
}
330
C
100
AcDbDictionary
  3
STANDARD
350
18
  0
DICTIONARY
  5
47
102
{ACAD_REACTORS
330
C
102
}
330
C
100
AcDbDictionary
  0
XRECORD
  5
66A
102
{ACAD_REACTORS
330
C
102
}
330
C
100
AcDbXrecord
  1
DWGPROPS COOKIE
  2

  3

  4

  6

  7

  8
Pedro.Queiros
  9

300
=
301
=
302
=
303
=
304
=
305
=
306
=
307
=
308
=
309
=
 40
0.0
 41
2459594.481293287
 42
2459594.481294086
  1

 90
        0
  0
MLINESTYLE
  5
18
102
{ACAD_REACTORS
330
17
102
}
330
17
100
AcDbMlineStyle
  2
Standard
 70
     0
  3

 62
   256
 51
90.0
 52
90.0
 71
     2
 49
0.5
 62
   256
  6
BYLAYER
 49
-0.5
 62
   256
  6
BYLAYER
  0
ENDSEC
  0
EOF
