  0
SECTION
  2
HEADER
  9
$ACADVER
  1
AC1015
  9
$ACADMAINTVER
 70
     6
  9
$DWGCODEPAGE
  3
ANSI_1252
  9
$INSBASE
 10
0.0
 20
0.0
 30
0.0
  9
$EXTMIN
 10
0.0
 20
0.0
 30
0.0
  9
$EXTMAX
 10
279.4
 20
215.9
 30
0.0
  9
$LIMMIN
 10
0.0
 20
0.0
  9
$LIMMAX
 10
279.4
 20
215.9
  9
$ORTHOMODE
 70
     0
  9
$REGENMODE
 70
     1
  9
$FILLMODE
 70
     1
  9
$QTEXTMODE
 70
     0
  9
$MIRRTEXT
 70
     1
  9
$LTSCALE
 40
1.0
  9
$ATTMODE
 70
     1
  9
$TEXTSIZE
 40
3.5
  9
$TRACEWID
 40
1.0
  9
$TEXTSTYLE
  7
Standard
  9
$CLAYER
  8
0
  9
$CELTYPE
  6
ByLayer
  9
$CECOLOR
 62
   256
  9
$CELTSCALE
 40
1.0
  9
$DISPSILH
 70
     0
  9
$DIMSCALE
 40
1.0
  9
$DIMASZ
 40
3.302
  9
$DIMEXO
 40
1.0
  9
$DIMDLI
 40
3.75
  9
$DIMRND
 40
0.0
  9
$DIMDLE
 40
0.0
  9
$DIMEXE
 40
1.0
  9
$DIMTP
 40
0.0
  9
$DIMTM
 40
0.0
  9
$DIMTXT
 40
3.5
  9
$DIMCEN
 40
2.5
  9
$DIMTSZ
 40
0.0
  9
$DIMTOL
 70
     0
  9
$DIMLIM
 70
     0
  9
$DIMTIH
 70
     1
  9
$DIMTOH
 70
     1
  9
$DIMSE1
 70
     0
  9
$DIMSE2
 70
     0
  9
$DIMTAD
 70
     1
  9
$DIMZIN
 70
     0
  9
$DIMBLK
  1

  9
$DIMASO
 70
     1
  9
$DIMSHO
 70
     1
  9
$DIMPOST
  1

  9
$DIMAPOST
  1

  9
$DIMALT
 70
     0
  9
$DIMALTD
 70
     3
  9
$DIMALTF
 40
0.0393700787
  9
$DIMLFAC
 40
2.0
  9
$DIMTOFL
 70
     1
  9
$DIMTVP
 40
0.0
  9
$DIMTIX
 70
     0
  9
$DIMSOXD
 70
     0
  9
$DIMSAH
 70
     0
  9
$DIMBLK1
  1

  9
$DIMBLK2
  1

  9
$DIMSTYLE
  2
ISO-25
  9
$DIMCLRD
 70
     0
  9
$DIMCLRE
 70
     0
  9
$DIMCLRT
 70
     0
  9
$DIMTFAC
 40
1.0
  9
$DIMGAP
 40
1.524
  9
$DIMJUST
 70
     0
  9
$DIMSD1
 70
     0
  9
$DIMSD2
 70
     0
  9
$DIMTOLJ
 70
     0
  9
$DIMTZIN
 70
     0
  9
$DIMALTZ
 70
     0
  9
$DIMALTTZ
 70
     0
  9
$DIMUPT
 70
     0
  9
$DIMDEC
 70
     2
  9
$DIMTDEC
 70
     2
  9
$DIMALTU
 70
     2
  9
$DIMALTTD
 70
     3
  9
$DIMTXSTY
  7
Standard
  9
$DIMAUNIT
 70
     0
  9
$DIMADEC
 70
     2
  9
$DIMALTRND
 40
0.0
  9
$DIMAZIN
 70
     0
  9
$DIMDSEP
 70
    44
  9
$DIMATFIT
 70
     3
  9
$DIMFRAC
 70
     0
  9
$DIMLDRBLK
  1

  9
$DIMLUNIT
 70
     2
  9
$DIMLWD
 70
    -2
  9
$DIMLWE
 70
    -2
  9
$DIMTMOVE
 70
     0
  9
$LUNITS
 70
     2
  9
$LUPREC
 70
     2
  9
$SKETCHINC
 40
1.0
  9
$FILLETRAD
 40
10.0
  9
$AUNITS
 70
     0
  9
$AUPREC
 70
     2
  9
$MENU
  1
.
  9
$ELEVATION
 40
0.0
  9
$PELEVATION
 40
0.0
  9
$THICKNESS
 40
0.0
  9
$LIMCHECK
 70
     0
  9
$CHAMFERA
 40
0.0
  9
$CHAMFERB
 40
0.0
  9
$CHAMFERC
 40
0.0
  9
$CHAMFERD
 40
0.0
  9
$SKPOLY
 70
     0
  9
$TDCREATE
 40
2458206.731094155
  9
$TDUCREATE
 40
2458206.689427488
  9
$TDUPDATE
 40
2458206.731094502
  9
$TDUUPDATE
 40
2458206.689427836
  9
$TDINDWG
 40
0.0000000116
  9
$TDUSRTIMER
 40
0.0000000116
  9
$USRTIMER
 70
     1
  9
$ANGBASE
 50
0.0
  9
$ANGDIR
 70
     0
  9
$PDMODE
 70
     0
  9
$PDSIZE
 40
-1.0
  9
$PLINEWID
 40
0.0
  9
$SPLFRAME
 70
     0
  9
$SPLINETYPE
 70
     6
  9
$SPLINESEGS
 70
     8
  9
$HANDSEED
  5
1F7
  9
$SURFTAB1
 70
     6
  9
$SURFTAB2
 70
     6
  9
$SURFTYPE
 70
     6
  9
$SURFU
 70
     6
  9
$SURFV
 70
     6
  9
$UCSBASE
  2

  9
$UCSNAME
  2

  9
$UCSORG
 10
0.0
 20
0.0
 30
0.0
  9
$UCSXDIR
 10
1.0
 20
0.0
 30
0.0
  9
$UCSYDIR
 10
0.0
 20
1.0
 30
0.0
  9
$UCSORTHOREF
  2

  9
$UCSORTHOVIEW
 70
     0
  9
$UCSORGTOP
 10
0.0
 20
0.0
 30
0.0
  9
$UCSORGBOTTOM
 10
0.0
 20
0.0
 30
0.0
  9
$UCSORGLEFT
 10
0.0
 20
0.0
 30
0.0
  9
$UCSORGRIGHT
 10
0.0
 20
0.0
 30
0.0
  9
$UCSORGFRONT
 10
0.0
 20
0.0
 30
0.0
  9
$UCSORGBACK
 10
0.0
 20
0.0
 30
0.0
  9
$PUCSBASE
  2

  9
$PUCSNAME
  2

  9
$PUCSORG
 10
0.0
 20
0.0
 30
0.0
  9
$PUCSXDIR
 10
1.0
 20
0.0
 30
0.0
  9
$PUCSYDIR
 10
0.0
 20
1.0
 30
0.0
  9
$PUCSORTHOREF
  2

  9
$PUCSORTHOVIEW
 70
     0
  9
$PUCSORGTOP
 10
0.0
 20
0.0
 30
0.0
  9
$PUCSORGBOTTOM
 10
0.0
 20
0.0
 30
0.0
  9
$PUCSORGLEFT
 10
0.0
 20
0.0
 30
0.0
  9
$PUCSORGRIGHT
 10
0.0
 20
0.0
 30
0.0
  9
$PUCSORGFRONT
 10
0.0
 20
0.0
 30
0.0
  9
$PUCSORGBACK
 10
0.0
 20
0.0
 30
0.0
  9
$USERI1
 70
     0
  9
$USERI2
 70
     0
  9
$USERI3
 70
     0
  9
$USERI4
 70
     0
  9
$USERI5
 70
     0
  9
$USERR1
 40
0.0
  9
$USERR2
 40
0.0
  9
$USERR3
 40
0.0
  9
$USERR4
 40
0.0
  9
$USERR5
 40
0.0
  9
$WORLDVIEW
 70
     1
  9
$SHADEDGE
 70
     3
  9
$SHADEDIF
 70
    70
  9
$TILEMODE
 70
     1
  9
$MAXACTVP
 70
    64
  9
$PINSBASE
 10
0.0
 20
0.0
 30
0.0
  9
$PLIMCHECK
 70
     0
  9
$PEXTMIN
 10
1.0000000000E+20
 20
1.0000000000E+20
 30
1.0000000000E+20
  9
$PEXTMAX
 10
-1.0000000000E+20
 20
-1.0000000000E+20
 30
-1.0000000000E+20
  9
$PLIMMIN
 10
0.0
 20
0.0
  9
$PLIMMAX
 10
420.0
 20
297.0
  9
$UNITMODE
 70
     0
  9
$VISRETAIN
 70
     1
  9
$PLINEGEN
 70
     0
  9
$PSLTSCALE
 70
     1
  9
$TREEDEPTH
 70
  3020
  9
$CMLSTYLE
  2
Standard
  9
$CMLJUST
 70
     0
  9
$CMLSCALE
 40
20.0
  9
$PROXYGRAPHICS
 70
     1
  9
$MEASUREMENT
 70
     1
  9
$CELWEIGHT
370
    -1
  9
$ENDCAPS
280
     0
  9
$JOINSTYLE
280
     0
  9
$LWDISPLAY
290
     1
  9
$INSUNITS
 70
     4
  9
$HYPERLINKBASE
  1

  9
$STYLESHEET
  1

  9
$XEDIT
290
     1
  9
$CEPSNTYPE
380
     0
  9
$PSTYLEMODE
290
     1
  9
$FINGERPRINTGUID
  2
{F8B41E7A-63A2-4C68-830B-2514E76A66B0}
  9
$VERSIONGUID
  2
{FAEB1C32-E019-11D5-929B-00C0DF256EC4}
  9
$EXTNAMES
290
     1
  9
$PSVPSCALE
 40
0.0
  9
$OLESTARTUP
290
     0
  0
ENDSEC
  0
SECTION
  2
CLASSES
  0
CLASS
  1
ACDBDICTIONARYWDFLT
  2
AcDbDictionaryWithDefault
  3
ObjectDBX Classes
 90
        0
280
     0
281
     0
  0
CLASS
  1
VISUALSTYLE
  2
AcDbVisualStyle
  3
ObjectDBX Classes
 90
     4095
280
     0
281
     0
  0
CLASS
  1
MATERIAL
  2
AcDbMaterial
  3
ObjectDBX Classes
 90
     1153
280
     0
281
     0
  0
CLASS
  1
SCALE
  2
AcDbScale
  3
ObjectDBX Classes
 90
     1153
280
     0
281
     0
  0
CLASS
  1
TABLESTYLE
  2
AcDbTableStyle
  3
ObjectDBX Classes
 90
     4095
280
     0
281
     0
  0
CLASS
  1
MLEADERSTYLE
  2
AcDbMLeaderStyle
  3
ACDB_MLEADERSTYLE_CLASS
 90
     4095
280
     0
281
     0
  0
CLASS
  1
SUN
  2
AcDbSun
  3
SCENEOE
 90
     1153
280
     0
281
     0
  0
CLASS
  1
ACDBPLACEHOLDER
  2
AcDbPlaceHolder
  3
ObjectDBX Classes
 90
        0
280
     0
281
     0
  0
CLASS
  1
LAYOUT
  2
AcDbLayout
  3
ObjectDBX Classes
 90
        0
280
     0
281
     0
  0
ENDSEC
  0
SECTION
  2
TABLES
  0
TABLE
  2
VPORT
  5
8
330
0
100
AcDbSymbolTable
 70
     1
  0
VPORT
  5
29
330
8
100
AcDbSymbolTableRecord
100
AcDbViewportTableRecord
  2
*Active
 70
     0
 10
0.0
 20
0.0
 11
1.0
 21
1.0
 12
139.7
 22
107.95
 13
0.0
 23
0.0
 14
10.0
 24
10.0
 15
10.0
 25
10.0
 16
0.0
 26
0.0
 36
1.0
 17
0.0
 27
0.0
 37
0.0
 40
215.9
 41
1.2941176471
 42
50.0
 43
0.0
 44
0.0
 50
0.0
 51
0.0
 71
     0
 72
  2000
 73
     1
 74
     3
 75
     0
 76
     0
 77
     0
 78
     0
281
     0
 65
     1
110
0.0
120
0.0
130
0.0
111
1.0
121
0.0
131
0.0
112
0.0
122
1.0
132
0.0
 79
     0
146
0.0
  0
ENDTAB
  0
TABLE
  2
LTYPE
  5
5
330
0
100
AcDbSymbolTable
 70
     6
  0
LTYPE
  5
14
330
5
100
AcDbSymbolTableRecord
100
AcDbLinetypeTableRecord
  2
ByBlock
 70
     0
  3

 72
    65
 73
     0
 40
0.0
  0
LTYPE
  5
15
330
5
100
AcDbSymbolTableRecord
100
AcDbLinetypeTableRecord
  2
ByLayer
 70
     0
  3

 72
    65
 73
     0
 40
0.0
  0
LTYPE
  5
16
330
5
100
AcDbSymbolTableRecord
100
AcDbLinetypeTableRecord
  2
Continuous
 70
     0
  3
Solid line
 72
    65
 73
     0
 40
0.0
  0
LTYPE
  5
6E
330
5
100
AcDbSymbolTableRecord
100
AcDbLinetypeTableRecord
  2
HIDDEN
 70
     0
  3
Hidden __ __ __ __ __ __ __ __ __ __ __ __ __ __
 72
    65
 73
     2
 40
1.905
 49
1.27
 74
     0
 49
-0.635
 74
     0
  0
LTYPE
  5
6F
330
5
100
AcDbSymbolTableRecord
100
AcDbLinetypeTableRecord
  2
PHANTOM
 70
     0
  3
Phantom ______  __  __  ______  __  __  ______
 72
    65
 73
     6
 40
12.7
 49
6.35
 74
     0
 49
-1.27
 74
     0
 49
1.27
 74
     0
 49
-1.27
 74
     0
 49
1.27
 74
     0
 49
-1.27
 74
     0
  0
LTYPE
  5
70
330
5
100
AcDbSymbolTableRecord
100
AcDbLinetypeTableRecord
  2
CENTER
 70
     0
  3
Center ____ _ ____ _ ____ _ ____ _ ____ _ ____
 72
    65
 73
     4
 40
10.16
 49
6.35
 74
     0
 49
-1.27
 74
     0
 49
1.27
 74
     0
 49
-1.27
 74
     0
  0
LTYPE
  5
71
330
5
100
AcDbSymbolTableRecord
100
AcDbLinetypeTableRecord
  2
CENTERX2
 70
     0
  3
Center (2x) ________  __  ________  __  _____
 72
    65
 73
     4
 40
20.32
 49
12.7
 74
     0
 49
-2.54
 74
     0
 49
2.54
 74
     0
 49
-2.54
 74
     0
  0
LTYPE
  5
72
330
5
100
AcDbSymbolTableRecord
100
AcDbLinetypeTableRecord
  2
DOT2
 70
     0
  3
Dot (.5x) ........................................
 72
    65
 73
     2
 40
0.635
 49
0.0
 74
     0
 49
-0.635
 74
     0
  0
ENDTAB
  0
TABLE
  2
LAYER
  5
2
330
0
100
AcDbSymbolTable
 70
     1
  0
LAYER
  5
10
330
2
100
AcDbSymbolTableRecord
100
AcDbLayerTableRecord
  2
0
 70
     0
 62
     7
  6
Continuous
370
    -3
390
F
  0
ENDTAB
  0
TABLE
  2
STYLE
  5
3
330
0
100
AcDbSymbolTable
 70
     1
  0
STYLE
  5
11
330
3
100
AcDbSymbolTableRecord
100
AcDbTextStyleTableRecord
  2
Standard
 70
     0
 40
0.0
 41
1.0
 50
0.0
 71
     0
 42
3.5
  3
txt
  4

  0
ENDTAB
  0
TABLE
  2
VIEW
  5
6
330
0
100
AcDbSymbolTable
 70
     0
  0
ENDTAB
  0
TABLE
  2
UCS
  5
7
330
0
100
AcDbSymbolTable
 70
     0
  0
ENDTAB
  0
TABLE
  2
APPID
  5
9
330
0
100
AcDbSymbolTable
 70
     1
  0
APPID
  5
12
330
9
100
AcDbSymbolTableRecord
100
AcDbRegAppTableRecord
  2
ACAD
 70
     0
  0
ENDTAB
  0
TABLE
  2
DIMSTYLE
  5
A
330
0
100
AcDbSymbolTable
 70
     1
100
AcDbDimStyleTable
  0
DIMSTYLE
105
27
330
A
100
AcDbSymbolTableRecord
100
AcDbDimStyleTableRecord
  2
ISO-25
 70
     0
 41
2.5
 42
0.625
 43
3.75
 44
1.25
 73
     0
 74
     0
 77
     1
 78
     8
140
2.5
141
2.5
143
0.0393700787
147
0.625
171
     3
172
     1
178
     0
271
     2
272
     2
274
     3
278
    44
283
     0
284
     8
340
11
  0
ENDTAB
  0
TABLE
  2
BLOCK_RECORD
  5
1
330
0
100
AcDbSymbolTable
 70
     1
  0
BLOCK_RECORD
  5
1F
330
1
100
AcDbSymbolTableRecord
100
AcDbBlockTableRecord
  2
*Model_Space
340
22
  0
BLOCK_RECORD
  5
1B
330
1
100
AcDbSymbolTableRecord
100
AcDbBlockTableRecord
  2
*Paper_Space
340
1E
  0
BLOCK_RECORD
  5
23
330
1
100
AcDbSymbolTableRecord
100
AcDbBlockTableRecord
  2
*Paper_Space0
340
26
  0
ENDTAB
  0
ENDSEC
  0
SECTION
  2
BLOCKS
  0
BLOCK
  5
20
330
1F
100
AcDbEntity
  8
0
100
AcDbBlockBegin
  2
*Model_Space
 70
     0
 10
0.0
 20
0.0
 30
0.0
  3
*Model_Space
  1

  0
ENDBLK
  5
21
330
1F
100
AcDbEntity
  8
0
100
AcDbBlockEnd
  0
BLOCK
  5
1C
330
1B
100
AcDbEntity
 67
     1
  8
0
100
AcDbBlockBegin
  2
*Paper_Space
 70
     0
 10
0.0
 20
0.0
 30
0.0
  3
*Paper_Space
  1

  0
ENDBLK
  5
1D
330
1B
100
AcDbEntity
 67
     1
  8
0
100
AcDbBlockEnd
  0
BLOCK
  5
24
330
23
100
AcDbEntity
  8
0
100
AcDbBlockBegin
  2
*Paper_Space0
 70
     0
 10
0.0
 20
0.0
 30
0.0
  3
*Paper_Space0
  1

  0
ENDBLK
  5
25
330
23
100
AcDbEntity
  8
0
100
AcDbBlockEnd
  0
ENDSEC
  0
SECTION
  2
ENTITIES
  0
LINE
  5
73
330
1F
100
AcDbEntity
  8
0
  6
Continuous
 62
     7
370
    15
100
AcDbLine
 10
126.6970293123
 20
103.0909684329
 30
0.0
 11
126.0944536664
 21
103.0909684329
 31
0.0
  0
LINE
  5
74
330
1F
100
AcDbEntity
  8
0
  6
Continuous
 62
     7
370
    15
100
AcDbLine
 10
126.0947082833
 20
90.0909684329
 30
0.0
 11
126.6970293123
 21
90.0909684329
 31
0.0
  0
ARC
  5
75
330
1F
100
AcDbEntity
  8
0
  6
Continuous
 62
     7
370
    15
100
AcDbCircle
 10
126.6970293123
 20
102.2909684329
 30
0.0
 40
0.8000000000000114
100
AcDbArc
 50
360.0
 51
90.0
  0
ARC
  5
76
330
1F
100
AcDbEntity
  8
0
  6
Continuous
 62
     7
370
    15
100
AcDbCircle
 10
126.6970293123
 20
90.8909684329
 30
0.0
 40
0.8000000000000256
100
AcDbArc
 50
270.0
 51
360.0
  0
ARC
  5
77
330
1F
100
AcDbEntity
  8
0
  6
Continuous
 62
     7
370
    15
100
AcDbCircle
 10
126.6970293123
 20
152.2909684329
 30
0.0
 40
0.7999999999999972
100
AcDbArc
 50
360.0
 51
90.0
  0
ARC
  5
78
330
1F
100
AcDbEntity
  8
0
  6
Continuous
 62
     7
370
    15
100
AcDbCircle
 10
126.6970293123
 20
140.8909684329
 30
0.0
 40
0.7999999999999972
100
AcDbArc
 50
270.0
 51
0.0
  0
LINE
  5
79
330
1F
100
AcDbEntity
  8
0
  6
Continuous
 62
     7
370
    15
100
AcDbLine
 10
126.6970293123
 20
153.0909684329
 30
0.0
 11
126.0944536664
 21
153.0909684329
 31
0.0
  0
LINE
  5
7A
330
1F
100
AcDbEntity
  8
0
  6
Continuous
 62
     7
370
    15
100
AcDbLine
 10
126.0947082833
 20
140.0909684329
 30
0.0
 11
126.6970293123
 21
140.0909684329
 31
0.0
  0
LINE
  5
7B
330
1F
100
AcDbEntity
  8
0
  6
Continuous
 62
     7
370
    15
100
AcDbLine
 10
88.4970293123
 20
129.0909684329
 30
0.0
 11
90.4970293123
 21
129.0909684329
 31
0.0
  0
LINE
  5
7C
330
1F
100
AcDbEntity
  8
0
  6
Continuous
 62
     7
370
    15
100
AcDbLine
 10
90.4970293123
 20
164.0909684329
 30
0.0
 11
88.4970293123
 21
164.0909684329
 31
0.0
  0
LINE
  5
7D
330
1F
100
AcDbEntity
  8
0
  6
Continuous
 62
     7
370
    15
100
AcDbLine
 10
90.4970293123
 20
138.0909684329
 30
0.0
 11
91.4970293123
 21
139.0909684329
 31
0.0
  0
LINE
  5
7E
330
1F
100
AcDbEntity
  8
0
  6
Continuous
 62
     7
370
    15
100
AcDbLine
 10
91.4970293123
 20
154.0909684329
 30
0.0
 11
90.4970293123
 21
155.0909684329
 31
0.0
  0
LINE
  5
7F
330
1F
100
AcDbEntity
  8
0
  6
Continuous
 62
     7
370
    15
100
AcDbLine
 10
88.4970293123
 20
79.0909684329
 30
0.0
 11
90.4970293123
 21
79.0909684329
 31
0.0
  0
LINE
  5
80
330
1F
100
AcDbEntity
  8
0
  6
Continuous
 62
     7
370
    15
100
AcDbLine
 10
90.4970293123
 20
114.0909684329
 30
0.0
 11
88.4970293123
 21
114.0909684329
 31
0.0
  0
LINE
  5
81
330
1F
100
AcDbEntity
  8
0
  6
Continuous
 62
     7
370
    15
100
AcDbLine
 10
90.4970293123
 20
88.0909684329
 30
0.0
 11
91.4970293123
 21
89.0909684329
 31
0.0
  0
LINE
  5
82
330
1F
100
AcDbEntity
  8
0
  6
Continuous
 62
     7
370
    15
100
AcDbLine
 10
91.4970293123
 20
104.0909684329
 30
0.0
 11
90.4970293123
 21
105.0909684329
 31
0.0
  0
LINE
  5
83
330
1F
100
AcDbEntity
  8
0
  6
Continuous
 62
     7
370
    15
100
AcDbLine
 10
88.4970293123
 20
114.0909684329
 30
0.0
 11
87.4970293123
 21
114.0909684329
 31
0.0
  0
LINE
  5
84
330
1F
100
AcDbEntity
  8
0
  6
Continuous
 62
     7
370
    15
100
AcDbLine
 10
87.4970293123
 20
79.0909684329
 30
0.0
 11
88.4970293123
 21
79.0909684329
 31
0.0
  0
LINE
  5
85
330
1F
100
AcDbEntity
  8
0
  6
Continuous
 62
     7
370
    15
100
AcDbLine
 10
87.4970293123
 20
106.5909684329
 30
0.0
 11
83.4970293123
 21
106.5909684329
 31
0.0
  0
LINE
  5
86
330
1F
100
AcDbEntity
  8
0
  6
Continuous
 62
     7
370
    15
100
AcDbLine
 10
83.4970293123
 20
86.5909684329
 30
0.0
 11
87.4970293123
 21
86.5909684329
 31
0.0
  0
LINE
  5
87
330
1F
100
AcDbEntity
  8
0
  6
Continuous
 62
     7
370
    15
100
AcDbLine
 10
76.4970293123
 20
79.0909684329
 30
0.0
 11
77.4970293123
 21
79.0909684329
 31
0.0
  0
LINE
  5
88
330
1F
100
AcDbEntity
  8
0
  6
Continuous
 62
     7
370
    15
100
AcDbLine
 10
77.4970293123
 20
114.0909684329
 30
0.0
 11
76.4970293123
 21
114.0909684329
 31
0.0
  0
LINE
  5
89
330
1F
100
AcDbEntity
  8
0
  6
Continuous
 62
     7
370
    15
100
AcDbLine
 10
77.4970293123
 20
86.5909684329
 30
0.0
 11
81.4970293123
 21
86.5909684329
 31
0.0
  0
LINE
  5
8A
330
1F
100
AcDbEntity
  8
0
  6
Continuous
 62
     7
370
    15
100
AcDbLine
 10
81.4970293123
 20
106.5909684329
 30
0.0
 11
77.4970293123
 21
106.5909684329
 31
0.0
  0
LINE
  5
8B
330
1F
100
AcDbEntity
  8
0
  6
Continuous
 62
     7
370
    15
100
AcDbLine
 10
76.4970293123
 20
129.0909684329
 30
0.0
 11
77.4970293123
 21
129.0909684329
 31
0.0
  0
LINE
  5
8C
330
1F
100
AcDbEntity
  8
0
  6
Continuous
 62
     7
370
    15
100
AcDbLine
 10
77.4970293123
 20
164.0909684329
 30
0.0
 11
76.4970293123
 21
164.0909684329
 31
0.0
  0
LINE
  5
8D
330
1F
100
AcDbEntity
  8
0
  6
Continuous
 62
     7
370
    15
100
AcDbLine
 10
77.4970293123
 20
136.5909684329
 30
0.0
 11
81.4970293123
 21
136.5909684329
 31
0.0
  0
LINE
  5
8E
330
1F
100
AcDbEntity
  8
0
  6
Continuous
 62
     7
370
    15
100
AcDbLine
 10
81.4970293123
 20
156.5909684329
 30
0.0
 11
77.4970293123
 21
156.5909684329
 31
0.0
  0
LINE
  5
8F
330
1F
100
AcDbEntity
  8
0
  6
Continuous
 62
     7
370
    15
100
AcDbLine
 10
88.4970293123
 20
164.0909684329
 30
0.0
 11
87.4970293123
 21
164.0909684329
 31
0.0
  0
LINE
  5
90
330
1F
100
AcDbEntity
  8
0
  6
Continuous
 62
     7
370
    15
100
AcDbLine
 10
87.4970293123
 20
129.0909684329
 30
0.0
 11
88.4970293123
 21
129.0909684329
 31
0.0
  0
LINE
  5
91
330
1F
100
AcDbEntity
  8
0
  6
Continuous
 62
     7
370
    15
100
AcDbLine
 10
87.4970293123
 20
156.5909684329
 30
0.0
 11
83.4970293123
 21
156.5909684329
 31
0.0
  0
LINE
  5
92
330
1F
100
AcDbEntity
  8
0
  6
Continuous
 62
     7
370
    15
100
AcDbLine
 10
83.4970293123
 20
136.5909684329
 30
0.0
 11
87.4970293123
 21
136.5909684329
 31
0.0
  0
LINE
  5
93
330
1F
100
AcDbEntity
  8
0
  6
Continuous
 62
     7
370
    15
100
AcDbLine
 10
75.6970293123
 20
164.0909684329
 30
0.0
 11
73.6970293123
 21
162.0909684329
 31
0.0
  0
LINE
  5
94
330
1F
100
AcDbEntity
  8
0
  6
Continuous
 62
     7
370
    15
100
AcDbLine
 10
73.6970293123
 20
131.0909684329
 30
0.0
 11
75.6970293123
 21
129.0909684329
 31
0.0
  0
LINE
  5
95
330
1F
100
AcDbEntity
  8
0
  6
Continuous
 62
     7
370
    15
100
AcDbLine
 10
75.6970293123
 20
129.0909684329
 30
0.0
 11
76.4970293123
 21
129.0909684329
 31
0.0
  0
LINE
  5
96
330
1F
100
AcDbEntity
  8
0
  6
Continuous
 62
     7
370
    15
100
AcDbLine
 10
76.4970293123
 20
164.0909684329
 30
0.0
 11
75.6970293123
 21
164.0909684329
 31
0.0
  0
LINE
  5
97
330
1F
100
AcDbEntity
  8
0
  6
Continuous
 62
     7
370
    15
100
AcDbLine
 10
81.4970293123
 20
138.5909684329
 30
0.0
 11
83.4970293123
 21
138.5909684329
 31
0.0
  0
LINE
  5
98
330
1F
100
AcDbEntity
  8
0
  6
Continuous
 62
     7
370
    15
100
AcDbLine
 10
83.4970293123
 20
154.5909684329
 30
0.0
 11
81.4970293123
 21
154.5909684329
 31
0.0
  0
LINE
  5
99
330
1F
100
AcDbEntity
  8
0
  6
Continuous
 62
     7
370
    15
100
AcDbLine
 10
75.6970293123
 20
79.0909684329
 30
0.0
 11
76.4970293123
 21
79.0909684329
 31
0.0
  0
LINE
  5
9A
330
1F
100
AcDbEntity
  8
0
  6
Continuous
 62
     7
370
    15
100
AcDbLine
 10
76.4970293123
 20
114.0909684329
 30
0.0
 11
75.6970293123
 21
114.0909684329
 31
0.0
  0
LINE
  5
9B
330
1F
100
AcDbEntity
  8
0
  6
Continuous
 62
     7
370
    15
100
AcDbLine
 10
75.6970293123
 20
114.0909684329
 30
0.0
 11
73.6970293123
 21
112.0909684329
 31
0.0
  0
LINE
  5
9C
330
1F
100
AcDbEntity
  8
0
  6
Continuous
 62
     7
370
    15
100
AcDbLine
 10
73.6970293123
 20
81.0909684329
 30
0.0
 11
75.6970293123
 21
79.0909684329
 31
0.0
  0
LINE
  5
9D
330
1F
100
AcDbEntity
  8
0
  6
Continuous
 62
     7
370
    15
100
AcDbLine
 10
81.4970293123
 20
88.5909684329
 30
0.0
 11
83.4970293123
 21
88.5909684329
 31
0.0
  0
LINE
  5
9E
330
1F
100
AcDbEntity
  8
0
  6
Continuous
 62
     7
370
    15
100
AcDbLine
 10
83.4970293123
 20
104.5909684329
 30
0.0
 11
81.4970293123
 21
104.5909684329
 31
0.0
  0
LINE
  5
9F
330
1F
100
AcDbEntity
  8
0
  6
Continuous
 62
     7
370
    15
100
AcDbLine
 10
91.4970293123
 20
72.0909684329
 30
0.0
 11
91.9970293123
 21
71.5909684329
 31
0.0
  0
LINE
  5
A0
330
1F
100
AcDbEntity
  8
0
  6
Continuous
 62
     7
370
    15
100
AcDbLine
 10
125.9970293123
 20
71.5909684329
 30
0.0
 11
126.4970293123
 21
72.0909684329
 31
0.0
  0
LINE
  5
A1
330
1F
100
AcDbEntity
  8
0
  6
Continuous
 62
     7
370
    15
100
AcDbLine
 10
126.4970293123
 20
154.0742531802
 30
0.0
 11
126.4970293123
 21
191.0909684329
 31
0.0
  0
LINE
  5
A2
330
1F
100
AcDbEntity
  8
0
  6
Continuous
 62
     7
370
    15
100
AcDbLine
 10
126.4970293123
 20
104.0742531802
 30
0.0
 11
126.4970293123
 21
139.0909684329
 31
0.0
  0
LINE
  5
A3
330
1F
100
AcDbEntity
  8
0
  6
Continuous
 62
     7
370
    15
100
AcDbLine
 10
126.4970293123
 20
72.0909684329
 30
0.0
 11
126.4970293123
 21
89.0909684329
 31
0.0
  0
LINE
  5
A4
330
1F
100
AcDbEntity
  8
0
  6
Continuous
 62
     7
370
    15
100
AcDbLine
 10
91.4970293123
 20
89.0909684329
 30
0.0
 11
91.4970293123
 21
72.0909684329
 31
0.0
  0
LINE
  5
A5
330
1F
100
AcDbEntity
  8
0
  6
Continuous
 62
     7
370
    15
100
AcDbLine
 10
91.4970293123
 20
139.0909684329
 30
0.0
 11
91.4970293123
 21
104.0909684329
 31
0.0
  0
LINE
  5
A6
330
1F
100
AcDbEntity
  8
0
  6
Continuous
 62
     7
370
    15
100
AcDbLine
 10
91.4970293123
 20
191.0909684329
 30
0.0
 11
91.4970293123
 21
154.0909684329
 31
0.0
  0
LINE
  5
A7
330
1F
100
AcDbEntity
  8
0
  6
Continuous
 62
     7
370
    15
100
AcDbLine
 10
126.4970293123
 20
191.0909684329
 30
0.0
 11
125.9970293123
 21
191.5909684329
 31
0.0
  0
LINE
  5
A8
330
1F
100
AcDbEntity
  8
0
  6
Continuous
 62
     7
370
    15
100
AcDbLine
 10
91.9970293123
 20
191.5909684329
 30
0.0
 11
91.4970293123
 21
191.0909684329
 31
0.0
  0
ARC
  5
A9
330
1F
100
AcDbEntity
  8
0
  6
Continuous
 62
     7
370
    15
100
AcDbCircle
 10
104.4970293123
 20
208.5909684329
 30
0.0
 40
3.0
100
AcDbArc
 50
90.0
 51
180.0
  0
ARC
  5
AA
330
1F
100
AcDbEntity
  8
0
  6
Continuous
 62
     7
370
    15
100
AcDbCircle
 10
113.4970293123
 20
208.5909684329
 30
0.0
 40
3.000000000000014
100
AcDbArc
 50
360.0
 51
90.0
  0
LINE
  5
AB
330
1F
100
AcDbEntity
  8
0
  6
Continuous
 62
     7
370
    15
100
AcDbLine
 10
116.4970293123
 20
191.5909684329
 30
0.0
 11
116.4970293123
 21
208.5909684329
 31
0.0
  0
LINE
  5
AC
330
1F
100
AcDbEntity
  8
0
  6
Continuous
 62
     7
370
    15
100
AcDbLine
 10
101.4970293123
 20
208.5909684329
 30
0.0
 11
101.4970293123
 21
191.5909684329
 31
0.0
  0
LINE
  5
AD
330
1F
100
AcDbEntity
  8
0
  6
Continuous
 62
     7
370
    15
100
AcDbLine
 10
127.4970293123
 20
102.2909684329
 30
0.0
 11
127.4970293123
 21
90.8909684329
 31
0.0
  0
LINE
  5
AE
330
1F
100
AcDbEntity
  8
0
  6
Continuous
 62
     7
370
    15
100
AcDbLine
 10
127.4970293123
 20
152.2909684329
 30
0.0
 11
127.4970293123
 21
140.8909684329
 31
0.0
  0
LINE
  5
AF
330
1F
100
AcDbEntity
  8
0
  6
Continuous
 62
     7
370
    15
100
AcDbLine
 10
90.4970293123
 20
129.6196802429
 30
0.0
 11
90.4970293123
 21
164.0909684329
 31
0.0
  0
LINE
  5
B0
330
1F
100
AcDbEntity
  8
0
  6
Continuous
 62
     7
370
    15
100
AcDbLine
 10
90.4970293123
 20
129.0909684329
 30
0.0
 11
90.4970293123
 21
129.6196802429
 31
0.0
  0
LINE
  5
B1
330
1F
100
AcDbEntity
  8
0
  6
Continuous
 62
     7
370
    15
100
AcDbLine
 10
88.4970293123
 20
129.6196802429
 30
0.0
 11
88.4970293123
 21
164.0909684329
 31
0.0
  0
LINE
  5
B2
330
1F
100
AcDbEntity
  8
0
  6
Continuous
 62
     7
370
    15
100
AcDbLine
 10
88.4970293123
 20
129.0909684329
 30
0.0
 11
88.4970293123
 21
129.6196802429
 31
0.0
  0
LINE
  5
B3
330
1F
100
AcDbEntity
  8
0
  6
Continuous
 62
     7
370
    15
100
AcDbLine
 10
91.4970293123
 20
139.3175592086
 30
0.0
 11
91.4970293123
 21
139.0909684329
 31
0.0
  0
LINE
  5
B4
330
1F
100
AcDbEntity
  8
0
  6
Continuous
 62
     7
370
    15
100
AcDbLine
 10
91.4970293123
 20
154.0909684329
 30
0.0
 11
91.4970293123
 21
139.3175592086
 31
0.0
  0
LINE
  5
B5
330
1F
100
AcDbEntity
  8
0
  6
Continuous
 62
     7
370
    15
100
AcDbLine
 10
90.4970293123
 20
79.6196802429
 30
0.0
 11
90.4970293123
 21
114.0909684329
 31
0.0
  0
LINE
  5
B6
330
1F
100
AcDbEntity
  8
0
  6
Continuous
 62
     7
370
    15
100
AcDbLine
 10
90.4970293123
 20
79.0909684329
 30
0.0
 11
90.4970293123
 21
79.6196802429
 31
0.0
  0
LINE
  5
B7
330
1F
100
AcDbEntity
  8
0
  6
Continuous
 62
     7
370
    15
100
AcDbLine
 10
88.4970293123
 20
79.6196802429
 30
0.0
 11
88.4970293123
 21
114.0909684329
 31
0.0
  0
LINE
  5
B8
330
1F
100
AcDbEntity
  8
0
  6
Continuous
 62
     7
370
    15
100
AcDbLine
 10
88.4970293123
 20
79.0909684329
 30
0.0
 11
88.4970293123
 21
79.6196802429
 31
0.0
  0
LINE
  5
B9
330
1F
100
AcDbEntity
  8
0
  6
Continuous
 62
     7
370
    15
100
AcDbLine
 10
91.4970293123
 20
89.3175592086
 30
0.0
 11
91.4970293123
 21
89.0909684329
 31
0.0
  0
LINE
  5
BA
330
1F
100
AcDbEntity
  8
0
  6
Continuous
 62
     7
370
    15
100
AcDbLine
 10
91.4970293123
 20
104.0909684329
 30
0.0
 11
91.4970293123
 21
89.3175592086
 31
0.0
  0
LINE
  5
BB
330
1F
100
AcDbEntity
  8
0
  6
Continuous
 62
     7
370
    15
100
AcDbLine
 10
87.4970293123
 20
114.0909684329
 30
0.0
 11
87.4970293123
 21
79.0909684329
 31
0.0
  0
LINE
  5
BC
330
1F
100
AcDbEntity
  8
0
  6
Continuous
 62
     7
370
    15
100
AcDbLine
 10
88.4970293123
 20
114.0909684329
 30
0.0
 11
88.4970293123
 21
79.0909684329
 31
0.0
  0
LINE
  5
BD
330
1F
100
AcDbEntity
  8
0
  6
Continuous
 62
     7
370
    15
100
AcDbLine
 10
83.4970293123
 20
106.5909684329
 30
0.0
 11
83.4970293123
 21
86.5909684329
 31
0.0
  0
LINE
  5
BE
330
1F
100
AcDbEntity
  8
0
  6
Continuous
 62
     7
370
    15
100
AcDbLine
 10
77.4970293123
 20
82.2539423353
 30
0.0
 11
77.4970293123
 21
114.0909684329
 31
0.0
  0
LINE
  5
BF
330
1F
100
AcDbEntity
  8
0
  6
Continuous
 62
     7
370
    15
100
AcDbLine
 10
77.4970293123
 20
79.0909684329
 30
0.0
 11
77.4970293123
 21
82.2539423353
 31
0.0
  0
LINE
  5
C0
330
1F
100
AcDbEntity
  8
0
  6
Continuous
 62
     7
370
    15
100
AcDbLine
 10
76.4970293123
 20
82.2539423353
 30
0.0
 11
76.4970293123
 21
114.0909684329
 31
0.0
  0
LINE
  5
C1
330
1F
100
AcDbEntity
  8
0
  6
Continuous
 62
     7
370
    15
100
AcDbLine
 10
76.4970293123
 20
79.0909684329
 30
0.0
 11
76.4970293123
 21
82.2539423353
 31
0.0
  0
LINE
  5
C2
330
1F
100
AcDbEntity
  8
0
  6
Continuous
 62
     7
370
    15
100
AcDbLine
 10
81.4970293123
 20
88.3983820914
 30
0.0
 11
81.4970293123
 21
106.5909684329
 31
0.0
  0
LINE
  5
C3
330
1F
100
AcDbEntity
  8
0
  6
Continuous
 62
     7
370
    15
100
AcDbLine
 10
81.4970293123
 20
86.5909684329
 30
0.0
 11
81.4970293123
 21
88.3983820914
 31
0.0
  0
LINE
  5
C4
330
1F
100
AcDbEntity
  8
0
  6
Continuous
 62
     7
370
    15
100
AcDbLine
 10
76.4970293123
 20
153.4447882912
 30
0.0
 11
76.4970293123
 21
164.0909684329
 31
0.0
  0
LINE
  5
C5
330
1F
100
AcDbEntity
  8
0
  6
Continuous
 62
     7
370
    15
100
AcDbLine
 10
76.4970293123
 20
129.0909684329
 30
0.0
 11
76.4970293123
 21
153.4447882912
 31
0.0
  0
LINE
  5
C6
330
1F
100
AcDbEntity
  8
0
  6
Continuous
 62
     7
370
    15
100
AcDbLine
 10
77.4970293123
 20
153.4447882912
 30
0.0
 11
77.4970293123
 21
164.0909684329
 31
0.0
  0
LINE
  5
C7
330
1F
100
AcDbEntity
  8
0
  6
Continuous
 62
     7
370
    15
100
AcDbLine
 10
77.4970293123
 20
129.0909684329
 30
0.0
 11
77.4970293123
 21
153.4447882912
 31
0.0
  0
LINE
  5
C8
330
1F
100
AcDbEntity
  8
0
  6
Continuous
 62
     7
370
    15
100
AcDbLine
 10
81.4970293123
 20
150.5074369234
 30
0.0
 11
81.4970293123
 21
156.5909684329
 31
0.0
  0
LINE
  5
C9
330
1F
100
AcDbEntity
  8
0
  6
Continuous
 62
     7
370
    15
100
AcDbLine
 10
81.4970293123
 20
136.5909684329
 30
0.0
 11
81.4970293123
 21
150.5074369234
 31
0.0
  0
LINE
  5
CA
330
1F
100
AcDbEntity
  8
0
  6
Continuous
 62
     7
370
    15
100
AcDbLine
 10
87.4970293123
 20
164.0909684329
 30
0.0
 11
87.4970293123
 21
129.0909684329
 31
0.0
  0
LINE
  5
CB
330
1F
100
AcDbEntity
  8
0
  6
Continuous
 62
     7
370
    15
100
AcDbLine
 10
88.4970293123
 20
164.0909684329
 30
0.0
 11
88.4970293123
 21
129.0909684329
 31
0.0
  0
LINE
  5
CC
330
1F
100
AcDbEntity
  8
0
  6
Continuous
 62
     7
370
    15
100
AcDbLine
 10
83.4970293123
 20
156.5909684329
 30
0.0
 11
83.4970293123
 21
136.5909684329
 31
0.0
  0
LINE
  5
CD
330
1F
100
AcDbEntity
  8
0
  6
Continuous
 62
     7
370
    15
100
AcDbLine
 10
73.6970293123
 20
131.0909684329
 30
0.0
 11
73.6970293123
 21
162.0909684329
 31
0.0
  0
LINE
  5
CE
330
1F
100
AcDbEntity
  8
0
  6
Continuous
 62
     7
370
    15
100
AcDbLine
 10
75.6970293123
 20
164.0909684329
 30
0.0
 11
75.6970293123
 21
129.0909684329
 31
0.0
  0
LINE
  5
CF
330
1F
100
AcDbEntity
  8
0
  6
Continuous
 62
     7
370
    15
100
AcDbLine
 10
76.4970293123
 20
129.2607826877
 30
0.0
 11
76.4970293123
 21
164.0909684329
 31
0.0
  0
LINE
  5
D0
330
1F
100
AcDbEntity
  8
0
  6
Continuous
 62
     7
370
    15
100
AcDbLine
 10
76.4970293123
 20
129.0909684329
 30
0.0
 11
76.4970293123
 21
129.2607826877
 31
0.0
  0
LINE
  5
D1
330
1F
100
AcDbEntity
  8
0
  6
Continuous
 62
     7
370
    15
100
AcDbLine
 10
76.4970293123
 20
79.0909684329
 30
0.0
 11
76.4970293123
 21
114.0909684329
 31
0.0
  0
LINE
  5
D2
330
1F
100
AcDbEntity
  8
0
  6
Continuous
 62
     7
370
    15
100
AcDbLine
 10
75.6970293123
 20
114.001945962
 30
0.0
 11
75.6970293123
 21
79.0909684329
 31
0.0
  0
LINE
  5
D3
330
1F
100
AcDbEntity
  8
0
  6
Continuous
 62
     7
370
    15
100
AcDbLine
 10
75.6970293123
 20
114.0909684329
 30
0.0
 11
75.6970293123
 21
114.001945962
 31
0.0
  0
LINE
  5
D4
330
1F
100
AcDbEntity
  8
0
  6
Continuous
 62
     7
370
    15
100
AcDbLine
 10
73.6970293123
 20
112.0121199587
 30
0.0
 11
73.6970293123
 21
112.0909684329
 31
0.0
  0
LINE
  5
D5
330
1F
100
AcDbEntity
  8
0
  6
Continuous
 62
     7
370
    15
100
AcDbLine
 10
73.6970293123
 20
81.0909684329
 30
0.0
 11
73.6970293123
 21
112.0121199587
 31
0.0
  0
LINE
  5
D6
330
1F
100
AcDbEntity
  8
0
  6
Continuous
 62
     7
370
    15
100
AcDbLine
 10
91.4970293123
 20
72.0909684329
 30
0.0
 11
126.4970293123
 21
72.0909684329
 31
0.0
  0
LINE
  5
D7
330
1F
100
AcDbEntity
  8
0
  6
Continuous
 62
     7
370
    15
100
AcDbLine
 10
125.9970293123
 20
71.5909684329
 30
0.0
 11
91.9970293123
 21
71.5909684329
 31
0.0
  0
ARC
  5
D8
330
1F
100
AcDbEntity
  8
0
  6
Continuous
 62
     7
370
    15
100
AcDbCircle
 10
143.0283845003
 20
146.5904929433
 30
0.0
 40
18.15292186494106
100
AcDbArc
 50
155.652989215
 51
204.4016361427
  0
SPLINE
  5
D9
330
1F
100
AcDbEntity
  8
0
  6
Continuous
 62
     7
370
    15
100
AcDbSpline
210
0.0
220
0.0
230
1.0
 70
     8
 71
     3
 72
    27
 73
    23
 74
     0
 42
0.000000001
 43
0.00000001
 40
0.0
 40
0.0
 40
0.0
 40
0.0
 40
0.0497373915189304
 40
0.100992763059087
 40
0.1507112220817596
 40
0.2017508821158049
 40
0.2538734929542035
 40
0.3073584779621954
 40
0.3620756668264096
 40
0.4185371021202696
 40
0.4704177328658257
 40
0.5240832595203395
 40
0.5718516576459203
 40
0.6209561794773899
 40
0.6698657057467499
 40
0.7199738814688578
 40
0.7732210225441066
 40
0.8279294846558694
 40
0.8823852543939662
 40
0.9386416525575527
 40
0.9894907107409584
 40
1.0
 40
1.0
 40
1.0
 40
1.0
 10
91.49702931228813
 20
104.0909684329205
 30
0.0
 10
91.50485413895244
 20
104.0728018465869
 30
0.0
 10
91.52074260517782
 20
104.0359142315924
 30
0.0
 10
91.64542592242633
 20
103.7406405243067
 30
0.0
 10
91.83209272595496
 20
103.2780138672927
 30
0.0
 10
92.07057108561717
 20
102.6451702132823
 30
0.0
 10
92.34282297556476
 20
101.8440094422384
 30
0.0
 10
92.62399028657497
 20
100.8817164905304
 30
0.0
 10
92.88417423848858
 20
99.76519619696735
 30
0.0
 10
93.0802749248165
 20
98.55445860626749
 30
0.0
 10
93.18710262754482
 20
97.28535448724637
 30
0.0
 10
93.1922214795825
 20
96.06006843181
 30
0.0
 10
93.10600722031056
 20
94.87602650969842
 30
0.0
 10
92.94880999554566
 20
93.77707990330065
 30
0.0
 10
92.73223433236264
 20
92.73655880463133
 30
0.0
 10
92.47411696116585
 20
91.76705181569449
 30
0.0
 10
92.19444553282482
 20
90.88778655930625
 30
0.0
 10
91.92508301728894
 20
90.14295123154744
 30
0.0
 10
91.69567593865544
 20
89.56271832707924
 30
0.0
 10
91.55167508077125
 20
89.21828491431391
 30
0.0
 10
91.48890698994643
 20
89.0719532107367
 30
0.0
 10
91.50193959801686
 20
89.10245877618038
 30
0.0
 10
91.50417178733944
 20
89.10768368566086
 30
0.0
  0
SPLINE
  5
DA
330
1F
100
AcDbEntity
  8
0
  6
Continuous
 62
     7
370
    15
100
AcDbSpline
210
0.0
220
0.0
230
1.0
 70
     8
 71
     3
 72
    27
 73
    23
 74
     0
 42
0.000000001
 43
0.00000001
 40
0.0
 40
0.0
 40
0.0
 40
0.0
 40
0.0497373915189306
 40
0.1009927630590874
 40
0.1507112220817596
 40
0.2017508821158054
 40
0.2538734929542038
 40
0.3073584779621953
 40
0.3620756668264097
 40
0.4185371021202689
 40
0.4704177328658266
 40
0.5240832595203407
 40
0.5718516576459195
 40
0.6209561794773897
 40
0.6698657057467511
 40
0.7199738814688577
 40
0.7732210225441064
 40
0.8279294846558695
 40
0.882385254393966
 40
0.9386416525575517
 40
0.9894907107409577
 40
0.9999999999999999
 40
0.9999999999999999
 40
0.9999999999999999
 40
0.9999999999999999
 10
91.49702931228985
 20
154.0909684329206
 30
0.0
 10
91.50485413895416
 20
154.072801846587
 30
0.0
 10
91.52074260517954
 20
154.0359142315925
 30
0.0
 10
91.64542592242803
 20
153.7406405243067
 30
0.0
 10
91.8320927259567
 20
153.2780138672928
 30
0.0
 10
92.0705710856189
 20
152.6451702132823
 30
0.0
 10
92.34282297556648
 20
151.8440094422386
 30
0.0
 10
92.62399028657669
 20
150.8817164905304
 30
0.0
 10
92.8841742384903
 20
149.7651961969675
 30
0.0
 10
93.08027492481824
 20
148.5544586062675
 30
0.0
 10
93.18710262754655
 20
147.2853544872465
 30
0.0
 10
93.19222147958422
 20
146.0600684318101
 30
0.0
 10
93.1060072203123
 20
144.8760265096985
 30
0.0
 10
92.94880999554736
 20
143.7770799033007
 30
0.0
 10
92.73223433236438
 20
142.7365588046314
 30
0.0
 10
92.47411696116755
 20
141.7670518156945
 30
0.0
 10
92.1944455328265
 20
140.8877865593063
 30
0.0
 10
91.92508301729069
 20
140.1429512315475
 30
0.0
 10
91.69567593865713
 20
139.5627183270793
 30
0.0
 10
91.551675080773
 20
139.218284914314
 30
0.0
 10
91.48890698994813
 20
139.0719532107368
 30
0.0
 10
91.50193959801858
 20
139.1024587761804
 30
0.0
 10
91.50417178734116
 20
139.1076836856609
 30
0.0
  0
ARC
  5
DB
330
1F
100
AcDbEntity
  8
0
  6
Continuous
 62
     7
370
    15
100
AcDbCircle
 10
143.0283845003
 20
96.5904929433
 30
0.0
 40
18.15292186494109
100
AcDbArc
 50
155.652989215
 51
204.4016361427
  0
LINE
  5
DC
330
1F
100
AcDbEntity
  8
0
  6
Continuous
 62
     7
370
    15
100
AcDbLine
 10
126.4970293123
 20
191.0909684329
 30
0.0
 11
91.4970293123
 21
191.0909684329
 31
0.0
  0
LINE
  5
DD
330
1F
100
AcDbEntity
  8
0
  6
Continuous
 62
     7
370
    15
100
AcDbLine
 10
91.9970293123
 20
191.5909684329
 30
0.0
 11
125.9970293123
 21
191.5909684329
 31
0.0
  0
LINE
  5
DE
330
1F
100
AcDbEntity
  8
0
  6
Continuous
 62
     7
370
    15
100
AcDbLine
 10
104.4970293123
 20
211.5909684329
 30
0.0
 11
113.4970293123
 21
211.5909684329
 31
0.0
  0
LINE
  5
DF
330
1F
100
AcDbEntity
  8
0
  6
Continuous
 62
     8
370
    15
100
AcDbLine
 10
126.6970293123
 20
90.0909684329
 30
0.0
 11
126.6970293123
 21
103.0909684329
 31
0.0
  0
LINE
  5
E0
330
1F
100
AcDbEntity
  8
0
  6
Continuous
 62
     8
370
    15
100
AcDbLine
 10
126.6970293123
 20
140.0909684329
 30
0.0
 11
126.6970293123
 21
153.0909684329
 31
0.0
  0
LINE
  5
E1
330
1F
100
AcDbEntity
  8
0
  6
Continuous
 62
     8
370
    15
100
AcDbLine
 10
116.4970293123
 20
208.5909684329
 30
0.0
 11
101.4970293123
 21
208.5909684329
 31
0.0
  0
LINE
  5
E2
330
1F
100
AcDbEntity
  8
0
  6
Continuous
 62
     7
370
    15
100
AcDbLine
 10
151.8020660383
 20
72.0909684329
 30
0.0
 11
152.3020660383
 21
71.5909684329
 31
0.0
  0
LINE
  5
E3
330
1F
100
AcDbEntity
  8
0
  6
Continuous
 62
     7
370
    15
100
AcDbLine
 10
186.3020660383
 20
71.5909684329
 30
0.0
 11
186.8020660383
 21
72.0909684329
 31
0.0
  0
LINE
  5
E4
330
1F
100
AcDbEntity
  8
0
  6
Continuous
 62
     7
370
    15
100
AcDbLine
 10
186.8020660383
 20
72.0909684329
 30
0.0
 11
186.8020660383
 21
191.0909684329
 31
0.0
  0
LINE
  5
E5
330
1F
100
AcDbEntity
  8
0
  6
Continuous
 62
     7
370
    15
100
AcDbLine
 10
151.8020660383
 20
191.0909684329
 30
0.0
 11
151.8020660383
 21
72.0909684329
 31
0.0
  0
LINE
  5
E6
330
1F
100
AcDbEntity
  8
0
  6
Continuous
 62
     7
370
    15
100
AcDbLine
 10
186.8020660383
 20
191.0909684329
 30
0.0
 11
186.3020660383
 21
191.5909684329
 31
0.0
  0
LINE
  5
E7
330
1F
100
AcDbEntity
  8
0
  6
Continuous
 62
     7
370
    15
100
AcDbLine
 10
152.3020660383
 20
191.5909684329
 30
0.0
 11
151.8020660383
 21
191.0909684329
 31
0.0
  0
LINE
  5
E8
330
1F
100
AcDbEntity
  8
0
  6
Continuous
 62
     7
370
    15
100
AcDbLine
 10
176.8020660383
 20
191.5909684329
 30
0.0
 11
176.8020660383
 21
208.5909684329
 31
0.0
  0
LINE
  5
E9
330
1F
100
AcDbEntity
  8
0
  6
Continuous
 62
     7
370
    15
100
AcDbLine
 10
161.8020660383
 20
208.5909684329
 30
0.0
 11
161.8020660383
 21
191.5909684329
 31
0.0
  0
ARC
  5
EA
330
1F
100
AcDbEntity
  8
0
  6
Continuous
 62
     7
370
    15
100
AcDbCircle
 10
164.8020660383
 20
208.5909684329
 30
0.0
 40
3.0
100
AcDbArc
 50
90.0
 51
180.0
  0
ARC
  5
EB
330
1F
100
AcDbEntity
  8
0
  6
Continuous
 62
     7
370
    15
100
AcDbCircle
 10
173.8020660383
 20
208.5909684329
 30
0.0
 40
3.0
100
AcDbArc
 50
0.0
 51
90.0
  0
CIRCLE
  5
EC
330
1F
100
AcDbEntity
  8
0
  6
Continuous
 62
     7
370
    15
100
AcDbCircle
 10
169.3020660383
 20
146.5909684329
 30
0.0
 40
15.5
  0
CIRCLE
  5
ED
330
1F
100
AcDbEntity
  8
0
  6
Continuous
 62
     7
370
    15
100
AcDbCircle
 10
169.3020660383
 20
146.5909684329
 30
0.0
 40
17.50000000000002
  0
CIRCLE
  5
EE
330
1F
100
AcDbEntity
  8
0
  6
Continuous
 62
     7
370
    15
100
AcDbCircle
 10
169.3020660383
 20
96.5909684329
 30
0.0
 40
15.50000000000002
  0
CIRCLE
  5
EF
330
1F
100
AcDbEntity
  8
0
  6
Continuous
 62
     7
370
    15
100
AcDbCircle
 10
169.3020660383
 20
96.5909684329
 30
0.0
 40
17.50000000000004
  0
LINE
  5
F0
330
1F
100
AcDbEntity
  8
0
  6
Continuous
 62
     7
370
    15
100
AcDbLine
 10
151.8020660383
 20
72.0909684329
 30
0.0
 11
186.8020660383
 21
72.0909684329
 31
0.0
  0
LINE
  5
F1
330
1F
100
AcDbEntity
  8
0
  6
Continuous
 62
     7
370
    15
100
AcDbLine
 10
186.3020660383
 20
71.5909684329
 30
0.0
 11
152.3020660383
 21
71.5909684329
 31
0.0
  0
LINE
  5
F2
330
1F
100
AcDbEntity
  8
0
  6
Continuous
 62
     7
370
    15
100
AcDbLine
 10
186.8020660383
 20
191.0909684329
 30
0.0
 11
151.8020660383
 21
191.0909684329
 31
0.0
  0
LINE
  5
F3
330
1F
100
AcDbEntity
  8
0
  6
Continuous
 62
     7
370
    15
100
AcDbLine
 10
152.3020660383
 20
191.5909684329
 30
0.0
 11
186.3020660383
 21
191.5909684329
 31
0.0
  0
LINE
  5
F4
330
1F
100
AcDbEntity
  8
0
  6
Continuous
 62
     7
370
    15
100
AcDbLine
 10
164.8020660383
 20
211.5909684329
 30
0.0
 11
173.8020659302
 21
211.5909684329
 31
0.0
  0
LINE
  5
F5
330
1F
100
AcDbEntity
  8
0
  6
Continuous
 62
     8
370
    15
100
AcDbLine
 10
176.8020660383
 20
208.5909684329
 30
0.0
 11
161.8020660383
 21
208.5909684329
 31
0.0
  0
LINE
  5
F6
330
1F
100
AcDbEntity
  8
0
  6
Continuous
 62
     7
370
    15
100
AcDbLine
 10
48.8306973727
 20
191.0909684329
 30
0.0
 11
48.3306973727
 21
191.5909684329
 31
0.0
  0
LINE
  5
F7
330
1F
100
AcDbEntity
  8
0
  6
Continuous
 62
     7
370
    15
100
AcDbLine
 10
14.3306973727
 20
191.5909684329
 30
0.0
 11
13.8306973727
 21
191.0909684329
 31
0.0
  0
LINE
  5
F8
330
1F
100
AcDbEntity
  8
0
  6
Continuous
 62
     7
370
    15
100
AcDbLine
 10
48.8306973727
 20
72.0909684329
 30
0.0
 11
48.8306973727
 21
191.0909684329
 31
0.0
  0
LINE
  5
F9
330
1F
100
AcDbEntity
  8
0
  6
Continuous
 62
     7
370
    15
100
AcDbLine
 10
13.8306973727
 20
191.0909684329
 30
0.0
 11
13.8306973727
 21
72.0909684329
 31
0.0
  0
LINE
  5
FA
330
1F
100
AcDbEntity
  8
0
  6
Continuous
 62
     7
370
    15
100
AcDbLine
 10
13.8306973727
 20
72.0909684329
 30
0.0
 11
14.3306973727
 21
71.5909684329
 31
0.0
  0
LINE
  5
FB
330
1F
100
AcDbEntity
  8
0
  6
Continuous
 62
     7
370
    15
100
AcDbLine
 10
48.3306973727
 20
71.5909684329
 30
0.0
 11
48.8306973727
 21
72.0909684329
 31
0.0
  0
ARC
  5
FC
330
1F
100
AcDbEntity
  8
0
  6
Continuous
 62
     7
370
    15
100
AcDbCircle
 10
26.8306973727
 20
208.5909684329
 30
0.0
 40
3.000000000000004
100
AcDbArc
 50
90.0
 51
180.0
  0
ARC
  5
FD
330
1F
100
AcDbEntity
  8
0
  6
Continuous
 62
     7
370
    15
100
AcDbCircle
 10
35.8306973727
 20
208.5909684329
 30
0.0
 40
3.0
100
AcDbArc
 50
0.0
 51
90.0
  0
LINE
  5
FE
330
1F
100
AcDbEntity
  8
0
  6
Continuous
 62
     7
370
    15
100
AcDbLine
 10
38.8306973727
 20
191.5909684329
 30
0.0
 11
38.8306973727
 21
208.5909684329
 31
0.0
  0
LINE
  5
FF
330
1F
100
AcDbEntity
  8
0
  6
Continuous
 62
     7
370
    15
100
AcDbLine
 10
23.8306973727
 20
208.5909684329
 30
0.0
 11
23.8306973727
 21
191.5909684329
 31
0.0
  0
CIRCLE
  5
100
330
1F
100
AcDbEntity
  8
0
  6
Continuous
 62
     7
370
    15
100
AcDbCircle
 10
31.3306973727
 20
96.5909684329
 30
0.0
 40
5.700000000000008
  0
CIRCLE
  5
101
330
1F
100
AcDbEntity
  8
0
  6
Continuous
 62
     7
370
    15
100
AcDbCircle
 10
31.3306973727
 20
96.5909684329
 30
0.0
 40
6.500000000000013
  0
LINE
  5
102
330
1F
100
AcDbEntity
  8
0
  6
Continuous
 62
     7
370
    15
100
AcDbLine
 10
30.9500076248
 20
100.0457055646
 30
0.0
 11
28.1484623793
 21
97.9886500061
 31
0.0
  0
LINE
  5
103
330
1F
100
AcDbEntity
  8
0
  6
Continuous
 62
     7
370
    15
100
AcDbLine
 10
28.1484623793
 20
97.9886500061
 30
0.0
 11
28.5291521272
 21
94.5339128744
 31
0.0
  0
LINE
  5
104
330
1F
100
AcDbEntity
  8
0
  6
Continuous
 62
     7
370
    15
100
AcDbLine
 10
31.7113871206
 20
93.1362313012
 30
0.0
 11
28.5291521272
 21
94.5339128744
 31
0.0
  0
LINE
  5
105
330
1F
100
AcDbEntity
  8
0
  6
Continuous
 62
     7
370
    15
100
AcDbLine
 10
34.5129323661
 20
95.1932868597
 30
0.0
 11
31.7113871206
 21
93.1362313012
 31
0.0
  0
LINE
  5
106
330
1F
100
AcDbEntity
  8
0
  6
Continuous
 62
     7
370
    15
100
AcDbLine
 10
34.5129323661
 20
95.1932868597
 30
0.0
 11
34.1322426182
 21
98.6480239914
 31
0.0
  0
LINE
  5
107
330
1F
100
AcDbEntity
  8
0
  6
Continuous
 62
     7
370
    15
100
AcDbLine
 10
30.9500076248
 20
100.0457055646
 30
0.0
 11
34.1322426182
 21
98.6480239914
 31
0.0
  0
ARC
  5
108
330
1F
100
AcDbEntity
  8
0
  6
Continuous
 62
     7
370
    15
100
AcDbCircle
 10
31.3306973727
 20
96.5909684329
 30
0.0
 40
3.010000000000028
100
AcDbArc
 50
66.2882552612
 51
126.2882552612
  0
ARC
  5
109
330
1F
100
AcDbEntity
  8
0
  6
Continuous
 62
     7
370
    15
100
AcDbCircle
 10
31.3306973727
 20
96.5909684329
 30
0.0
 40
3.010000000000022
100
AcDbArc
 50
306.2882552612
 51
6.2882552612
  0
ARC
  5
10A
330
1F
100
AcDbEntity
  8
0
  6
Continuous
 62
     7
370
    15
100
AcDbCircle
 10
31.3306973727
 20
96.5909684329
 30
0.0
 40
3.010000000000024
100
AcDbArc
 50
246.2882552612
 51
306.2882552612
  0
ARC
  5
10B
330
1F
100
AcDbEntity
  8
0
  6
Continuous
 62
     7
370
    15
100
AcDbCircle
 10
31.3306973727
 20
96.5909684329
 30
0.0
 40
3.010000000000034
100
AcDbArc
 50
186.2882552612
 51
246.2882552612
  0
ARC
  5
10C
330
1F
100
AcDbEntity
  8
0
  6
Continuous
 62
     7
370
    15
100
AcDbCircle
 10
31.3306973727
 20
96.5909684329
 30
0.0
 40
3.010000000000034
100
AcDbArc
 50
126.2882552612
 51
186.2882552612
  0
ARC
  5
10D
330
1F
100
AcDbEntity
  8
0
  6
Continuous
 62
     7
370
    15
100
AcDbCircle
 10
31.3306973727
 20
96.5909684329
 30
0.0
 40
3.010000000000028
100
AcDbArc
 50
6.2882552612
 51
66.2882552612
  0
CIRCLE
  5
10E
330
1F
100
AcDbEntity
  8
0
  6
Continuous
 62
     7
370
    15
100
AcDbCircle
 10
31.3306973727
 20
146.5909684329
 30
0.0
 40
5.700000000000006
  0
CIRCLE
  5
10F
330
1F
100
AcDbEntity
  8
0
  6
Continuous
 62
     7
370
    15
100
AcDbCircle
 10
31.3306973727
 20
146.5909684329
 30
0.0
 40
6.500000000000009
  0
LINE
  5
110
330
1F
100
AcDbEntity
  8
0
  6
Continuous
 62
     7
370
    15
100
AcDbLine
 10
30.9500076248
 20
150.0457055646
 30
0.0
 11
28.1484623793
 21
147.9886500061
 31
0.0
  0
LINE
  5
111
330
1F
100
AcDbEntity
  8
0
  6
Continuous
 62
     7
370
    15
100
AcDbLine
 10
28.1484623793
 20
147.9886500061
 30
0.0
 11
28.5291521272
 21
144.5339128744
 31
0.0
  0
LINE
  5
112
330
1F
100
AcDbEntity
  8
0
  6
Continuous
 62
     7
370
    15
100
AcDbLine
 10
31.7113871206
 20
143.1362313012
 30
0.0
 11
28.5291521272
 21
144.5339128744
 31
0.0
  0
LINE
  5
113
330
1F
100
AcDbEntity
  8
0
  6
Continuous
 62
     7
370
    15
100
AcDbLine
 10
34.5129323661
 20
145.1932868597
 30
0.0
 11
31.7113871206
 21
143.1362313012
 31
0.0
  0
LINE
  5
114
330
1F
100
AcDbEntity
  8
0
  6
Continuous
 62
     7
370
    15
100
AcDbLine
 10
34.5129323661
 20
145.1932868597
 30
0.0
 11
34.1322426182
 21
148.6480239914
 31
0.0
  0
LINE
  5
115
330
1F
100
AcDbEntity
  8
0
  6
Continuous
 62
     7
370
    15
100
AcDbLine
 10
30.9500076248
 20
150.0457055646
 30
0.0
 11
34.1322426182
 21
148.6480239914
 31
0.0
  0
ARC
  5
116
330
1F
100
AcDbEntity
  8
0
  6
Continuous
 62
     7
370
    15
100
AcDbCircle
 10
31.3306973727
 20
146.5909684329
 30
0.0
 40
3.010000000000011
100
AcDbArc
 50
66.2882552612
 51
126.2882552612
  0
ARC
  5
117
330
1F
100
AcDbEntity
  8
0
  6
Continuous
 62
     7
370
    15
100
AcDbCircle
 10
31.3306973727
 20
146.5909684329
 30
0.0
 40
3.010000000000026
100
AcDbArc
 50
306.2882552612
 51
6.2882552612
  0
ARC
  5
118
330
1F
100
AcDbEntity
  8
0
  6
Continuous
 62
     7
370
    15
100
AcDbCircle
 10
31.3306973727
 20
146.5909684329
 30
0.0
 40
3.010000000000035
100
AcDbArc
 50
246.2882552612
 51
306.2882552612
  0
ARC
  5
119
330
1F
100
AcDbEntity
  8
0
  6
Continuous
 62
     7
370
    15
100
AcDbCircle
 10
31.3306973727
 20
146.5909684329
 30
0.0
 40
3.010000000000035
100
AcDbArc
 50
186.2882552612
 51
246.2882552612
  0
ARC
  5
11A
330
1F
100
AcDbEntity
  8
0
  6
Continuous
 62
     7
370
    15
100
AcDbCircle
 10
31.3306973727
 20
146.5909684329
 30
0.0
 40
3.010000000000034
100
AcDbArc
 50
126.2882552612
 51
186.2882552612
  0
ARC
  5
11B
330
1F
100
AcDbEntity
  8
0
  6
Continuous
 62
     7
370
    15
100
AcDbCircle
 10
31.3306973727
 20
146.5909684329
 30
0.0
 40
3.010000000000026
100
AcDbArc
 50
6.2882552612
 51
66.2882552612
  0
LINE
  5
11C
330
1F
100
AcDbEntity
  8
0
  6
Continuous
 62
     7
370
    15
100
AcDbLine
 10
14.3306973727
 20
191.5909684329
 30
0.0
 11
48.3306973727
 21
191.5909684329
 31
0.0
  0
LINE
  5
11D
330
1F
100
AcDbEntity
  8
0
  6
Continuous
 62
     7
370
    15
100
AcDbLine
 10
48.8306973727
 20
191.0909684329
 30
0.0
 11
13.8306973727
 21
191.0909684329
 31
0.0
  0
SPLINE
  5
11E
330
1F
100
AcDbEntity
  8
0
  6
Continuous
 62
     7
370
    15
100
AcDbSpline
210
0.0
220
0.0
230
1.0
 70
    11
 71
     3
 72
    69
 73
    65
 74
     0
 42
0.000000001
 43
0.00000001
 40
0.0
 40
0.0
 40
0.0
 40
0.0
 40
0.0123930801773864
 40
0.0376249772308495
 40
0.0504919987633164
 40
0.0628840212368779
 40
0.0880597467523138
 40
0.1008637631574002
 40
0.113856356025353
 40
0.1402410303264457
 40
0.1536600576186861
 40
0.16729458108374
 40
0.1810286811611205
 40
0.1950910510731959
 40
0.2092743971733302
 40
0.2221987422227465
 40
0.2485624940173027
 40
0.2620463298696044
 40
0.2739509585749689
 40
0.2981554870330122
 40
0.3104766440387179
 40
0.3226692781894827
 40
0.3474103264110401
 40
0.359976908677078
 40
0.3732488785266804
 40
0.4002180769149012
 40
0.4139482931343445
 40
0.4275162312713374
 40
0.4411871392212335
 40
0.4551971839380908
 40
0.4693310231427816
 40
0.4819999540645112
 40
0.5078163838808625
 40
0.5210008759093063
 40
0.5330286638617082
 40
0.557475232236745
 40
0.5699157113549718
 40
0.582338743438715
 40
0.6075560607711623
 40
0.6203704444704873
 40
0.6337150630516649
 40
0.6608376902309966
 40
0.6746503255650788
 40
0.6881831958644753
 40
0.7018209110139643
 40
0.7158070687377837
 40
0.7299218452055833
 40
0.7423699376647077
 40
0.767738064096313
 40
0.7806922046586313
 40
0.7925359732296056
 40
0.8165891687125714
 40
0.82881633667219
 40
0.8414058374840964
 40
0.8669562936008461
 40
0.879939119156411
 40
0.8934914946437009
 40
0.9071378282888397
 40
0.921088343184395
 40
0.93514861680675
 40
0.948454555810093
 40
0.9755860051841175
 40
0.9894591102266561
 40
1.0
 40
1.0
 40
1.0
 40
1.0
 10
31.33069737271692
 20
139.0909684329195
 30
0.0
 10
31.52770409410113
 20
139.0956540680104
 30
0.0
 10
32.12580991608478
 20
139.1098794995483
 30
0.0
 10
32.92108102021347
 20
139.2430040042521
 30
0.0
 10
33.68811555350072
 20
139.462620100254
 30
0.0
 10
34.4316851868567
 20
139.7422242796251
 30
0.0
 10
35.1350082717506
 20
140.1063337964633
 30
0.0
 10
35.79224410743724
 20
140.5523281912714
 30
0.0
 10
36.42486120159532
 20
141.0600160093888
 30
0.0
 10
36.99870937609339
 20
141.6492443795271
 30
0.0
 10
37.50025658723192
 20
142.3108767752238
 30
0.0
 10
37.8402972549608
 20
142.8477251805075
 30
0.0
 10
38.13899455072275
 20
143.4224989342796
 30
0.0
 10
38.39101745927638
 20
144.031644886437
 30
0.0
 10
38.58510039746494
 20
144.6515939236018
 30
0.0
 10
38.76807723601783
 20
145.478094173102
 30
0.0
 10
38.84659969872361
 20
146.3180984583231
 30
0.0
 10
38.81864378933837
 20
147.1411515063871
 30
0.0
 10
38.72866841276394
 20
147.9238880846984
 30
0.0
 10
38.55366532059928
 20
148.6734158296867
 30
0.0
 10
38.29479578868163
 20
149.3949329572737
 30
0.0
 10
37.97912412029377
 20
150.0994014605106
 30
0.0
 10
37.58291954299406
 20
150.7648541107067
 30
0.0
 10
37.10560499413715
 20
151.3889783345463
 30
0.0
 10
36.55729870081332
 20
151.9980860553909
 30
0.0
 10
35.92060062619009
 20
152.5487441910603
 30
0.0
 10
35.21588125964136
 20
153.0168142938753
 30
0.0
 10
34.65355855110133
 20
153.3248662330475
 30
0.0
 10
34.06064696457066
 20
153.5866623223239
 30
0.0
 10
33.43616355764402
 20
153.7996809460518
 30
0.0
 10
32.80807528261069
 20
153.9532233729655
 30
0.0
 10
31.98272170089855
 20
154.0820939375342
 30
0.0
 10
31.15672391767902
 20
154.1089136510367
 30
0.0
 10
30.34874888708438
 20
154.0344775840191
 30
0.0
 10
29.57234117270355
 20
153.8998210695598
 30
0.0
 10
28.8280283950474
 20
153.6796155260514
 30
0.0
 10
28.11540760699561
 20
153.3751954584094
 30
0.0
 10
27.42041809806872
 20
153.0120292321874
 30
0.0
 10
26.76890355354437
 20
152.5668974169795
 30
0.0
 10
26.16770614783496
 20
152.0422918047738
 30
0.0
 10
25.59072173465202
 20
151.4500237535963
 30
0.0
 10
25.08032643065559
 20
150.7741779402737
 30
0.0
 10
24.65862889402498
 20
150.0363158927853
 30
0.0
 10
24.388669588042
 20
149.453615054345
 30
0.0
 10
24.16743245804066
 20
148.8448335187855
 30
0.0
 10
23.9968267141479
 20
148.2074379753958
 30
0.0
 10
23.88635251592098
 20
147.5734279377061
 30
0.0
 10
23.81358449824963
 20
146.7511448459276
 30
0.0
 10
23.8397500834131
 20
145.9395432929647
 30
0.0
 10
23.96203240448199
 20
145.1527935408553
 30
0.0
 10
24.14014740715496
 20
144.4007291451052
 30
0.0
 10
24.39810973805232
 20
143.6857108273043
 30
0.0
 10
24.73734594435461
 20
143.0006881724142
 30
0.0
 10
25.13912612049612
 20
142.3260346289148
 30
0.0
 10
25.62528527907133
 20
141.6944133659006
 30
0.0
 10
26.19108188424867
 20
141.1172608457873
 30
0.0
 10
26.66329067588696
 20
140.7088377333026
 30
0.0
 10
27.18153632627743
 20
140.3321196989069
 30
0.0
 10
27.73880134842267
 20
139.9960780980422
 30
0.0
 10
28.32097130226951
 20
139.7113264302552
 30
0.0
 10
29.1210657706184
 20
139.401537850811
 30
0.0
 10
29.96058361411178
 20
139.1960854426222
 30
0.0
 10
30.77495427300317
 20
139.1019843390368
 30
0.0
 10
31.16310915649993
 20
139.0942903564074
 30
0.0
 10
31.33069737271692
 20
139.0909684329195
 30
0.0
  0
SPLINE
  5
11F
330
1F
100
AcDbEntity
  8
0
  6
Continuous
 62
     7
370
    15
100
AcDbSpline
210
0.0
220
0.0
230
1.0
 70
    11
 71
     3
 72
    46
 73
    42
 74
     0
 42
0.000000001
 43
0.00000001
 40
0.0
 40
0.0
 40
0.0
 40
0.0
 40
0.0248689440820701
 40
0.0504968857535333
 40
0.07535636349295
 40
0.10087644833438
 40
0.1269380139848077
 40
0.1536807735219229
 40
0.1810396411391419
 40
0.2092706406796384
 40
0.2352112150755172
 40
0.2620442463372791
 40
0.2859286838921313
 40
0.3104811899707584
 40
0.3349361972947813
 40
0.359990535329645
 40
0.386614371712911
 40
0.4139688759103343
 40
0.4411970326593139
 40
0.4693255126109901
 40
0.4947502955754877
 40
0.5209986779410046
 40
0.5451288067518693
 40
0.5699205392830101
 40
0.5948387871596813
 40
0.6203840206339447
 40
0.6471543279139321
 40
0.6746704644605489
 40
0.7018298081648574
 40
0.7299140680751114
 40
0.7548962896264477
 40
0.7806878767055339
 40
0.8044463506782185
 40
0.8288200357124127
 40
0.8540712080682109
 40
0.8799516947849104
 40
0.9071420381933583
 40
0.9351408652042007
 40
0.9618453709237893
 40
0.9894532213977559
 40
1.0
 40
1.0
 40
1.0
 40
1.0
 10
31.33069737271694
 20
89.09096843291931
 30
0.0
 10
31.72624152602516
 20
89.10913501925234
 30
0.0
 10
32.52940179910178
 20
89.14602263424563
 30
0.0
 10
33.69236388542799
 20
89.44129634154088
 30
0.0
 10
34.79625284037787
 20
89.90392299851922
 30
0.0
 10
35.81166529363269
 20
90.53676665266605
 30
0.0
 10
36.73077682723805
 20
91.33792742318302
 30
0.0
 10
37.52519116909586
 20
92.30022037693102
 30
0.0
 10
38.16776002724819
 20
93.41674066258774
 30
0.0
 10
38.60721805659966
 20
94.6274782830061
 30
0.0
 10
38.83396890330982
 20
95.89658229793365
 30
0.0
 10
38.84463584634176
 20
97.12186873289038
 30
0.0
 10
38.66222535727709
 20
98.30590936569307
 30
0.0
 10
38.31480076251309
 20
99.404860782658
 30
0.0
 10
37.79919476256891
 20
100.4453637295877
 30
0.0
 10
37.11543798591253
 20
101.414941461013
 30
0.0
 10
36.25563425434886
 20
102.2939226051826
 30
0.0
 10
35.23050467059321
 20
103.0398578666167
 30
0.0
 10
34.06424960570449
 20
103.6159382464976
 30
0.0
 10
32.83347829320483
 20
103.9758293403147
 30
0.0
 10
31.56923987077729
 20
104.1211005470393
 30
0.0
 10
30.3599981957518
 20
104.0602936973653
 30
0.0
 10
29.19162606345966
 20
103.8106802278361
 30
0.0
 10
28.10252255527617
 20
103.3943830576556
 30
0.0
 10
27.0798437824414
 20
102.8074842787559
 30
0.0
 10
26.14269312060973
 20
102.052688282835
 30
0.0
 10
25.3137474921249
 20
101.1276424481627
 30
0.0
 10
24.63539263612722
 20
100.0511143794573
 30
0.0
 10
24.13793865056125
 20
98.84631883359269
 30
0.0
 10
23.86288017484299
 20
97.60016312325497
 30
0.0
 10
23.80203964859733
 20
96.34289131714347
 30
0.0
 10
23.93665800454329
 20
95.16161550492527
 30
0.0
 10
24.24961632114892
 20
94.03368084635314
 30
0.0
 10
24.72187848916742
 20
92.98192927388841
 30
0.0
 10
25.3644483425285
 20
91.99444715850733
 30
0.0
 10
26.18180995619856
 20
91.0910167293156
 30
0.0
 10
27.17174459586582
 20
90.3053486227333
 30
0.0
 10
28.30083924941234
 20
89.68936462947035
 30
0.0
 10
29.53438980913928
 20
89.27254149459488
 30
0.0
 10
30.55699207398562
 20
89.10689595119273
 30
0.0
 10
31.16314372533618
 20
89.0944176968507
 30
0.0
 10
31.33069737271694
 20
89.09096843291931
 30
0.0
  0
LINE
  5
120
330
1F
100
AcDbEntity
  8
0
  6
Continuous
 62
     7
370
    15
100
AcDbLine
 10
13.8306973727
 20
72.0909684329
 30
0.0
 11
48.8306973727
 21
72.0909684329
 31
0.0
  0
LINE
  5
121
330
1F
100
AcDbEntity
  8
0
  6
Continuous
 62
     7
370
    15
100
AcDbLine
 10
48.3306973727
 20
71.5909684329
 30
0.0
 11
14.3306973727
 21
71.5909684329
 31
0.0
  0
LINE
  5
122
330
1F
100
AcDbEntity
  8
0
  6
Continuous
 62
     7
370
    15
100
AcDbLine
 10
35.8306973727
 20
211.5909684329
 30
0.0
 11
26.8306973727
 21
211.5909684329
 31
0.0
  0
LINE
  5
123
330
1F
100
AcDbEntity
  8
0
  6
Continuous
 62
     8
370
    15
100
AcDbLine
 10
38.8306973727
 20
208.5909684329
 30
0.0
 11
23.8306973727
 21
208.5909684329
 31
0.0
  0
ARC
  5
124
330
1F
100
AcDbEntity
  8
0
  6
Continuous
 62
     7
370
    15
100
AcDbCircle
 10
126.6970293123
 20
275.0456122264
 30
0.0
 40
0.8000000000000114
100
AcDbArc
 50
0.0
 51
90.0
  0
ARC
  5
125
330
1F
100
AcDbEntity
  8
0
  6
Continuous
 62
     7
370
    15
100
AcDbCircle
 10
126.6970293123
 20
263.6456122264
 30
0.0
 40
0.8000000000000114
100
AcDbArc
 50
270.0
 51
0.0
  0
LINE
  5
126
330
1F
100
AcDbEntity
  8
0
  6
Continuous
 62
     7
370
    15
100
AcDbLine
 10
126.6970293123
 20
275.8456122264
 30
0.0
 11
125.2451061216
 21
275.8456122264
 31
0.0
  0
LINE
  5
127
330
1F
100
AcDbEntity
  8
0
  6
Continuous
 62
     7
370
    15
100
AcDbLine
 10
125.2451061216
 20
262.8456122264
 30
0.0
 11
126.6970293123
 21
262.8456122264
 31
0.0
  0
LINE
  5
128
330
1F
100
AcDbEntity
  8
0
  6
Continuous
 62
     7
370
    15
100
AcDbLine
 10
88.4970293123
 20
251.8456122264
 30
0.0
 11
90.4970293123
 21
251.8456122264
 31
0.0
  0
LINE
  5
129
330
1F
100
AcDbEntity
  8
0
  6
Continuous
 62
     7
370
    15
100
AcDbLine
 10
90.4970293123
 20
286.8456122264
 30
0.0
 11
88.4970293123
 21
286.8456122264
 31
0.0
  0
LINE
  5
12A
330
1F
100
AcDbEntity
  8
0
  6
Continuous
 62
     7
370
    15
100
AcDbLine
 10
90.4970293123
 20
260.8456122264
 30
0.0
 11
91.4970293123
 21
261.8456122264
 31
0.0
  0
LINE
  5
12B
330
1F
100
AcDbEntity
  8
0
  6
Continuous
 62
     7
370
    15
100
AcDbLine
 10
91.4970293123
 20
276.8456122264
 30
0.0
 11
90.4970293123
 21
277.8456122264
 31
0.0
  0
LINE
  5
12C
330
1F
100
AcDbEntity
  8
0
  6
Continuous
 62
     7
370
    15
100
AcDbLine
 10
91.4970293123
 20
261.8456122264
 30
0.0
 11
93.1856410114
 21
261.8456122264
 31
0.0
  0
LINE
  5
12D
330
1F
100
AcDbEntity
  8
0
  6
Continuous
 62
     7
370
    15
100
AcDbLine
 10
93.1856410114
 20
276.8456122264
 30
0.0
 11
91.4970293123
 21
276.8456122264
 31
0.0
  0
LINE
  5
12E
330
1F
100
AcDbEntity
  8
0
  6
Continuous
 62
     7
370
    15
100
AcDbLine
 10
88.4970293123
 20
286.8456122264
 30
0.0
 11
87.4970293123
 21
286.8456122264
 31
0.0
  0
LINE
  5
12F
330
1F
100
AcDbEntity
  8
0
  6
Continuous
 62
     7
370
    15
100
AcDbLine
 10
87.4970293123
 20
251.8456122264
 30
0.0
 11
88.4970293123
 21
251.8456122264
 31
0.0
  0
LINE
  5
130
330
1F
100
AcDbEntity
  8
0
  6
Continuous
 62
     7
370
    15
100
AcDbLine
 10
87.4970293123
 20
279.3456122264
 30
0.0
 11
83.4970293123
 21
279.3456122264
 31
0.0
  0
LINE
  5
131
330
1F
100
AcDbEntity
  8
0
  6
Continuous
 62
     7
370
    15
100
AcDbLine
 10
83.4970293123
 20
259.3456122264
 30
0.0
 11
87.4970293123
 21
259.3456122264
 31
0.0
  0
LINE
  5
132
330
1F
100
AcDbEntity
  8
0
  6
Continuous
 62
     7
370
    15
100
AcDbLine
 10
76.4970293123
 20
251.8456122264
 30
0.0
 11
77.4970293123
 21
251.8456122264
 31
0.0
  0
LINE
  5
133
330
1F
100
AcDbEntity
  8
0
  6
Continuous
 62
     7
370
    15
100
AcDbLine
 10
77.4970293123
 20
286.8456122264
 30
0.0
 11
76.4970293123
 21
286.8456122264
 31
0.0
  0
LINE
  5
134
330
1F
100
AcDbEntity
  8
0
  6
Continuous
 62
     7
370
    15
100
AcDbLine
 10
77.4970293123
 20
259.3456122264
 30
0.0
 11
81.4970293123
 21
259.3456122264
 31
0.0
  0
LINE
  5
135
330
1F
100
AcDbEntity
  8
0
  6
Continuous
 62
     7
370
    15
100
AcDbLine
 10
81.4970293123
 20
279.3456122264
 30
0.0
 11
77.4970293123
 21
279.3456122264
 31
0.0
  0
LINE
  5
136
330
1F
100
AcDbEntity
  8
0
  6
Continuous
 62
     7
370
    15
100
AcDbLine
 10
75.6970293123
 20
251.8456122264
 30
0.0
 11
76.4970293123
 21
251.8456122264
 31
0.0
  0
LINE
  5
137
330
1F
100
AcDbEntity
  8
0
  6
Continuous
 62
     7
370
    15
100
AcDbLine
 10
76.4970293123
 20
286.8456122264
 30
0.0
 11
75.6970293123
 21
286.8456122264
 31
0.0
  0
LINE
  5
138
330
1F
100
AcDbEntity
  8
0
  6
Continuous
 62
     7
370
    15
100
AcDbLine
 10
75.6970293123
 20
286.8456122264
 30
0.0
 11
73.6970293123
 21
284.8456122264
 31
0.0
  0
LINE
  5
139
330
1F
100
AcDbEntity
  8
0
  6
Continuous
 62
     7
370
    15
100
AcDbLine
 10
73.6970293123
 20
253.8456122264
 30
0.0
 11
75.6970293123
 21
251.8456122264
 31
0.0
  0
LINE
  5
13A
330
1F
100
AcDbEntity
  8
0
  6
Continuous
 62
     7
370
    15
100
AcDbLine
 10
81.4970293123
 20
261.3456122264
 30
0.0
 11
83.4970293123
 21
261.3456122264
 31
0.0
  0
LINE
  5
13B
330
1F
100
AcDbEntity
  8
0
  6
Continuous
 62
     7
370
    15
100
AcDbLine
 10
83.4970293123
 20
277.3456122264
 30
0.0
 11
81.4970293123
 21
277.3456122264
 31
0.0
  0
LINE
  5
13C
330
1F
100
AcDbEntity
  8
0
  6
Continuous
 62
     7
370
    15
100
AcDbLine
 10
127.4970293123
 20
275.0456122264
 30
0.0
 11
127.4970293123
 21
263.6456122264
 31
0.0
  0
LINE
  5
13D
330
1F
100
AcDbEntity
  8
0
  6
Continuous
 62
     7
370
    15
100
AcDbLine
 10
90.4970293123
 20
273.6147312422
 30
0.0
 11
90.4970293123
 21
286.8456122264
 31
0.0
  0
LINE
  5
13E
330
1F
100
AcDbEntity
  8
0
  6
Continuous
 62
     7
370
    15
100
AcDbLine
 10
90.4970293123
 20
251.8456122264
 30
0.0
 11
90.4970293123
 21
273.6147312422
 31
0.0
  0
LINE
  5
13F
330
1F
100
AcDbEntity
  8
0
  6
Continuous
 62
     7
370
    15
100
AcDbLine
 10
88.4970293123
 20
273.6147312422
 30
0.0
 11
88.4970293123
 21
286.8456122264
 31
0.0
  0
LINE
  5
140
330
1F
100
AcDbEntity
  8
0
  6
Continuous
 62
     7
370
    15
100
AcDbLine
 10
88.4970293123
 20
251.8456122264
 30
0.0
 11
88.4970293123
 21
273.6147312422
 31
0.0
  0
LINE
  5
141
330
1F
100
AcDbEntity
  8
0
  6
Continuous
 62
     7
370
    15
100
AcDbLine
 10
91.4970293123
 20
271.1752346617
 30
0.0
 11
91.4970293123
 21
261.8456122264
 31
0.0
  0
LINE
  5
142
330
1F
100
AcDbEntity
  8
0
  6
Continuous
 62
     7
370
    15
100
AcDbLine
 10
91.4970293123
 20
276.8456122264
 30
0.0
 11
91.4970293123
 21
271.1752346617
 31
0.0
  0
LINE
  5
143
330
1F
100
AcDbEntity
  8
0
  6
Continuous
 62
     7
370
    15
100
AcDbLine
 10
87.4970293123
 20
267.146435703
 30
0.0
 11
87.4970293123
 21
251.8456122264
 31
0.0
  0
LINE
  5
144
330
1F
100
AcDbEntity
  8
0
  6
Continuous
 62
     7
370
    15
100
AcDbLine
 10
87.4970293123
 20
286.8456122264
 30
0.0
 11
87.4970293123
 21
267.146435703
 31
0.0
  0
LINE
  5
145
330
1F
100
AcDbEntity
  8
0
  6
Continuous
 62
     7
370
    15
100
AcDbLine
 10
88.4970293123
 20
267.146435703
 30
0.0
 11
88.4970293123
 21
251.8456122264
 31
0.0
  0
LINE
  5
146
330
1F
100
AcDbEntity
  8
0
  6
Continuous
 62
     7
370
    15
100
AcDbLine
 10
88.4970293123
 20
286.8456122264
 30
0.0
 11
88.4970293123
 21
267.146435703
 31
0.0
  0
LINE
  5
147
330
1F
100
AcDbEntity
  8
0
  6
Continuous
 62
     7
370
    15
100
AcDbLine
 10
83.4970293123
 20
268.0889399273
 30
0.0
 11
83.4970293123
 21
259.3456122264
 31
0.0
  0
LINE
  5
148
330
1F
100
AcDbEntity
  8
0
  6
Continuous
 62
     7
370
    15
100
AcDbLine
 10
83.4970293123
 20
279.3456122264
 30
0.0
 11
83.4970293123
 21
268.0889399273
 31
0.0
  0
LINE
  5
149
330
1F
100
AcDbEntity
  8
0
  6
Continuous
 62
     7
370
    15
100
AcDbLine
 10
76.4970293123
 20
279.3805353789
 30
0.0
 11
76.4970293123
 21
286.8456122264
 31
0.0
  0
LINE
  5
14A
330
1F
100
AcDbEntity
  8
0
  6
Continuous
 62
     7
370
    15
100
AcDbLine
 10
76.4970293123
 20
251.8456122264
 30
0.0
 11
76.4970293123
 21
279.3805353789
 31
0.0
  0
LINE
  5
14B
330
1F
100
AcDbEntity
  8
0
  6
Continuous
 62
     7
370
    15
100
AcDbLine
 10
77.4970293123
 20
279.3805353789
 30
0.0
 11
77.4970293123
 21
286.8456122264
 31
0.0
  0
LINE
  5
14C
330
1F
100
AcDbEntity
  8
0
  6
Continuous
 62
     7
370
    15
100
AcDbLine
 10
77.4970293123
 20
251.8456122264
 30
0.0
 11
77.4970293123
 21
279.3805353789
 31
0.0
  0
LINE
  5
14D
330
1F
100
AcDbEntity
  8
0
  6
Continuous
 62
     7
370
    15
100
AcDbLine
 10
81.4970293123
 20
275.0798540278
 30
0.0
 11
81.4970293123
 21
279.3456122264
 31
0.0
  0
LINE
  5
14E
330
1F
100
AcDbEntity
  8
0
  6
Continuous
 62
     7
370
    15
100
AcDbLine
 10
81.4970293123
 20
259.3456122264
 30
0.0
 11
81.4970293123
 21
275.0798540278
 31
0.0
  0
LINE
  5
14F
330
1F
100
AcDbEntity
  8
0
  6
Continuous
 62
     7
370
    15
100
AcDbLine
 10
76.4970293123
 20
267.582699443
 30
0.0
 11
76.4970293123
 21
286.8456122264
 31
0.0
  0
LINE
  5
150
330
1F
100
AcDbEntity
  8
0
  6
Continuous
 62
     7
370
    15
100
AcDbLine
 10
76.4970293123
 20
251.8456122264
 30
0.0
 11
76.4970293123
 21
267.582699443
 31
0.0
  0
LINE
  5
151
330
1F
100
AcDbEntity
  8
0
  6
Continuous
 62
     7
370
    15
100
AcDbLine
 10
75.6970293123
 20
286.8456122264
 30
0.0
 11
75.6970293123
 21
251.8456122264
 31
0.0
  0
LINE
  5
152
330
1F
100
AcDbEntity
  8
0
  6
Continuous
 62
     7
370
    15
100
AcDbLine
 10
73.6970293123
 20
253.8456122264
 30
0.0
 11
73.6970293123
 21
284.8456122264
 31
0.0
  0
CIRCLE
  5
153
330
1F
100
AcDbEntity
  8
0
  6
Continuous
 62
     7
370
    15
100
AcDbCircle
 10
108.9970293123
 20
269.3456122264
 30
0.0
 40
17.50000000000006
  0
CIRCLE
  5
154
330
1F
100
AcDbEntity
  8
0
  6
Continuous
 62
     7
370
    15
100
AcDbCircle
 10
108.9970293123
 20
269.3456122264
 30
0.0
 40
17.00000000000006
  0
LINE
  5
155
330
1F
100
AcDbEntity
  8
0
  6
Continuous
 62
     8
370
    15
100
AcDbLine
 10
126.6970293123
 20
262.8456122264
 30
0.0
 11
126.6970293123
 21
275.8456122264
 31
0.0
  0
LINE
  5
156
330
1F
100
AcDbEntity
  8
0
  6
Continuous
 62
     7
370
    15
100
AcDbLine
 10
126.6970293123
 20
34.3957170616
 30
0.0
 11
125.2451061216
 21
34.3957170616
 31
0.0
  0
LINE
  5
157
330
1F
100
AcDbEntity
  8
0
  6
Continuous
 62
     7
370
    15
100
AcDbLine
 10
125.2451061216
 20
21.3957170616
 30
0.0
 11
126.6970293123
 21
21.3957170616
 31
0.0
  0
ARC
  5
158
330
1F
100
AcDbEntity
  8
0
  6
Continuous
 62
     7
370
    15
100
AcDbCircle
 10
126.6970293123
 20
33.5957170616
 30
0.0
 40
0.7999999999999972
100
AcDbArc
 50
0.0
 51
90.0
  0
ARC
  5
159
330
1F
100
AcDbEntity
  8
0
  6
Continuous
 62
     7
370
    15
100
AcDbCircle
 10
126.6970293123
 20
22.1957170616
 30
0.0
 40
0.7999999999999972
100
AcDbArc
 50
270.0
 51
0.0
  0
LINE
  5
15A
330
1F
100
AcDbEntity
  8
0
  6
Continuous
 62
     7
370
    15
100
AcDbLine
 10
88.4970293123
 20
10.3957170616
 30
0.0
 11
90.4970293123
 21
10.3957170616
 31
0.0
  0
LINE
  5
15B
330
1F
100
AcDbEntity
  8
0
  6
Continuous
 62
     7
370
    15
100
AcDbLine
 10
90.4970293123
 20
45.3957170616
 30
0.0
 11
88.4970293123
 21
45.3957170616
 31
0.0
  0
LINE
  5
15C
330
1F
100
AcDbEntity
  8
0
  6
Continuous
 62
     7
370
    15
100
AcDbLine
 10
90.4970293123
 20
19.3957170616
 30
0.0
 11
91.4970293123
 21
20.3957170616
 31
0.0
  0
LINE
  5
15D
330
1F
100
AcDbEntity
  8
0
  6
Continuous
 62
     7
370
    15
100
AcDbLine
 10
91.4970293123
 20
35.3957170616
 30
0.0
 11
90.4970293123
 21
36.3957170616
 31
0.0
  0
LINE
  5
15E
330
1F
100
AcDbEntity
  8
0
  6
Continuous
 62
     7
370
    15
100
AcDbLine
 10
91.4970293123
 20
20.3957170616
 30
0.0
 11
93.1856410114
 21
20.3957170616
 31
0.0
  0
LINE
  5
15F
330
1F
100
AcDbEntity
  8
0
  6
Continuous
 62
     7
370
    15
100
AcDbLine
 10
93.1856410114
 20
35.3957170616
 30
0.0
 11
91.4970293123
 21
35.3957170616
 31
0.0
  0
LINE
  5
160
330
1F
100
AcDbEntity
  8
0
  6
Continuous
 62
     7
370
    15
100
AcDbLine
 10
76.4970293123
 20
10.3957170616
 30
0.0
 11
77.4970293123
 21
10.3957170616
 31
0.0
  0
LINE
  5
161
330
1F
100
AcDbEntity
  8
0
  6
Continuous
 62
     7
370
    15
100
AcDbLine
 10
77.4970293123
 20
45.3957170616
 30
0.0
 11
76.4970293123
 21
45.3957170616
 31
0.0
  0
LINE
  5
162
330
1F
100
AcDbEntity
  8
0
  6
Continuous
 62
     7
370
    15
100
AcDbLine
 10
77.4970293123
 20
17.8957170616
 30
0.0
 11
81.4970293123
 21
17.8957170616
 31
0.0
  0
LINE
  5
163
330
1F
100
AcDbEntity
  8
0
  6
Continuous
 62
     7
370
    15
100
AcDbLine
 10
81.4970293123
 20
37.8957170616
 30
0.0
 11
77.4970293123
 21
37.8957170616
 31
0.0
  0
LINE
  5
164
330
1F
100
AcDbEntity
  8
0
  6
Continuous
 62
     7
370
    15
100
AcDbLine
 10
88.4970293123
 20
45.3957170616
 30
0.0
 11
87.4970293123
 21
45.3957170616
 31
0.0
  0
LINE
  5
165
330
1F
100
AcDbEntity
  8
0
  6
Continuous
 62
     7
370
    15
100
AcDbLine
 10
87.4970293123
 20
10.3957170616
 30
0.0
 11
88.4970293123
 21
10.3957170616
 31
0.0
  0
LINE
  5
166
330
1F
100
AcDbEntity
  8
0
  6
Continuous
 62
     7
370
    15
100
AcDbLine
 10
87.4970293123
 20
37.8957170616
 30
0.0
 11
83.4970293123
 21
37.8957170616
 31
0.0
  0
LINE
  5
167
330
1F
100
AcDbEntity
  8
0
  6
Continuous
 62
     7
370
    15
100
AcDbLine
 10
83.4970293123
 20
17.8957170616
 30
0.0
 11
87.4970293123
 21
17.8957170616
 31
0.0
  0
LINE
  5
168
330
1F
100
AcDbEntity
  8
0
  6
Continuous
 62
     7
370
    15
100
AcDbLine
 10
75.6970293123
 20
45.3957170616
 30
0.0
 11
73.6970293123
 21
43.3957170616
 31
0.0
  0
LINE
  5
169
330
1F
100
AcDbEntity
  8
0
  6
Continuous
 62
     7
370
    15
100
AcDbLine
 10
73.6970293123
 20
12.3957170616
 30
0.0
 11
75.6970293123
 21
10.3957170616
 31
0.0
  0
LINE
  5
16A
330
1F
100
AcDbEntity
  8
0
  6
Continuous
 62
     7
370
    15
100
AcDbLine
 10
75.6970293123
 20
10.3957170616
 30
0.0
 11
76.4970293123
 21
10.3957170616
 31
0.0
  0
LINE
  5
16B
330
1F
100
AcDbEntity
  8
0
  6
Continuous
 62
     7
370
    15
100
AcDbLine
 10
76.4970293123
 20
45.3957170616
 30
0.0
 11
75.6970293123
 21
45.3957170616
 31
0.0
  0
LINE
  5
16C
330
1F
100
AcDbEntity
  8
0
  6
Continuous
 62
     7
370
    15
100
AcDbLine
 10
81.4970293123
 20
19.8957170616
 30
0.0
 11
83.4970293123
 21
19.8957170616
 31
0.0
  0
LINE
  5
16D
330
1F
100
AcDbEntity
  8
0
  6
Continuous
 62
     7
370
    15
100
AcDbLine
 10
83.4970293123
 20
35.8957170616
 30
0.0
 11
81.4970293123
 21
35.8957170616
 31
0.0
  0
LINE
  5
16E
330
1F
100
AcDbEntity
  8
0
  6
Continuous
 62
     7
370
    15
100
AcDbLine
 10
127.4970293123
 20
33.5957170616
 30
0.0
 11
127.4970293123
 21
22.1957170616
 31
0.0
  0
LINE
  5
16F
330
1F
100
AcDbEntity
  8
0
  6
Continuous
 62
     7
370
    15
100
AcDbLine
 10
90.4970293123
 20
10.3957170616
 30
0.0
 11
90.4970293123
 21
45.3957170616
 31
0.0
  0
LINE
  5
170
330
1F
100
AcDbEntity
  8
0
  6
Continuous
 62
     7
370
    15
100
AcDbLine
 10
88.4970293123
 20
10.3957170616
 30
0.0
 11
88.4970293123
 21
45.3957170616
 31
0.0
  0
LINE
  5
171
330
1F
100
AcDbEntity
  8
0
  6
Continuous
 62
     7
370
    15
100
AcDbLine
 10
91.4970293123
 20
35.3957170616
 30
0.0
 11
91.4970293123
 21
20.3957170616
 31
0.0
  0
LINE
  5
172
330
1F
100
AcDbEntity
  8
0
  6
Continuous
 62
     7
370
    15
100
AcDbLine
 10
77.4970293123
 20
11.7936937927
 30
0.0
 11
77.4970293123
 21
45.3957170616
 31
0.0
  0
LINE
  5
173
330
1F
100
AcDbEntity
  8
0
  6
Continuous
 62
     7
370
    15
100
AcDbLine
 10
77.4970293123
 20
10.3957170616
 30
0.0
 11
77.4970293123
 21
11.7936937927
 31
0.0
  0
LINE
  5
174
330
1F
100
AcDbEntity
  8
0
  6
Continuous
 62
     7
370
    15
100
AcDbLine
 10
76.4970293123
 20
11.7936937927
 30
0.0
 11
76.4970293123
 21
45.3957170616
 31
0.0
  0
LINE
  5
175
330
1F
100
AcDbEntity
  8
0
  6
Continuous
 62
     7
370
    15
100
AcDbLine
 10
76.4970293123
 20
10.3957170616
 30
0.0
 11
76.4970293123
 21
11.7936937927
 31
0.0
  0
LINE
  5
176
330
1F
100
AcDbEntity
  8
0
  6
Continuous
 62
     7
370
    15
100
AcDbLine
 10
81.4970293123
 20
18.6945609079
 30
0.0
 11
81.4970293123
 21
37.8957170616
 31
0.0
  0
LINE
  5
177
330
1F
100
AcDbEntity
  8
0
  6
Continuous
 62
     7
370
    15
100
AcDbLine
 10
81.4970293123
 20
17.8957170616
 30
0.0
 11
81.4970293123
 21
18.6945609079
 31
0.0
  0
LINE
  5
178
330
1F
100
AcDbEntity
  8
0
  6
Continuous
 62
     7
370
    15
100
AcDbLine
 10
87.4970293123
 20
45.3957170616
 30
0.0
 11
87.4970293123
 21
10.3957170616
 31
0.0
  0
LINE
  5
179
330
1F
100
AcDbEntity
  8
0
  6
Continuous
 62
     7
370
    15
100
AcDbLine
 10
83.4970293123
 20
37.8957170616
 30
0.0
 11
83.4970293123
 21
17.8957170616
 31
0.0
  0
LINE
  5
17A
330
1F
100
AcDbEntity
  8
0
  6
Continuous
 62
     7
370
    15
100
AcDbLine
 10
73.6970293123
 20
30.0497811304
 30
0.0
 11
73.6970293123
 21
43.3957170616
 31
0.0
  0
LINE
  5
17B
330
1F
100
AcDbEntity
  8
0
  6
Continuous
 62
     7
370
    15
100
AcDbLine
 10
73.6970293123
 20
12.3957170616
 30
0.0
 11
73.6970293123
 21
30.0497811304
 31
0.0
  0
LINE
  5
17C
330
1F
100
AcDbEntity
  8
0
  6
Continuous
 62
     7
370
    15
100
AcDbLine
 10
75.6970293123
 20
30.3277248812
 30
0.0
 11
75.6970293123
 21
10.3957170616
 31
0.0
  0
LINE
  5
17D
330
1F
100
AcDbEntity
  8
0
  6
Continuous
 62
     7
370
    15
100
AcDbLine
 10
75.6970293123
 20
45.3957170616
 30
0.0
 11
75.6970293123
 21
30.3277248812
 31
0.0
  0
LINE
  5
17E
330
1F
100
AcDbEntity
  8
0
  6
Continuous
 62
     7
370
    15
100
AcDbLine
 10
76.4970293123
 20
10.3957170616
 30
0.0
 11
76.4970293123
 21
45.3957170616
 31
0.0
  0
CIRCLE
  5
17F
330
1F
100
AcDbEntity
  8
0
  6
Continuous
 62
     7
370
    15
100
AcDbCircle
 10
108.9970293123
 20
27.8957170616
 30
0.0
 40
4.500000000000014
  0
CIRCLE
  5
180
330
1F
100
AcDbEntity
  8
0
  6
Continuous
 62
     7
370
    15
100
AcDbCircle
 10
108.9970293123
 20
27.8957170616
 30
0.0
 40
7.500000000000021
  0
CIRCLE
  5
181
330
1F
100
AcDbEntity
  8
0
  6
Continuous
 62
     7
370
    15
100
AcDbCircle
 10
108.9970293123
 20
27.8957170616
 30
0.0
 40
17.00000000000007
  0
CIRCLE
  5
182
330
1F
100
AcDbEntity
  8
0
  6
Continuous
 62
     7
370
    15
100
AcDbCircle
 10
108.9970293123
 20
27.8957170616
 30
0.0
 40
17.50000000000006
  0
LINE
  5
183
330
1F
100
AcDbEntity
  8
0
  6
Continuous
 62
     8
370
    15
100
AcDbLine
 10
126.6970293123
 20
34.3566093461
 30
0.0
 11
126.6970293123
 21
34.3957170616
 31
0.0
  0
LINE
  5
184
330
1F
100
AcDbEntity
  8
0
  6
Continuous
 62
     8
370
    15
100
AcDbLine
 10
126.6970293123
 20
21.3957170616
 30
0.0
 11
126.6970293123
 21
34.3566093461
 31
0.0
  0
ARC
  5
185
330
1F
100
AcDbEntity
  8
0
  6
Continuous
 62
     7
370
    15
100
AcDbCircle
 10
211.6729318313
 20
90.8909684329
 30
0.0
 40
0.8000000000000256
100
AcDbArc
 50
180.0
 51
270.0
  0
ARC
  5
186
330
1F
100
AcDbEntity
  8
0
  6
Continuous
 62
     7
370
    15
100
AcDbCircle
 10
211.6729318313
 20
102.2909684329
 30
0.0
 40
0.8000000000000398
100
AcDbArc
 50
90.0
 51
180.0
  0
LINE
  5
187
330
1F
100
AcDbEntity
  8
0
  6
Continuous
 62
     7
370
    15
100
AcDbLine
 10
211.6729318313
 20
90.0909684329
 30
0.0
 11
212.2756842133
 21
90.0909684329
 31
0.0
  0
LINE
  5
188
330
1F
100
AcDbEntity
  8
0
  6
Continuous
 62
     7
370
    15
100
AcDbLine
 10
212.2766439596
 20
103.0909684329
 30
0.0
 11
211.6729318313
 21
103.0909684329
 31
0.0
  0
LINE
  5
189
330
1F
100
AcDbEntity
  8
0
  6
Continuous
 62
     7
370
    15
100
AcDbLine
 10
211.6729318313
 20
140.0909684329
 30
0.0
 11
212.2762750333
 21
140.0909684329
 31
0.0
  0
LINE
  5
18A
330
1F
100
AcDbEntity
  8
0
  6
Continuous
 62
     7
370
    15
100
AcDbLine
 10
212.27715933
 20
153.0909684329
 30
0.0
 11
211.6729318313
 21
153.0909684329
 31
0.0
  0
ARC
  5
18B
330
1F
100
AcDbEntity
  8
0
  6
Continuous
 62
     7
370
    15
100
AcDbCircle
 10
211.6729318313
 20
140.8909684329
 30
0.0
 40
0.8000000000000114
100
AcDbArc
 50
180.0
 51
270.0
  0
ARC
  5
18C
330
1F
100
AcDbEntity
  8
0
  6
Continuous
 62
     7
370
    15
100
AcDbCircle
 10
211.6729318313
 20
152.2909684329
 30
0.0
 40
0.8000000000000114
100
AcDbArc
 50
90.0
 51
180.0
  0
LINE
  5
18D
330
1F
100
AcDbEntity
  8
0
  6
Continuous
 62
     7
370
    15
100
AcDbLine
 10
249.8729318313
 20
164.0909684329
 30
0.0
 11
247.8729318313
 21
164.0909684329
 31
0.0
  0
LINE
  5
18E
330
1F
100
AcDbEntity
  8
0
  6
Continuous
 62
     7
370
    15
100
AcDbLine
 10
247.8729318313
 20
129.0909684329
 30
0.0
 11
249.8729318313
 21
129.0909684329
 31
0.0
  0
LINE
  5
18F
330
1F
100
AcDbEntity
  8
0
  6
Continuous
 62
     7
370
    15
100
AcDbLine
 10
247.8729318313
 20
155.0909684329
 30
0.0
 11
246.8729318313
 21
154.0909684329
 31
0.0
  0
LINE
  5
190
330
1F
100
AcDbEntity
  8
0
  6
Continuous
 62
     7
370
    15
100
AcDbLine
 10
246.8729318313
 20
139.0909684329
 30
0.0
 11
247.8729318313
 21
138.0909684329
 31
0.0
  0
LINE
  5
191
330
1F
100
AcDbEntity
  8
0
  6
Continuous
 62
     7
370
    15
100
AcDbLine
 10
249.8729318313
 20
114.0909684329
 30
0.0
 11
247.8729318313
 21
114.0909684329
 31
0.0
  0
LINE
  5
192
330
1F
100
AcDbEntity
  8
0
  6
Continuous
 62
     7
370
    15
100
AcDbLine
 10
247.8729318313
 20
79.0909684329
 30
0.0
 11
249.8729318313
 21
79.0909684329
 31
0.0
  0
LINE
  5
193
330
1F
100
AcDbEntity
  8
0
  6
Continuous
 62
     7
370
    15
100
AcDbLine
 10
247.8729318313
 20
105.0909684329
 30
0.0
 11
246.8729318313
 21
104.0909684329
 31
0.0
  0
LINE
  5
194
330
1F
100
AcDbEntity
  8
0
  6
Continuous
 62
     7
370
    15
100
AcDbLine
 10
246.8729318313
 20
89.0909684329
 30
0.0
 11
247.8729318313
 21
88.0909684329
 31
0.0
  0
LINE
  5
195
330
1F
100
AcDbEntity
  8
0
  6
Continuous
 62
     7
370
    15
100
AcDbLine
 10
249.8729318313
 20
79.0909684329
 30
0.0
 11
250.8729318313
 21
79.0909684329
 31
0.0
  0
LINE
  5
196
330
1F
100
AcDbEntity
  8
0
  6
Continuous
 62
     7
370
    15
100
AcDbLine
 10
250.8729318313
 20
114.0909684329
 30
0.0
 11
249.8729318313
 21
114.0909684329
 31
0.0
  0
LINE
  5
197
330
1F
100
AcDbEntity
  8
0
  6
Continuous
 62
     7
370
    15
100
AcDbLine
 10
250.8729318313
 20
86.5909684329
 30
0.0
 11
254.8729318313
 21
86.5909684329
 31
0.0
  0
LINE
  5
198
330
1F
100
AcDbEntity
  8
0
  6
Continuous
 62
     7
370
    15
100
AcDbLine
 10
254.8729318313
 20
106.5909684329
 30
0.0
 11
250.8729318313
 21
106.5909684329
 31
0.0
  0
LINE
  5
199
330
1F
100
AcDbEntity
  8
0
  6
Continuous
 62
     7
370
    15
100
AcDbLine
 10
261.8729318313
 20
114.0909684329
 30
0.0
 11
260.8729318313
 21
114.0909684329
 31
0.0
  0
LINE
  5
19A
330
1F
100
AcDbEntity
  8
0
  6
Continuous
 62
     7
370
    15
100
AcDbLine
 10
260.8729318313
 20
79.0909684329
 30
0.0
 11
261.8729318313
 21
79.0909684329
 31
0.0
  0
LINE
  5
19B
330
1F
100
AcDbEntity
  8
0
  6
Continuous
 62
     7
370
    15
100
AcDbLine
 10
260.8729318313
 20
106.5909684329
 30
0.0
 11
256.8729318313
 21
106.5909684329
 31
0.0
  0
LINE
  5
19C
330
1F
100
AcDbEntity
  8
0
  6
Continuous
 62
     7
370
    15
100
AcDbLine
 10
256.8729318313
 20
86.5909684329
 30
0.0
 11
260.8729318313
 21
86.5909684329
 31
0.0
  0
LINE
  5
19D
330
1F
100
AcDbEntity
  8
0
  6
Continuous
 62
     7
370
    15
100
AcDbLine
 10
261.8729318313
 20
164.0909684329
 30
0.0
 11
260.8729318313
 21
164.0909684329
 31
0.0
  0
LINE
  5
19E
330
1F
100
AcDbEntity
  8
0
  6
Continuous
 62
     7
370
    15
100
AcDbLine
 10
260.8729318313
 20
129.0909684329
 30
0.0
 11
261.8729318313
 21
129.0909684329
 31
0.0
  0
LINE
  5
19F
330
1F
100
AcDbEntity
  8
0
  6
Continuous
 62
     7
370
    15
100
AcDbLine
 10
260.8729318313
 20
156.5909684329
 30
0.0
 11
256.8729318313
 21
156.5909684329
 31
0.0
  0
LINE
  5
1A0
330
1F
100
AcDbEntity
  8
0
  6
Continuous
 62
     7
370
    15
100
AcDbLine
 10
256.8729318313
 20
136.5909684329
 30
0.0
 11
260.8729318313
 21
136.5909684329
 31
0.0
  0
LINE
  5
1A1
330
1F
100
AcDbEntity
  8
0
  6
Continuous
 62
     7
370
    15
100
AcDbLine
 10
249.8729318313
 20
129.0909684329
 30
0.0
 11
250.8729318313
 21
129.0909684329
 31
0.0
  0
LINE
  5
1A2
330
1F
100
AcDbEntity
  8
0
  6
Continuous
 62
     7
370
    15
100
AcDbLine
 10
250.8729318313
 20
164.0909684329
 30
0.0
 11
249.8729318313
 21
164.0909684329
 31
0.0
  0
LINE
  5
1A3
330
1F
100
AcDbEntity
  8
0
  6
Continuous
 62
     7
370
    15
100
AcDbLine
 10
250.8729318313
 20
136.5909684329
 30
0.0
 11
254.8729318313
 21
136.5909684329
 31
0.0
  0
LINE
  5
1A4
330
1F
100
AcDbEntity
  8
0
  6
Continuous
 62
     7
370
    15
100
AcDbLine
 10
254.8729318313
 20
156.5909684329
 30
0.0
 11
250.8729318313
 21
156.5909684329
 31
0.0
  0
LINE
  5
1A5
330
1F
100
AcDbEntity
  8
0
  6
Continuous
 62
     7
370
    15
100
AcDbLine
 10
262.6729318313
 20
164.0909684329
 30
0.0
 11
261.8729318313
 21
164.0909684329
 31
0.0
  0
LINE
  5
1A6
330
1F
100
AcDbEntity
  8
0
  6
Continuous
 62
     7
370
    15
100
AcDbLine
 10
261.8729318313
 20
129.0909684329
 30
0.0
 11
262.6729318313
 21
129.0909684329
 31
0.0
  0
LINE
  5
1A7
330
1F
100
AcDbEntity
  8
0
  6
Continuous
 62
     7
370
    15
100
AcDbLine
 10
262.6729318313
 20
129.0909684329
 30
0.0
 11
264.6729318313
 21
131.0909684329
 31
0.0
  0
LINE
  5
1A8
330
1F
100
AcDbEntity
  8
0
  6
Continuous
 62
     7
370
    15
100
AcDbLine
 10
264.6729318313
 20
162.0909684329
 30
0.0
 11
262.6729318313
 21
164.0909684329
 31
0.0
  0
LINE
  5
1A9
330
1F
100
AcDbEntity
  8
0
  6
Continuous
 62
     7
370
    15
100
AcDbLine
 10
256.8729318313
 20
154.5909684329
 30
0.0
 11
254.8729318313
 21
154.5909684329
 31
0.0
  0
LINE
  5
1AA
330
1F
100
AcDbEntity
  8
0
  6
Continuous
 62
     7
370
    15
100
AcDbLine
 10
254.8729318313
 20
138.5909684329
 30
0.0
 11
256.8729318313
 21
138.5909684329
 31
0.0
  0
LINE
  5
1AB
330
1F
100
AcDbEntity
  8
0
  6
Continuous
 62
     7
370
    15
100
AcDbLine
 10
262.6729318313
 20
114.0909684329
 30
0.0
 11
261.8729318313
 21
114.0909684329
 31
0.0
  0
LINE
  5
1AC
330
1F
100
AcDbEntity
  8
0
  6
Continuous
 62
     7
370
    15
100
AcDbLine
 10
261.8729318313
 20
79.0909684329
 30
0.0
 11
262.6729318313
 21
79.0909684329
 31
0.0
  0
LINE
  5
1AD
330
1F
100
AcDbEntity
  8
0
  6
Continuous
 62
     7
370
    15
100
AcDbLine
 10
262.6729318313
 20
79.0909684329
 30
0.0
 11
264.6729318313
 21
81.0909684329
 31
0.0
  0
LINE
  5
1AE
330
1F
100
AcDbEntity
  8
0
  6
Continuous
 62
     7
370
    15
100
AcDbLine
 10
264.6729318313
 20
112.0909684329
 30
0.0
 11
262.6729318313
 21
114.0909684329
 31
0.0
  0
LINE
  5
1AF
330
1F
100
AcDbEntity
  8
0
  6
Continuous
 62
     7
370
    15
100
AcDbLine
 10
256.8729318313
 20
104.5909684329
 30
0.0
 11
254.8729318313
 21
104.5909684329
 31
0.0
  0
LINE
  5
1B0
330
1F
100
AcDbEntity
  8
0
  6
Continuous
 62
     7
370
    15
100
AcDbLine
 10
254.8729318313
 20
88.5909684329
 30
0.0
 11
256.8729318313
 21
88.5909684329
 31
0.0
  0
LINE
  5
1B1
330
1F
100
AcDbEntity
  8
0
  6
Continuous
 62
     7
370
    15
100
AcDbLine
 10
246.8729318313
 20
191.0909684329
 30
0.0
 11
246.3729318313
 21
191.5909684329
 31
0.0
  0
LINE
  5
1B2
330
1F
100
AcDbEntity
  8
0
  6
Continuous
 62
     7
370
    15
100
AcDbLine
 10
212.3729318313
 20
191.5909684329
 30
0.0
 11
211.8729318313
 21
191.0909684329
 31
0.0
  0
LINE
  5
1B3
330
1F
100
AcDbEntity
  8
0
  6
Continuous
 62
     7
370
    15
100
AcDbLine
 10
246.8729318313
 20
154.0909684329
 30
0.0
 11
246.8729318313
 21
191.0909684329
 31
0.0
  0
LINE
  5
1B4
330
1F
100
AcDbEntity
  8
0
  6
Continuous
 62
     7
370
    15
100
AcDbLine
 10
246.8729318313
 20
104.0909684329
 30
0.0
 11
246.8729318313
 21
139.0909684329
 31
0.0
  0
LINE
  5
1B5
330
1F
100
AcDbEntity
  8
0
  6
Continuous
 62
     7
370
    15
100
AcDbLine
 10
246.8729318313
 20
72.0909684329
 30
0.0
 11
246.8729318313
 21
89.0909684329
 31
0.0
  0
LINE
  5
1B6
330
1F
100
AcDbEntity
  8
0
  6
Continuous
 62
     7
370
    15
100
AcDbLine
 10
211.8729318313
 20
89.0909684329
 30
0.0
 11
211.8729318313
 21
72.0909684329
 31
0.0
  0
LINE
  5
1B7
330
1F
100
AcDbEntity
  8
0
  6
Continuous
 62
     7
370
    15
100
AcDbLine
 10
211.8729318313
 20
139.0909684329
 30
0.0
 11
211.8729318313
 21
104.0742531802
 31
0.0
  0
LINE
  5
1B8
330
1F
100
AcDbEntity
  8
0
  6
Continuous
 62
     7
370
    15
100
AcDbLine
 10
211.8729318313
 20
191.0909684329
 30
0.0
 11
211.8729318313
 21
154.0695916687
 31
0.0
  0
LINE
  5
1B9
330
1F
100
AcDbEntity
  8
0
  6
Continuous
 62
     7
370
    15
100
AcDbLine
 10
211.8729318313
 20
72.0909684329
 30
0.0
 11
212.3729318313
 21
71.5909684329
 31
0.0
  0
LINE
  5
1BA
330
1F
100
AcDbEntity
  8
0
  6
Continuous
 62
     7
370
    15
100
AcDbLine
 10
246.3729318313
 20
71.5909684329
 30
0.0
 11
246.8729318313
 21
72.0909684329
 31
0.0
  0
ARC
  5
1BB
330
1F
100
AcDbEntity
  8
0
  6
Continuous
 62
     7
370
    15
100
AcDbCircle
 10
224.8729318313
 20
208.5909684329
 30
0.0
 40
3.000000000000028
100
AcDbArc
 50
90.0
 51
180.0
  0
ARC
  5
1BC
330
1F
100
AcDbEntity
  8
0
  6
Continuous
 62
     7
370
    15
100
AcDbCircle
 10
233.8729318313
 20
208.5909684329
 30
0.0
 40
3.0
100
AcDbArc
 50
0.0
 51
90.0
  0
LINE
  5
1BD
330
1F
100
AcDbEntity
  8
0
  6
Continuous
 62
     7
370
    15
100
AcDbLine
 10
236.8729318313
 20
191.5909684329
 30
0.0
 11
236.8729318313
 21
208.5909684329
 31
0.0
  0
LINE
  5
1BE
330
1F
100
AcDbEntity
  8
0
  6
Continuous
 62
     7
370
    15
100
AcDbLine
 10
221.8729318313
 20
208.5909684329
 30
0.0
 11
221.8729318313
 21
191.5909684329
 31
0.0
  0
LINE
  5
1BF
330
1F
100
AcDbEntity
  8
0
  6
Continuous
 62
     7
370
    15
100
AcDbLine
 10
210.8729318313
 20
97.2152926382
 30
0.0
 11
210.8729318313
 21
102.2909684329
 31
0.0
  0
LINE
  5
1C0
330
1F
100
AcDbEntity
  8
0
  6
Continuous
 62
     7
370
    15
100
AcDbLine
 10
210.8729318313
 20
90.8909684329
 30
0.0
 11
210.8729318313
 21
97.2152926382
 31
0.0
  0
LINE
  5
1C1
330
1F
100
AcDbEntity
  8
0
  6
Continuous
 62
     7
370
    15
100
AcDbLine
 10
210.8729318313
 20
147.2152926382
 30
0.0
 11
210.8729318313
 21
152.2909684329
 31
0.0
  0
LINE
  5
1C2
330
1F
100
AcDbEntity
  8
0
  6
Continuous
 62
     7
370
    15
100
AcDbLine
 10
210.8729318313
 20
140.8909684329
 30
0.0
 11
210.8729318313
 21
147.2152926382
 31
0.0
  0
LINE
  5
1C3
330
1F
100
AcDbEntity
  8
0
  6
Continuous
 62
     7
370
    15
100
AcDbLine
 10
247.8729318313
 20
164.0909684329
 30
0.0
 11
247.8729318313
 21
129.0909684329
 31
0.0
  0
LINE
  5
1C4
330
1F
100
AcDbEntity
  8
0
  6
Continuous
 62
     7
370
    15
100
AcDbLine
 10
249.8729318313
 20
164.0909684329
 30
0.0
 11
249.8729318313
 21
129.0909684329
 31
0.0
  0
LINE
  5
1C5
330
1F
100
AcDbEntity
  8
0
  6
Continuous
 62
     7
370
    15
100
AcDbLine
 10
246.8729318313
 20
139.0909684329
 30
0.0
 11
246.8729318313
 21
154.0909684329
 31
0.0
  0
LINE
  5
1C6
330
1F
100
AcDbEntity
  8
0
  6
Continuous
 62
     7
370
    15
100
AcDbLine
 10
247.8729318313
 20
114.0909684329
 30
0.0
 11
247.8729318313
 21
79.0909684329
 31
0.0
  0
LINE
  5
1C7
330
1F
100
AcDbEntity
  8
0
  6
Continuous
 62
     7
370
    15
100
AcDbLine
 10
249.8729318313
 20
114.0909684329
 30
0.0
 11
249.8729318313
 21
79.0909684329
 31
0.0
  0
LINE
  5
1C8
330
1F
100
AcDbEntity
  8
0
  6
Continuous
 62
     7
370
    15
100
AcDbLine
 10
246.8729318313
 20
89.0909684329
 30
0.0
 11
246.8729318313
 21
104.0909684329
 31
0.0
  0
LINE
  5
1C9
330
1F
100
AcDbEntity
  8
0
  6
Continuous
 62
     7
370
    15
100
AcDbLine
 10
250.8729318313
 20
79.2297005466
 30
0.0
 11
250.8729318313
 21
114.0909684329
 31
0.0
  0
LINE
  5
1CA
330
1F
100
AcDbEntity
  8
0
  6
Continuous
 62
     7
370
    15
100
AcDbLine
 10
250.8729318313
 20
79.0909684329
 30
0.0
 11
250.8729318313
 21
79.2297005466
 31
0.0
  0
LINE
  5
1CB
330
1F
100
AcDbEntity
  8
0
  6
Continuous
 62
     7
370
    15
100
AcDbLine
 10
249.8729318313
 20
79.2297005466
 30
0.0
 11
249.8729318313
 21
114.0909684329
 31
0.0
  0
LINE
  5
1CC
330
1F
100
AcDbEntity
  8
0
  6
Continuous
 62
     7
370
    15
100
AcDbLine
 10
249.8729318313
 20
79.0909684329
 30
0.0
 11
249.8729318313
 21
79.2297005466
 31
0.0
  0
LINE
  5
1CD
330
1F
100
AcDbEntity
  8
0
  6
Continuous
 62
     7
370
    15
100
AcDbLine
 10
254.8729318313
 20
86.6702439265
 30
0.0
 11
254.8729318313
 21
106.5909684329
 31
0.0
  0
LINE
  5
1CE
330
1F
100
AcDbEntity
  8
0
  6
Continuous
 62
     7
370
    15
100
AcDbLine
 10
254.8729318313
 20
86.5909684329
 30
0.0
 11
254.8729318313
 21
86.6702439265
 31
0.0
  0
LINE
  5
1CF
330
1F
100
AcDbEntity
  8
0
  6
Continuous
 62
     7
370
    15
100
AcDbLine
 10
260.8729318313
 20
114.0909684329
 30
0.0
 11
260.8729318313
 21
79.0909684329
 31
0.0
  0
LINE
  5
1D0
330
1F
100
AcDbEntity
  8
0
  6
Continuous
 62
     7
370
    15
100
AcDbLine
 10
261.8729318313
 20
114.0909684329
 30
0.0
 11
261.8729318313
 21
79.0909684329
 31
0.0
  0
LINE
  5
1D1
330
1F
100
AcDbEntity
  8
0
  6
Continuous
 62
     7
370
    15
100
AcDbLine
 10
256.8729318313
 20
106.5909684329
 30
0.0
 11
256.8729318313
 21
86.5909684329
 31
0.0
  0
LINE
  5
1D2
330
1F
100
AcDbEntity
  8
0
  6
Continuous
 62
     7
370
    15
100
AcDbLine
 10
260.8729318313
 20
164.0909684329
 30
0.0
 11
260.8729318313
 21
129.0909684329
 31
0.0
  0
LINE
  5
1D3
330
1F
100
AcDbEntity
  8
0
  6
Continuous
 62
     7
370
    15
100
AcDbLine
 10
261.8729318313
 20
164.0909684329
 30
0.0
 11
261.8729318313
 21
129.0909684329
 31
0.0
  0
LINE
  5
1D4
330
1F
100
AcDbEntity
  8
0
  6
Continuous
 62
     7
370
    15
100
AcDbLine
 10
256.8729318313
 20
156.5909684329
 30
0.0
 11
256.8729318313
 21
136.5909684329
 31
0.0
  0
LINE
  5
1D5
330
1F
100
AcDbEntity
  8
0
  6
Continuous
 62
     7
370
    15
100
AcDbLine
 10
250.8729318313
 20
129.2297005466
 30
0.0
 11
250.8729318313
 21
164.0909684329
 31
0.0
  0
LINE
  5
1D6
330
1F
100
AcDbEntity
  8
0
  6
Continuous
 62
     7
370
    15
100
AcDbLine
 10
250.8729318313
 20
129.0909684329
 30
0.0
 11
250.8729318313
 21
129.2297005466
 31
0.0
  0
LINE
  5
1D7
330
1F
100
AcDbEntity
  8
0
  6
Continuous
 62
     7
370
    15
100
AcDbLine
 10
249.8729318313
 20
129.2297005466
 30
0.0
 11
249.8729318313
 21
164.0909684329
 31
0.0
  0
LINE
  5
1D8
330
1F
100
AcDbEntity
  8
0
  6
Continuous
 62
     7
370
    15
100
AcDbLine
 10
249.8729318313
 20
129.0909684329
 30
0.0
 11
249.8729318313
 21
129.2297005466
 31
0.0
  0
LINE
  5
1D9
330
1F
100
AcDbEntity
  8
0
  6
Continuous
 62
     7
370
    15
100
AcDbLine
 10
254.8729318313
 20
136.6702439265
 30
0.0
 11
254.8729318313
 21
156.5909684329
 31
0.0
  0
LINE
  5
1DA
330
1F
100
AcDbEntity
  8
0
  6
Continuous
 62
     7
370
    15
100
AcDbLine
 10
254.8729318313
 20
136.5909684329
 30
0.0
 11
254.8729318313
 21
136.6702439265
 31
0.0
  0
LINE
  5
1DB
330
1F
100
AcDbEntity
  8
0
  6
Continuous
 62
     7
370
    15
100
AcDbLine
 10
262.6729318313
 20
163.9211541782
 30
0.0
 11
262.6729318313
 21
164.0909684329
 31
0.0
  0
LINE
  5
1DC
330
1F
100
AcDbEntity
  8
0
  6
Continuous
 62
     7
370
    15
100
AcDbLine
 10
262.6729318313
 20
129.0909684329
 30
0.0
 11
262.6729318313
 21
163.9211541782
 31
0.0
  0
LINE
  5
1DD
330
1F
100
AcDbEntity
  8
0
  6
Continuous
 62
     7
370
    15
100
AcDbLine
 10
264.6729318313
 20
161.9405615216
 30
0.0
 11
264.6729318313
 21
131.0909684329
 31
0.0
  0
LINE
  5
1DE
330
1F
100
AcDbEntity
  8
0
  6
Continuous
 62
     7
370
    15
100
AcDbLine
 10
264.6729318313
 20
162.0909684329
 30
0.0
 11
264.6729318313
 21
161.9405615216
 31
0.0
  0
LINE
  5
1DF
330
1F
100
AcDbEntity
  8
0
  6
Continuous
 62
     7
370
    15
100
AcDbLine
 10
261.8729318313
 20
79.1799909038
 30
0.0
 11
261.8729318313
 21
79.0909684329
 31
0.0
  0
LINE
  5
1E0
330
1F
100
AcDbEntity
  8
0
  6
Continuous
 62
     7
370
    15
100
AcDbLine
 10
261.8729318313
 20
114.0909684329
 30
0.0
 11
261.8729318313
 21
79.1799909038
 31
0.0
  0
LINE
  5
1E1
330
1F
100
AcDbEntity
  8
0
  6
Continuous
 62
     7
370
    15
100
AcDbLine
 10
262.6729318313
 20
79.0909684329
 30
0.0
 11
262.6729318313
 21
114.0909684329
 31
0.0
  0
LINE
  5
1E2
330
1F
100
AcDbEntity
  8
0
  6
Continuous
 62
     7
370
    15
100
AcDbLine
 10
264.6729318313
 20
112.0909684329
 30
0.0
 11
264.6729318313
 21
81.0909684329
 31
0.0
  0
LINE
  5
1E3
330
1F
100
AcDbEntity
  8
0
  6
Continuous
 62
     7
370
    15
100
AcDbLine
 10
229.3729318313
 20
191.5909684329
 30
0.0
 11
246.3729318313
 21
191.5909684329
 31
0.0
  0
LINE
  5
1E4
330
1F
100
AcDbEntity
  8
0
  6
Continuous
 62
     7
370
    15
100
AcDbLine
 10
212.3729318313
 20
191.5909684329
 30
0.0
 11
229.3729318313
 21
191.5909684329
 31
0.0
  0
LINE
  5
1E5
330
1F
100
AcDbEntity
  8
0
  6
Continuous
 62
     7
370
    15
100
AcDbLine
 10
229.3729318313
 20
191.0909684329
 30
0.0
 11
211.8729318313
 21
191.0909684329
 31
0.0
  0
LINE
  5
1E6
330
1F
100
AcDbEntity
  8
0
  6
Continuous
 62
     7
370
    15
100
AcDbLine
 10
246.8729318313
 20
191.0909684329
 30
0.0
 11
229.3729318313
 21
191.0909684329
 31
0.0
  0
SPLINE
  5
1E7
330
1F
100
AcDbEntity
  8
0
  6
Continuous
 62
     7
370
    15
100
AcDbSpline
210
0.0
220
0.0
230
1.0
 70
     8
 71
     3
 72
    38
 73
    34
 74
     0
 42
0.000000001
 43
0.00000001
 40
0.0
 40
0.0
 40
0.0
 40
0.0
 40
0.0247868715674539
 40
0.0752521136796298
 40
0.1009868951557375
 40
0.1257716512548424
 40
0.1761245470673985
 40
0.2017333146730143
 40
0.2277192460263673
 40
0.2804901087892523
 40
0.3073289334633512
 40
0.3345987628499469
 40
0.3620677511756872
 40
0.3901932980095294
 40
0.4185608041620571
 40
0.4444102359617392
 40
0.4971392525108545
 40
0.5241076980243022
 40
0.5479176386165147
 40
0.5963280845793366
 40
0.6209711056759102
 40
0.6453570736869471
 40
0.6948405899665345
 40
0.7199744756682096
 40
0.7465191770177177
 40
0.8004591214994599
 40
0.8279203418864394
 40
0.8550569967957219
 40
0.8823995972400307
 40
0.9104204906806044
 40
0.938688980201149
 40
0.9640275690877806
 40
0.9999999999999999
 40
0.9999999999999999
 40
0.9999999999999999
 40
0.9999999999999999
 10
211.8729318313412
 20
139.0909684329195
 30
0.0
 10
211.8749395286296
 20
139.0956540680105
 30
0.0
 10
211.8810348304982
 20
139.1098794995484
 30
0.0
 10
211.9379460724257
 20
139.2430040042522
 30
0.0
 10
212.0292430884333
 20
139.4626201002541
 30
0.0
 10
212.1429246973334
 20
139.7422242796252
 30
0.0
 10
212.2854220551693
 20
140.1063337964634
 30
0.0
 10
212.4487470733071
 20
140.5523281912715
 30
0.0
 10
212.6252956074757
 20
141.0600160093888
 30
0.0
 10
212.8122676006082
 20
141.6492443795272
 30
0.0
 10
212.9950262430026
 20
142.3108767752239
 30
0.0
 10
213.1274842797806
 20
142.8477251805076
 30
0.0
 10
213.2506811542106
 20
143.4224989342797
 30
0.0
 10
213.3597405969443
 20
144.0316448864374
 30
0.0
 10
213.4470268611121
 20
144.651593923601
 30
0.0
 10
213.531615641911
 20
145.478094173106
 30
0.0
 10
213.5691355267921
 20
146.3180984582981
 30
0.0
 10
213.5558000541208
 20
147.1411515064293
 30
0.0
 10
213.5133749915059
 20
147.9238880844997
 30
0.0
 10
213.4321652277901
 20
148.6734158309691
 30
0.0
 10
213.3177207337777
 20
149.3949329550473
 30
0.0
 10
213.183249737738
 20
150.0994014725184
 30
0.0
 10
213.0247987018733
 20
150.7648540339452
 30
0.0
 10
212.8515708208598
 20
151.3889784710202
 30
0.0
 10
212.6668417205408
 20
151.9980852610069
 30
0.0
 10
212.4790116517981
 20
152.5487492630494
 30
0.0
 10
212.3065851157255
 20
153.0168054929964
 30
0.0
 10
212.1879597527582
 20
153.3248994158031
 30
0.0
 10
212.0835667326637
 20
153.5865358912032
 30
0.0
 10
211.995841937086
 20
153.8001675992114
 30
0.0
 10
211.9323877595269
 20
153.9514711651395
 30
0.0
 10
211.8820738954684
 20
154.0697188985993
 30
0.0
 10
211.8820744685629
 20
154.069638714379
 30
0.0
 10
211.8820748048092
 20
154.0695916686548
 30
0.0
  0
ARC
  5
1E8
330
1F
100
AcDbEntity
  8
0
  6
Continuous
 62
     7
370
    15
100
AcDbCircle
 10
263.4042870194
 20
96.5914439225
 30
0.0
 40
18.15292186494084
100
AcDbArc
 50
155.5983638573
 51
204.347010785
  0
ARC
  5
1E9
330
1F
100
AcDbEntity
  8
0
  6
Continuous
 62
     7
370
    15
100
AcDbCircle
 10
263.4042870194
 20
146.5914439225
 30
0.0
 40
18.15292186494058
100
AcDbArc
 50
155.5983638573
 51
204.347010785
  0
SPLINE
  5
1EA
330
1F
100
AcDbEntity
  8
0
  6
Continuous
 62
     7
370
    15
100
AcDbSpline
210
0.0
220
0.0
230
1.0
 70
     8
 71
     3
 72
    27
 73
    23
 74
     0
 42
0.000000001
 43
0.00000001
 40
0.0
 40
0.0
 40
0.0
 40
0.0
 40
0.0497373915189303
 40
0.1009927630590869
 40
0.1507112220817576
 40
0.2017508821158024
 40
0.2538734929542005
 40
0.3073584779621922
 40
0.3620756668264062
 40
0.418537102120266
 40
0.4704177328658226
 40
0.5240832595203363
 40
0.5718516576459178
 40
0.6209561794773863
 40
0.6698657057467458
 40
0.7199738814688539
 40
0.7732210225441017
 40
0.8279294846558639
 40
0.8823852543939603
 40
0.9386416525575466
 40
0.9894907107409523
 40
1.0
 40
1.0
 40
1.0
 40
1.0
 10
211.872931831343
 20
89.09096843291931
 30
0.0
 10
211.8807566580073
 20
89.10913501925293
 30
0.0
 10
211.8966451242326
 20
89.1460226342475
 30
0.0
 10
212.0213284414811
 20
89.4412963415333
 30
0.0
 10
212.2079952450098
 20
89.90392299854719
 30
0.0
 10
212.446473604672
 20
90.53676665255767
 30
0.0
 10
212.7187254946196
 20
91.33792742360144
 30
0.0
 10
212.9998928056298
 20
92.30022037530956
 30
0.0
 10
213.2600767575434
 20
93.41674066887255
 30
0.0
 10
213.4561774438713
 20
94.62747825957244
 30
0.0
 10
213.5630051465996
 20
95.89658237859355
 30
0.0
 10
213.5681239986373
 20
97.12186843402993
 30
0.0
 10
213.4819097393654
 20
98.30591035614152
 30
0.0
 10
213.3247125146005
 20
99.40485696253931
 30
0.0
 10
213.1081368514175
 20
100.4453780612086
 30
0.0
 10
212.8500194802207
 20
101.4148850501455
 30
0.0
 10
212.5703480518796
 20
102.2941503065337
 30
0.0
 10
212.3009855363438
 20
103.0389856342925
 30
0.0
 10
212.0715784577103
 20
103.6192185387607
 30
0.0
 10
211.9275775998261
 20
103.963651951526
 30
0.0
 10
211.8648095090012
 20
104.1099836551032
 30
0.0
 10
211.8778421170717
 20
104.0794780896596
 30
0.0
 10
211.8800743063943
 20
104.0742531801791
 30
0.0
  0
LINE
  5
1EB
330
1F
100
AcDbEntity
  8
0
  6
Continuous
 62
     7
370
    15
100
AcDbLine
 10
229.3729318313
 20
72.0909684329
 30
0.0
 11
246.8729318313
 21
72.0909684329
 31
0.0
  0
LINE
  5
1EC
330
1F
100
AcDbEntity
  8
0
  6
Continuous
 62
     7
370
    15
100
AcDbLine
 10
211.8729318313
 20
72.0909684329
 30
0.0
 11
229.3729318313
 21
72.0909684329
 31
0.0
  0
LINE
  5
1ED
330
1F
100
AcDbEntity
  8
0
  6
Continuous
 62
     7
370
    15
100
AcDbLine
 10
229.3729318313
 20
71.5909684329
 30
0.0
 11
212.3729318313
 21
71.5909684329
 31
0.0
  0
LINE
  5
1EE
330
1F
100
AcDbEntity
  8
0
  6
Continuous
 62
     7
370
    15
100
AcDbLine
 10
246.3729318313
 20
71.5909684329
 30
0.0
 11
229.3729318313
 21
71.5909684329
 31
0.0
  0
LINE
  5
1EF
330
1F
100
AcDbEntity
  8
0
  6
Continuous
 62
     7
370
    15
100
AcDbLine
 10
229.3729318313
 20
211.5909684329
 30
0.0
 11
233.8729318313
 21
211.5909684329
 31
0.0
  0
LINE
  5
1F0
330
1F
100
AcDbEntity
  8
0
  6
Continuous
 62
     7
370
    15
100
AcDbLine
 10
224.8729318313
 20
211.5909684329
 30
0.0
 11
229.3729318313
 21
211.5909684329
 31
0.0
  0
LINE
  5
1F1
330
1F
100
AcDbEntity
  8
0
  6
Continuous
 62
     8
370
    15
100
AcDbLine
 10
211.6729318313
 20
97.3029170881
 30
0.0
 11
211.6729318313
 21
90.0909684329
 31
0.0
  0
LINE
  5
1F2
330
1F
100
AcDbEntity
  8
0
  6
Continuous
 62
     8
370
    15
100
AcDbLine
 10
211.6729318313
 20
103.0909684329
 30
0.0
 11
211.6729318313
 21
97.3029170881
 31
0.0
  0
LINE
  5
1F3
330
1F
100
AcDbEntity
  8
0
  6
Continuous
 62
     8
370
    15
100
AcDbLine
 10
211.6729318313
 20
147.3029170881
 30
0.0
 11
211.6729318313
 21
140.0909684329
 31
0.0
  0
LINE
  5
1F4
330
1F
100
AcDbEntity
  8
0
  6
Continuous
 62
     8
370
    15
100
AcDbLine
 10
211.6729318313
 20
153.0909684329
 30
0.0
 11
211.6729318313
 21
147.3029170881
 31
0.0
  0
LINE
  5
1F5
330
1F
100
AcDbEntity
  8
0
  6
Continuous
 62
     8
370
    15
100
AcDbLine
 10
229.3729318313
 20
208.5909684329
 30
0.0
 11
221.8729318313
 21
208.5909684329
 31
0.0
  0
LINE
  5
1F6
330
1F
100
AcDbEntity
  8
0
  6
Continuous
 62
     8
370
    15
100
AcDbLine
 10
236.8729318313
 20
208.5909684329
 30
0.0
 11
229.3729318313
 21
208.5909684329
 31
0.0
  0
ENDSEC
  0
SECTION
  2
OBJECTS
  0
DICTIONARY
  5
C
330
0
100
AcDbDictionary
281
     1
  3
ACAD_GROUP
350
D
  3
ACAD_LAYOUT
350
1A
  3
ACAD_MLINESTYLE
350
17
  3
ACAD_PLOTSETTINGS
350
19
  3
ACAD_PLOTSTYLENAME
350
E
  3
ACAD_SCALELIST
350
47
  0
DICTIONARY
  5
D
102
{ACAD_REACTORS
330
C
102
}
330
C
100
AcDbDictionary
281
     1
  0
DICTIONARY
  5
1A
102
{ACAD_REACTORS
330
C
102
}
330
C
100
AcDbDictionary
281
     1
  3
Layout1
350
1E
  3
Layout2
350
26
  3
Model
350
22
  0
DICTIONARY
  5
17
102
{ACAD_REACTORS
330
C
102
}
330
C
100
AcDbDictionary
281
     1
  3
Standard
350
18
  0
DICTIONARY
  5
19
102
{ACAD_REACTORS
330
C
102
}
330
C
100
AcDbDictionary
281
     1
  0
ACDBDICTIONARYWDFLT
  5
E
102
{ACAD_REACTORS
330
C
102
}
330
C
100
AcDbDictionary
281
     1
  3
Normal
350
F
100
AcDbDictionaryWithDefault
340
F
  0
DICTIONARY
  5
47
102
{ACAD_REACTORS
330
C
102
}
330
C
100
AcDbDictionary
281
     1
  3
A0
350
48
  3
A1
350
49
  3
A2
350
4A
  3
A3
350
4B
  3
A4
350
4C
  3
A5
350
4D
  3
A6
350
4E
  3
A7
350
4F
  3
A8
350
50
  3
A9
350
51
  3
B0
350
52
  3
B1
350
53
  3
B2
350
54
  3
B3
350
55
  3
B4
350
56
  3
B5
350
57
  3
B6
350
58
  3
B7
350
59
  3
B8
350
5A
  3
B9
350
5B
  3
C0
350
5C
  3
C1
350
5D
  3
C2
350
5E
  3
C3
350
5F
  3
C4
350
60
  3
C5
350
61
  3
C6
350
62
  3
C7
350
63
  3
C8
350
64
  3
C9
350
65
  3
D0
350
66
  3
D1
350
67
  3
D2
350
68
  0
LAYOUT
  5
1E
102
{ACAD_REACTORS
330
1A
102
}
330
1A
100
AcDbPlotSettings
  1

  2
none_device
  4

  6

 40
0.0
 41
0.0
 42
0.0
 43
0.0
 44
0.0
 45
0.0
 46
0.0
 47
0.0
 48
0.0
 49
0.0
140
0.0
141
0.0
142
1.0
143
1.0
 70
   688
 72
     1
 73
     0
 74
     5
  7

 75
    16
147
1.0
148
0.0
149
0.0
100
AcDbLayout
  1
Layout1
 70
     1
 71
     1
 10
0.0
 20
0.0
 11
420.0
 21
297.0
 12
0.0
 22
0.0
 32
0.0
 14
1.0000000000E+20
 24
1.0000000000E+20
 34
1.0000000000E+20
 15
-1.0000000000E+20
 25
-1.0000000000E+20
 35
-1.0000000000E+20
146
0.0
 13
0.0
 23
0.0
 33
0.0
 16
1.0
 26
0.0
 36
0.0
 17
0.0
 27
1.0
 37
0.0
 76
     0
330
1B
  0
LAYOUT
  5
26
102
{ACAD_REACTORS
330
1A
102
}
330
1A
100
AcDbPlotSettings
  1

  2
none_device
  4

  6

 40
0.0
 41
0.0
 42
0.0
 43
0.0
 44
0.0
 45
0.0
 46
0.0
 47
0.0
 48
0.0
 49
0.0
140
0.0
141
0.0
142
1.0
143
1.0
 70
   688
 72
     1
 73
     0
 74
     5
  7

 75
    16
147
1.0
148
0.0
149
0.0
100
AcDbLayout
  1
Layout2
 70
     1
 71
     2
 10
0.0
 20
0.0
 11
0.0
 21
0.0
 12
0.0
 22
0.0
 32
0.0
 14
0.0
 24
0.0
 34
0.0
 15
0.0
 25
0.0
 35
0.0
146
0.0
 13
0.0
 23
0.0
 33
0.0
 16
1.0
 26
0.0
 36
0.0
 17
0.0
 27
1.0
 37
0.0
 76
     0
330
23
  0
LAYOUT
  5
22
102
{ACAD_REACTORS
330
1A
102
}
330
1A
100
AcDbPlotSettings
  1

  2
none_device
  4
Letter_(8.50_x_11.00_Inches)
  6

 40
6.35
 41
6.35
 42
6.35000508
 43
6.35000508
 44
215.9
 45
279.4
 46
0.0
 47
0.0
 48
0.0
 49
0.0
140
0.0
141
0.0
142
1.0
143
1.0
 70
  1712
 72
     1
 73
     0
 74
     0
  7

 75
     0
147
1.0
148
0.0
149
0.0
100
AcDbLayout
  1
Model
 70
     1
 71
     0
 10
0.0
 20
0.0
 11
279.4
 21
215.9
 12
0.0
 22
0.0
 32
0.0
 14
0.0
 24
0.0
 34
0.0
 15
279.4
 25
215.9
 35
0.0
146
0.0
 13
0.0
 23
0.0
 33
0.0
 16
1.0
 26
0.0
 36
0.0
 17
0.0
 27
1.0
 37
0.0
 76
     0
330
1F
331
29
  0
MLINESTYLE
  5
18
102
{ACAD_REACTORS
330
17
102
}
330
17
100
AcDbMlineStyle
  2
Standard
 70
     0
  3

 62
   256
 51
90.0
 52
90.0
 71
     2
 49
0.5
 62
   256
  6
BYLAYER
 49
-0.5
 62
   256
  6
BYLAYER
  0
ACDBPLACEHOLDER
  5
F
102
{ACAD_REACTORS
330
E
102
}
330
E
  0
SCALE
  5
48
102
{ACAD_REACTORS
330
47
102
}
330
47
100
AcDbScale
 70
     0
300
1:1
140
1.0
141
1.0
290
     1
  0
SCALE
  5
49
102
{ACAD_REACTORS
330
47
102
}
330
47
100
AcDbScale
 70
     0
300
1:2
140
1.0
141
2.0
290
     0
  0
SCALE
  5
4A
102
{ACAD_REACTORS
330
47
102
}
330
47
100
AcDbScale
 70
     0
300
1:4
140
1.0
141
4.0
290
     0
  0
SCALE
  5
4B
102
{ACAD_REACTORS
330
47
102
}
330
47
100
AcDbScale
 70
     0
300
1:5
140
1.0
141
5.0
290
     0
  0
SCALE
  5
4C
102
{ACAD_REACTORS
330
47
102
}
330
47
100
AcDbScale
 70
     0
300
1:8
140
1.0
141
8.0
290
     0
  0
SCALE
  5
4D
102
{ACAD_REACTORS
330
47
102
}
330
47
100
AcDbScale
 70
     0
300
1:10
140
1.0
141
10.0
290
     0
  0
SCALE
  5
4E
102
{ACAD_REACTORS
330
47
102
}
330
47
100
AcDbScale
 70
     0
300
1:16
140
1.0
141
16.0
290
     0
  0
SCALE
  5
4F
102
{ACAD_REACTORS
330
47
102
}
330
47
100
AcDbScale
 70
     0
300
1:20
140
1.0
141
20.0
290
     0
  0
SCALE
  5
50
102
{ACAD_REACTORS
330
47
102
}
330
47
100
AcDbScale
 70
     0
300
1:30
140
1.0
141
30.0
290
     0
  0
SCALE
  5
51
102
{ACAD_REACTORS
330
47
102
}
330
47
100
AcDbScale
 70
     0
300
1:40
140
1.0
141
40.0
290
     0
  0
SCALE
  5
52
102
{ACAD_REACTORS
330
47
102
}
330
47
100
AcDbScale
 70
     0
300
1:50
140
1.0
141
50.0
290
     0
  0
SCALE
  5
53
102
{ACAD_REACTORS
330
47
102
}
330
47
100
AcDbScale
 70
     0
300
1:100
140
1.0
141
100.0
290
     0
  0
SCALE
  5
54
102
{ACAD_REACTORS
330
47
102
}
330
47
100
AcDbScale
 70
     0
300
2:1
140
2.0
141
1.0
290
     0
  0
SCALE
  5
55
102
{ACAD_REACTORS
330
47
102
}
330
47
100
AcDbScale
 70
     0
300
4:1
140
4.0
141
1.0
290
     0
  0
SCALE
  5
56
102
{ACAD_REACTORS
330
47
102
}
330
47
100
AcDbScale
 70
     0
300
8:1
140
8.0
141
1.0
290
     0
  0
SCALE
  5
57
102
{ACAD_REACTORS
330
47
102
}
330
47
100
AcDbScale
 70
     0
300
10:1
140
10.0
141
1.0
290
     0
  0
SCALE
  5
58
102
{ACAD_REACTORS
330
47
102
}
330
47
100
AcDbScale
 70
     0
300
100:1
140
100.0
141
1.0
290
     0
  0
SCALE
  5
59
102
{ACAD_REACTORS
330
47
102
}
330
47
100
AcDbScale
 70
     0
300
1/128" = 1'-0"
140
0.0078125
141
12.0
290
     0
  0
SCALE
  5
5A
102
{ACAD_REACTORS
330
47
102
}
330
47
100
AcDbScale
 70
     0
300
1/64" = 1'-0"
140
0.015625
141
12.0
290
     0
  0
SCALE
  5
5B
102
{ACAD_REACTORS
330
47
102
}
330
47
100
AcDbScale
 70
     0
300
1/32" = 1'-0"
140
0.03125
141
12.0
290
     0
  0
SCALE
  5
5C
102
{ACAD_REACTORS
330
47
102
}
330
47
100
AcDbScale
 70
     0
300
1/16" = 1'-0"
140
0.0625
141
12.0
290
     0
  0
SCALE
  5
5D
102
{ACAD_REACTORS
330
47
102
}
330
47
100
AcDbScale
 70
     0
300
3/32" = 1'-0"
140
0.09375
141
12.0
290
     0
  0
SCALE
  5
5E
102
{ACAD_REACTORS
330
47
102
}
330
47
100
AcDbScale
 70
     0
300
1/8" = 1'-0"
140
0.125
141
12.0
290
     0
  0
SCALE
  5
5F
102
{ACAD_REACTORS
330
47
102
}
330
47
100
AcDbScale
 70
     0
300
3/16" = 1'-0"
140
0.1875
141
12.0
290
     0
  0
SCALE
  5
60
102
{ACAD_REACTORS
330
47
102
}
330
47
100
AcDbScale
 70
     0
300
1/4" = 1'-0"
140
0.25
141
12.0
290
     0
  0
SCALE
  5
61
102
{ACAD_REACTORS
330
47
102
}
330
47
100
AcDbScale
 70
     0
300
3/8" = 1'-0"
140
0.375
141
12.0
290
     0
  0
SCALE
  5
62
102
{ACAD_REACTORS
330
47
102
}
330
47
100
AcDbScale
 70
     0
300
1/2" = 1'-0"
140
0.5
141
12.0
290
     0
  0
SCALE
  5
63
102
{ACAD_REACTORS
330
47
102
}
330
47
100
AcDbScale
 70
     0
300
3/4" = 1'-0"
140
0.75
141
12.0
290
     0
  0
SCALE
  5
64
102
{ACAD_REACTORS
330
47
102
}
330
47
100
AcDbScale
 70
     0
300
1" = 1'-0"
140
1.0
141
12.0
290
     0
  0
SCALE
  5
65
102
{ACAD_REACTORS
330
47
102
}
330
47
100
AcDbScale
 70
     0
300
1-1/2" = 1'-0"
140
1.5
141
12.0
290
     0
  0
SCALE
  5
66
102
{ACAD_REACTORS
330
47
102
}
330
47
100
AcDbScale
 70
     0
300
3" = 1'-0"
140
3.0
141
12.0
290
     0
  0
SCALE
  5
67
102
{ACAD_REACTORS
330
47
102
}
330
47
100
AcDbScale
 70
     0
300
6" = 1'-0"
140
6.0
141
12.0
290
     0
  0
SCALE
  5
68
102
{ACAD_REACTORS
330
47
102
}
330
47
100
AcDbScale
 70
     0
300
1'-0" = 1'-0"
140
12.0
141
12.0
290
     0
  0
ENDSEC
  0
EOF
