  0
SECTION
  2
HEADER
  9
$ACADVER
  1
AC1014
  9
$ACADMAINTVER
 70
     9
  9
$DWGCODEPAGE
  3
ANSI_1252
  9
$INSBASE
 10
0.0
 20
0.0
 30
0.0
  9
$EXTMIN
 10
0.0
 20
0.0
 30
0.0
  9
$EXTMAX
 10
279.4
 20
215.9
 30
0.0
  9
$LIMMIN
 10
0.0
 20
0.0
  9
$LIMMAX
 10
279.4
 20
215.9
  9
$ORTHOMODE
 70
     0
  9
$REGENMODE
 70
     1
  9
$FILLMODE
 70
     1
  9
$QTEXTMODE
 70
     0
  9
$MIRRTEXT
 70
     1
  9
$DRAGMODE
 70
     2
  9
$LTSCALE
 40
1.0
  9
$OSMODE
 70
    37
  9
$ATTMODE
 70
     1
  9
$TEXTSIZE
 40
3.5
  9
$TRACEWID
 40
1.0
  9
$TEXTSTYLE
  7
STANDARD
  9
$CLAYER
  8
0
  9
$CELTYPE
  6
BYLAYER
  9
$CECOLOR
 62
   256
  9
$CELTSCALE
 40
1.0
  9
$DELOBJ
 70
     1
  9
$DISPSILH
 70
     0
  9
$DIMSCALE
 40
1.0
  9
$DIMASZ
 40
3.302
  9
$DIMEXO
 40
1.0
  9
$DIMDLI
 40
3.75
  9
$DIMRND
 40
0.0
  9
$DIMDLE
 40
0.0
  9
$DIMEXE
 40
1.0
  9
$DIMTP
 40
0.0
  9
$DIMTM
 40
0.0
  9
$DIMTXT
 40
3.5
  9
$DIMCEN
 40
2.5
  9
$DIMTSZ
 40
0.0
  9
$DIMTOL
 70
     0
  9
$DIMLIM
 70
     0
  9
$DIMTIH
 70
     1
  9
$DIMTOH
 70
     1
  9
$DIMSE1
 70
     0
  9
$DIMSE2
 70
     0
  9
$DIMTAD
 70
     1
  9
$DIMZIN
 70
     1
  9
$DIMBLK
  1

  9
$DIMASO
 70
     1
  9
$DIMSHO
 70
     1
  9
$DIMPOST
  1

  9
$DIMAPOST
  1

  9
$DIMALT
 70
     0
  9
$DIMALTD
 70
     3
  9
$DIMALTF
 40
0.0393700787
  9
$DIMLFAC
 40
5.0
  9
$DIMTOFL
 70
     1
  9
$DIMTVP
 40
0.0
  9
$DIMTIX
 70
     0
  9
$DIMSOXD
 70
     0
  9
$DIMSAH
 70
     0
  9
$DIMBLK1
  1

  9
$DIMBLK2
  1

  9
$DIMSTYLE
  2
ISO-25
  9
$DIMCLRD
 70
     0
  9
$DIMCLRE
 70
     0
  9
$DIMCLRT
 70
     0
  9
$DIMTFAC
 40
1.0
  9
$DIMGAP
 40
1.524
  9
$DIMJUST
 70
     0
  9
$DIMSD1
 70
     0
  9
$DIMSD2
 70
     0
  9
$DIMTOLJ
 70
     0
  9
$DIMTZIN
 70
     1
  9
$DIMALTZ
 70
     0
  9
$DIMALTTZ
 70
     0
  9
$DIMFIT
 70
     3
  9
$DIMUPT
 70
     0
  9
$DIMUNIT
 70
     2
  9
$DIMDEC
 70
     2
  9
$DIMTDEC
 70
     2
  9
$DIMALTU
 70
     2
  9
$DIMALTTD
 70
     3
  9
$DIMTXSTY
  7
STANDARD
  9
$DIMAUNIT
 70
     0
  9
$LUNITS
 70
     2
  9
$LUPREC
 70
     2
  9
$SKETCHINC
 40
1.0
  9
$FILLETRAD
 40
0.0
  9
$AUNITS
 70
     0
  9
$AUPREC
 70
     2
  9
$MENU
  1
.
  9
$ELEVATION
 40
0.0
  9
$PELEVATION
 40
0.0
  9
$THICKNESS
 40
0.0
  9
$LIMCHECK
 70
     0
  9
$CHAMFERA
 40
0.0
  9
$CHAMFERB
 40
0.0
  9
$CHAMFERC
 40
0.0
  9
$CHAMFERD
 40
0.0
  9
$SKPOLY
 70
     0
  9
$TDCREATE
 40
2459622.511217894
  9
$TDUPDATE
 40
2459622.511218403
  9
$TDINDWG
 40
0.0000000116
  9
$TDUSRTIMER
 40
0.0000000116
  9
$USRTIMER
 70
     1
  9
$ANGBASE
 50
0.0
  9
$ANGDIR
 70
     0
  9
$PDMODE
 70
     0
  9
$PDSIZE
 40
-1.0
  9
$PLINEWID
 40
0.0
  9
$COORDS
 70
     1
  9
$SPLFRAME
 70
     0
  9
$SPLINETYPE
 70
     6
  9
$SPLINESEGS
 70
     8
  9
$ATTDIA
 70
     0
  9
$ATTREQ
 70
     1
  9
$HANDLING
 70
     1
  9
$HANDSEED
  5
2D0
  9
$SURFTAB1
 70
     6
  9
$SURFTAB2
 70
     6
  9
$SURFTYPE
 70
     6
  9
$SURFU
 70
     6
  9
$SURFV
 70
     6
  9
$UCSNAME
  2

  9
$UCSORG
 10
0.0
 20
0.0
 30
0.0
  9
$UCSXDIR
 10
1.0
 20
0.0
 30
0.0
  9
$UCSYDIR
 10
0.0
 20
1.0
 30
0.0
  9
$PUCSNAME
  2

  9
$PUCSORG
 10
0.0
 20
0.0
 30
0.0
  9
$PUCSXDIR
 10
1.0
 20
0.0
 30
0.0
  9
$PUCSYDIR
 10
0.0
 20
1.0
 30
0.0
  9
$USERI1
 70
     0
  9
$USERI2
 70
     0
  9
$USERI3
 70
     0
  9
$USERI4
 70
     0
  9
$USERI5
 70
     0
  9
$USERR1
 40
0.0
  9
$USERR2
 40
0.0
  9
$USERR3
 40
0.0
  9
$USERR4
 40
0.0
  9
$USERR5
 40
0.0
  9
$WORLDVIEW
 70
     1
  9
$SHADEDGE
 70
     3
  9
$SHADEDIF
 70
    70
  9
$TILEMODE
 70
     1
  9
$MAXACTVP
 70
    64
  9
$PINSBASE
 10
0.0
 20
0.0
 30
0.0
  9
$PLIMCHECK
 70
     0
  9
$PEXTMIN
 10
1.0000000000E+20
 20
1.0000000000E+20
 30
1.0000000000E+20
  9
$PEXTMAX
 10
-1.0000000000E+20
 20
-1.0000000000E+20
 30
-1.0000000000E+20
  9
$PLIMMIN
 10
0.0
 20
0.0
  9
$PLIMMAX
 10
420.0
 20
297.0
  9
$UNITMODE
 70
     0
  9
$VISRETAIN
 70
     1
  9
$PLINEGEN
 70
     0
  9
$PSLTSCALE
 70
     1
  9
$TREEDEPTH
 70
  3020
  9
$PICKSTYLE
 70
     1
  9
$CMLSTYLE
  2
STANDARD
  9
$CMLJUST
 70
     0
  9
$CMLSCALE
 40
20.0
  9
$PROXYGRAPHICS
 70
     1
  9
$MEASUREMENT
 70
     1
  0
ENDSEC
  0
SECTION
  2
CLASSES
  0
CLASS
  1
ACDBDICTIONARYWDFLT
  2
AcDbDictionaryWithDefault
  3
ObjectDBX Classes
 90
        0
280
     0
281
     0
  0
CLASS
  1
VISUALSTYLE
  2
AcDbVisualStyle
  3
ObjectDBX Classes
 90
     4095
280
     0
281
     0
  0
CLASS
  1
MATERIAL
  2
AcDbMaterial
  3
ObjectDBX Classes
 90
     1153
280
     0
281
     0
  0
CLASS
  1
SCALE
  2
AcDbScale
  3
ObjectDBX Classes
 90
     1153
280
     0
281
     0
  0
CLASS
  1
TABLESTYLE
  2
AcDbTableStyle
  3
ObjectDBX Classes
 90
     4095
280
     0
281
     0
  0
CLASS
  1
MLEADERSTYLE
  2
AcDbMLeaderStyle
  3
ACDB_MLEADERSTYLE_CLASS
 90
     4095
280
     0
281
     0
  0
CLASS
  1
SUN
  2
AcDbSun
  3
SCENEOE
 90
     1153
280
     0
281
     0
  0
CLASS
  1
XRECORD
  2
AcDbXrecord
  3
ObjectDBX Classes
 90
        0
280
     0
281
     0
  0
CLASS
  1
LWPOLYLINE
  2
AcDbPolyline
  3
ObjectDBX Classes
 90
        0
280
     0
281
     1
  0
CLASS
  1
HATCH
  2
AcDbHatch
  3
ObjectDBX Classes
 90
        0
280
     0
281
     1
  0
ENDSEC
  0
SECTION
  2
TABLES
  0
TABLE
  2
VPORT
  5
8
330
0
100
AcDbSymbolTable
 70
     1
  0
VPORT
  5
29
330
8
100
AcDbSymbolTableRecord
100
AcDbViewportTableRecord
  2
*ACTIVE
 70
     0
 10
0.0
 20
0.0
 11
1.0
 21
1.0
 12
139.7
 22
107.95
 13
0.0
 23
0.0
 14
10.0
 24
10.0
 15
10.0
 25
10.0
 16
0.0
 26
0.0
 36
1.0
 17
0.0
 27
0.0
 37
0.0
 40
215.9
 41
1.2941176471
 42
50.0
 43
0.0
 44
0.0
 50
0.0
 51
0.0
 71
     0
 72
  2000
 73
     1
 74
     3
 75
     0
 76
     0
 77
     0
 78
     0
  0
ENDTAB
  0
TABLE
  2
LTYPE
  5
5
330
0
100
AcDbSymbolTable
 70
     6
  0
LTYPE
  5
14
330
5
100
AcDbSymbolTableRecord
100
AcDbLinetypeTableRecord
  2
BYBLOCK
 70
     0
  3

 72
    65
 73
     0
 40
0.0
  0
LTYPE
  5
15
330
5
100
AcDbSymbolTableRecord
100
AcDbLinetypeTableRecord
  2
BYLAYER
 70
     0
  3

 72
    65
 73
     0
 40
0.0
  0
LTYPE
  5
16
330
5
100
AcDbSymbolTableRecord
100
AcDbLinetypeTableRecord
  2
CONTINUOUS
 70
     0
  3
Solid line
 72
    65
 73
     0
 40
0.0
  0
LTYPE
  5
5E
330
5
100
AcDbSymbolTableRecord
100
AcDbLinetypeTableRecord
  2
HIDDEN
 70
     0
  3
Hidden __ __ __ __ __ __ __ __ __ __ __ __ __ __
 72
    65
 73
     2
 40
1.905
 49
1.27
 74
     0
 49
-0.635
 74
     0
  0
LTYPE
  5
5F
330
5
100
AcDbSymbolTableRecord
100
AcDbLinetypeTableRecord
  2
PHANTOM
 70
     0
  3
Phantom ______  __  __  ______  __  __  ______
 72
    65
 73
     6
 40
12.7
 49
6.35
 74
     0
 49
-1.27
 74
     0
 49
1.27
 74
     0
 49
-1.27
 74
     0
 49
1.27
 74
     0
 49
-1.27
 74
     0
  0
LTYPE
  5
60
330
5
100
AcDbSymbolTableRecord
100
AcDbLinetypeTableRecord
  2
CENTER
 70
     0
  3
Center ____ _ ____ _ ____ _ ____ _ ____ _ ____
 72
    65
 73
     4
 40
10.16
 49
6.35
 74
     0
 49
-1.27
 74
     0
 49
1.27
 74
     0
 49
-1.27
 74
     0
  0
LTYPE
  5
61
330
5
100
AcDbSymbolTableRecord
100
AcDbLinetypeTableRecord
  2
CENTERX2
 70
     0
  3
Center (2x) ________  __  ________  __  _____
 72
    65
 73
     4
 40
20.32
 49
12.7
 74
     0
 49
-2.54
 74
     0
 49
2.54
 74
     0
 49
-2.54
 74
     0
  0
LTYPE
  5
62
330
5
100
AcDbSymbolTableRecord
100
AcDbLinetypeTableRecord
  2
DOT2
 70
     0
  3
Dot (.5x) ........................................
 72
    65
 73
     2
 40
0.635
 49
0.0
 74
     0
 49
-0.635
 74
     0
  0
ENDTAB
  0
TABLE
  2
LAYER
  5
2
330
0
100
AcDbSymbolTable
 70
     1
  0
LAYER
  5
10
330
2
100
AcDbSymbolTableRecord
100
AcDbLayerTableRecord
  2
0
 70
     0
 62
     7
  6
CONTINUOUS
  0
ENDTAB
  0
TABLE
  2
STYLE
  5
3
330
0
100
AcDbSymbolTable
 70
     1
  0
STYLE
  5
11
330
3
100
AcDbSymbolTableRecord
100
AcDbTextStyleTableRecord
  2
STANDARD
 70
     0
 40
0.0
 41
1.0
 50
0.0
 71
     0
 42
3.5
  3
GOTHIC.TTF
  4

1001
ACAD
1000
CENTURY GOTHIC
1071
       34
  0
ENDTAB
  0
TABLE
  2
VIEW
  5
6
330
0
100
AcDbSymbolTable
 70
     0
  0
ENDTAB
  0
TABLE
  2
UCS
  5
7
330
0
100
AcDbSymbolTable
 70
     0
  0
ENDTAB
  0
TABLE
  2
APPID
  5
9
330
0
100
AcDbSymbolTable
 70
     1
  0
APPID
  5
12
330
9
100
AcDbSymbolTableRecord
100
AcDbRegAppTableRecord
  2
ACAD
 70
     0
  0
ENDTAB
  0
TABLE
  2
DIMSTYLE
  5
A
330
0
100
AcDbSymbolTable
 70
     1
  0
DIMSTYLE
105
27
330
A
100
AcDbSymbolTableRecord
100
AcDbDimStyleTableRecord
  2
ISO-25
 70
     0
  3

  4

  5

  6

  7

 40
1.0
 41
2.5
 42
0.625
 43
3.75
 44
1.25
 45
0.0
 46
0.0
 47
0.0
 48
0.0
140
2.5
141
2.5
142
0.0
143
0.0393700787
144
1.0
145
0.0
146
1.0
147
0.625
 71
     0
 72
     0
 73
     0
 74
     0
 75
     0
 76
     0
 77
     1
 78
     8
170
     0
171
     3
172
     1
173
     0
174
     0
175
     0
176
     0
177
     0
178
     0
270
     2
271
     2
272
     2
273
     2
274
     3
340
11
275
     0
280
     0
281
     0
282
     0
283
     0
284
     8
285
     0
286
     0
287
     3
288
     0
  0
ENDTAB
  0
TABLE
  2
BLOCK_RECORD
  5
1
330
0
100
AcDbSymbolTable
 70
     1
  0
BLOCK_RECORD
  5
1F
330
1
100
AcDbSymbolTableRecord
100
AcDbBlockTableRecord
  2
*MODEL_SPACE
  0
BLOCK_RECORD
  5
1B
330
1
100
AcDbSymbolTableRecord
100
AcDbBlockTableRecord
  2
*PAPER_SPACE
  0
BLOCK_RECORD
  5
23
330
1
100
AcDbSymbolTableRecord
100
AcDbBlockTableRecord
  2
*PAPER_SPACE0
  0
ENDTAB
  0
ENDSEC
  0
SECTION
  2
BLOCKS
  0
BLOCK
  5
20
330
1F
100
AcDbEntity
  8
0
100
AcDbBlockBegin
  2
*MODEL_SPACE
 70
     0
 10
0.0
 20
0.0
 30
0.0
  3
*MODEL_SPACE
  1

  0
ENDBLK
  5
21
330
1F
100
AcDbEntity
  8
0
100
AcDbBlockEnd
  0
BLOCK
  5
1C
330
1B
100
AcDbEntity
 67
     1
  8
0
100
AcDbBlockBegin
  2
*PAPER_SPACE
 70
     0
 10
0.0
 20
0.0
 30
0.0
  3
*PAPER_SPACE
  1

  0
ENDBLK
  5
1D
330
1B
100
AcDbEntity
 67
     1
  8
0
100
AcDbBlockEnd
  0
BLOCK
  5
24
330
23
100
AcDbEntity
  8
0
100
AcDbBlockBegin
  2
*PAPER_SPACE0
 70
     0
 10
0.0
 20
0.0
 30
0.0
  3
*PAPER_SPACE0
  1

  0
ENDBLK
  5
25
330
23
100
AcDbEntity
  8
0
100
AcDbBlockEnd
  0
ENDSEC
  0
SECTION
  2
ENTITIES
  0
LINE
  5
63
330
1F
100
AcDbEntity
  8
0
  6
CONTINUOUS
 62
     7
100
AcDbLine
 10
351.3573239475
 20
99.3314175322
 30
0.0
 11
351.4211846358
 21
99.3314175322
 31
0.0
  0
LINE
  5
64
330
1F
100
AcDbEntity
  8
0
  6
CONTINUOUS
 62
     7
100
AcDbLine
 10
351.3573239475
 20
99.3314175322
 30
0.0
 11
351.3573239475
 21
99.4591389088
 31
0.0
  0
LINE
  5
65
330
1F
100
AcDbEntity
  8
0
  6
CONTINUOUS
 62
     7
100
AcDbLine
 10
360.4143646952
 20
257.6756502008
 30
0.0
 11
360.4143646952
 21
257.6117895125
 31
0.0
  0
LINE
  5
66
330
1F
100
AcDbEntity
  8
0
  6
CONTINUOUS
 62
     7
100
AcDbLine
 10
360.4143646952
 20
257.6756502008
 30
0.0
 11
360.5420860718
 21
257.6756502008
 31
0.0
  0
LINE
  5
67
330
1F
100
AcDbEntity
  8
0
  6
CONTINUOUS
 62
     7
100
AcDbLine
 10
373.5300383448
 20
218.6376773589
 30
0.0
 11
373.5938990331
 21
218.6376773589
 31
0.0
  0
LINE
  5
68
330
1F
100
AcDbEntity
  8
0
  6
CONTINUOUS
 62
     7
100
AcDbLine
 10
373.5300383448
 20
218.6376773589
 30
0.0
 11
373.5300383448
 21
218.7653987355
 31
0.0
  0
LINE
  5
69
330
1F
100
AcDbEntity
  8
0
  6
CONTINUOUS
 62
     7
100
AcDbLine
 10
360.4143646952
 20
-31.8243497992
 30
0.0
 11
360.4143646952
 21
-31.7604891109
 31
0.0
  0
LINE
  5
6A
330
1F
100
AcDbEntity
  8
0
  6
CONTINUOUS
 62
     7
100
AcDbLine
 10
360.4143646952
 20
-31.8243497992
 30
0.0
 11
360.2866433186
 21
-31.8243497992
 31
0.0
  0
LINE
  5
6B
330
1F
100
AcDbEntity
  8
0
  6
CONTINUOUS
 62
     7
100
AcDbLine
 10
347.2986910457
 20
218.6376773589
 30
0.0
 11
347.2348303574
 21
218.6376773589
 31
0.0
  0
LINE
  5
6C
330
1F
100
AcDbEntity
  8
0
  6
CONTINUOUS
 62
     7
100
AcDbLine
 10
347.2986910457
 20
218.6376773589
 30
0.0
 11
347.2986910457
 21
218.7653987355
 31
0.0
  0
LINE
  5
6D
330
1F
100
AcDbEntity
  8
0
  6
CONTINUOUS
 62
     7
100
AcDbLine
 10
360.4143646952
 20
-36.3243497992
 30
0.0
 11
360.4143646952
 21
-36.2604891109
 31
0.0
  0
LINE
  5
6E
330
1F
100
AcDbEntity
  8
0
  6
CONTINUOUS
 62
     7
100
AcDbLine
 10
360.4143646952
 20
-36.3243497992
 30
0.0
 11
360.2866433186
 21
-36.3243497992
 31
0.0
  0
POINT
  5
6F
330
1F
100
AcDbEntity
  8
0
  6
CONTINUOUS
 62
     7
100
AcDbPoint
 10
351.3573239475
 20
99.3314175322
 30
0.0
  0
POINT
  5
70
330
1F
100
AcDbEntity
  8
0
  6
CONTINUOUS
 62
     7
100
AcDbPoint
 10
360.4143646952
 20
257.6756502008
 30
0.0
  0
POINT
  5
71
330
1F
100
AcDbEntity
  8
0
  6
CONTINUOUS
 62
     7
100
AcDbPoint
 10
373.5300383448
 20
218.6376773589
 30
0.0
  0
POINT
  5
72
330
1F
100
AcDbEntity
  8
0
  6
CONTINUOUS
 62
     7
100
AcDbPoint
 10
360.4143646952
 20
-31.8243497992
 30
0.0
  0
POINT
  5
73
330
1F
100
AcDbEntity
  8
0
  6
CONTINUOUS
 62
     7
100
AcDbPoint
 10
347.2986910457
 20
218.6376773589
 30
0.0
  0
POINT
  5
74
330
1F
100
AcDbEntity
  8
0
  6
CONTINUOUS
 62
     7
100
AcDbPoint
 10
360.4143646952
 20
-36.3243497992
 30
0.0
  0
LINE
  5
75
330
1F
100
AcDbEntity
  8
0
  6
CONTINUOUS
 62
     7
100
AcDbLine
 10
354.4133646952
 20
251.8199392791
 30
0.0
 11
354.4143646952
 21
251.8199392791
 31
0.0
  0
SPLINE
  5
76
330
1F
100
AcDbEntity
  8
0
  6
CONTINUOUS
 62
     7
100
AcDbSpline
210
0.0
220
0.0
230
1.0
 70
    24
 71
     3
 72
    12
 73
     8
 74
     0
 42
0.00000001
 43
0.00000001
 40
0.0
 40
0.0
 40
0.0
 40
0.0
 40
0.0922890451756972
 40
0.1889671023220109
 40
0.4128424699641174
 40
0.6856326680148257
 40
1.0
 40
1.0
 40
1.0
 40
1.0
 10
354.4133646952237
 20
256.3199392790916
 30
0.0
 10
354.4133646952237
 20
256.3011693047891
 30
0.0
 10
354.4133646952237
 20
256.2627367080725
 30
0.0
 10
354.4133646952237
 20
255.8570021766554
 30
0.0
 10
354.4133646952237
 20
254.9532459222243
 30
0.0
 10
354.4133646952237
 20
253.5091619795046
 30
0.0
 10
354.4133646952237
 20
252.4089817512728
 30
0.0
 10
354.4133646952237
 20
251.8199392790917
 30
0.0
  0
LINE
  5
77
330
1F
100
AcDbEntity
  8
0
  6
CONTINUOUS
 62
     7
100
AcDbLine
 10
354.4133646952
 20
256.3199392791
 30
0.0
 11
354.4143646952
 21
256.3199392791
 31
0.0
  0
LINE
  5
78
330
1F
100
AcDbEntity
  8
0
  6
CONTINUOUS
 62
     7
100
AcDbLine
 10
354.4133646952
 20
247.3199392791
 30
0.0
 11
354.4143646952
 21
247.3199392791
 31
0.0
  0
SPLINE
  5
79
330
1F
100
AcDbEntity
  8
0
  6
CONTINUOUS
 62
     7
100
AcDbSpline
210
0.0
220
0.0
230
1.0
 70
    24
 71
     3
 72
    12
 73
     8
 74
     0
 42
0.00000001
 43
0.00000001
 40
0.0
 40
0.0
 40
0.0
 40
0.0
 40
0.3143673319851767
 40
0.5871575300358874
 40
0.8110328976779888
 40
0.9077109548243035
 40
1.0
 40
1.0
 40
1.0
 40
1.0
 10
354.4133646952237
 20
251.8199392790916
 30
0.0
 10
354.4133646952237
 20
251.2308968069106
 30
0.0
 10
354.4133646952237
 20
250.1307165786786
 30
0.0
 10
354.4133646952237
 20
248.686632635959
 30
0.0
 10
354.4133646952237
 20
247.7828763815279
 30
0.0
 10
354.4133646952237
 20
247.3771418501109
 30
0.0
 10
354.4133646952237
 20
247.3387092533941
 30
0.0
 10
354.4133646952237
 20
247.3199392790916
 30
0.0
  0
ARC
  5
7A
330
1F
100
AcDbEntity
  8
0
  6
CONTINUOUS
 62
     7
100
AcDbCircle
 10
357.4143646952
 20
264.6756502008
 30
0.0
 40
6.0
100
AcDbArc
 50
90.0
 51
180.0
  0
LINE
  5
7B
330
1F
100
AcDbEntity
  8
0
  6
CONTINUOUS
 62
     7
100
AcDbLine
 10
363.4143646952
 20
270.6756502008
 30
0.0
 11
357.4143646952
 21
270.6756502008
 31
0.0
  0
ARC
  5
7C
330
1F
100
AcDbEntity
  8
0
  6
CONTINUOUS
 62
     7
100
AcDbCircle
 10
363.4143646952
 20
264.6756502008
 30
0.0
 40
6.0
100
AcDbArc
 50
0.0
 51
90.0
  0
LINE
  5
7D
330
1F
100
AcDbEntity
  8
0
  6
CONTINUOUS
 62
     7
100
AcDbLine
 10
369.4143646952
 20
-43.3243497992
 30
0.0
 11
369.4143646952
 21
264.6756502008
 31
0.0
  0
ARC
  5
7E
330
1F
100
AcDbEntity
  8
0
  6
CONTINUOUS
 62
     7
100
AcDbCircle
 10
363.4143646952
 20
-43.3243497992
 30
0.0
 40
6.0
100
AcDbArc
 50
270.0
 51
0.0
  0
ARC
  5
7F
330
1F
100
AcDbEntity
  8
0
  6
CONTINUOUS
 62
     7
100
AcDbCircle
 10
357.4143646952
 20
-43.3243497992
 30
0.0
 40
6.0
100
AcDbArc
 50
180.0
 51
270.0
  0
LINE
  5
80
330
1F
100
AcDbEntity
  8
0
  6
CONTINUOUS
 62
     7
100
AcDbLine
 10
357.4143646952
 20
-49.3243497992
 30
0.0
 11
363.4143646952
 21
-49.3243497992
 31
0.0
  0
LINE
  5
81
330
1F
100
AcDbEntity
  8
0
  6
CONTINUOUS
 62
     7
100
AcDbLine
 10
351.4143646952
 20
264.6756502008
 30
0.0
 11
351.4143646952
 21
-43.3243497992
 31
0.0
  0
LINE
  5
82
330
1F
100
AcDbEntity
  8
0
  6
CONTINUOUS
 62
     7
100
AcDbLine
 10
366.4143646952
 20
264.6756502008
 30
0.0
 11
360.4143646952
 21
264.6756502008
 31
0.0
  0
LINE
  5
83
330
1F
100
AcDbEntity
  8
0
  6
CONTINUOUS
 62
     7
100
AcDbLine
 10
360.4143646952
 20
264.6756502008
 30
0.0
 11
360.4143646952
 21
270.6756502008
 31
0.0
  0
ARC
  5
84
330
1F
100
AcDbEntity
  8
0
  6
CONTINUOUS
 62
     7
100
AcDbCircle
 10
360.4143646952
 20
264.6756502008
 30
0.0
 40
6.0
100
AcDbArc
 50
0.0
 51
90.0
  0
LINE
  5
85
330
1F
100
AcDbEntity
  8
0
  6
CONTINUOUS
 62
     7
100
AcDbLine
 10
360.4143646952
 20
264.6756502008
 30
0.0
 11
354.4143646952
 21
264.6756502008
 31
0.0
  0
ARC
  5
86
330
1F
100
AcDbEntity
  8
0
  6
CONTINUOUS
 62
     7
100
AcDbCircle
 10
360.4143646952
 20
264.6756502008
 30
0.0
 40
6.0
100
AcDbArc
 50
90.0
 51
180.0
  0
LINE
  5
87
330
1F
100
AcDbEntity
  8
0
  6
CONTINUOUS
 62
     7
100
AcDbLine
 10
360.4143646952
 20
-43.3243497992
 30
0.0
 11
354.4143646952
 21
-43.3243497992
 31
0.0
  0
LINE
  5
88
330
1F
100
AcDbEntity
  8
0
  6
CONTINUOUS
 62
     7
100
AcDbLine
 10
354.4143646952
 20
-43.3243497992
 30
0.0
 11
354.4143646952
 21
264.6756502008
 31
0.0
  0
LINE
  5
89
330
1F
100
AcDbEntity
  8
0
  6
CONTINUOUS
 62
     7
100
AcDbLine
 10
360.4143646952
 20
264.6756502008
 30
0.0
 11
360.4143646952
 21
-43.3243497992
 31
0.0
  0
LINE
  5
8A
330
1F
100
AcDbEntity
  8
0
  6
CONTINUOUS
 62
     7
100
AcDbLine
 10
366.4143646952
 20
264.6756502008
 30
0.0
 11
366.4143646952
 21
-43.3243497992
 31
0.0
  0
LINE
  5
8B
330
1F
100
AcDbEntity
  8
0
  6
CONTINUOUS
 62
     7
100
AcDbLine
 10
366.4143646952
 20
-43.3243497992
 30
0.0
 11
360.4143646952
 21
-43.3243497992
 31
0.0
  0
LINE
  5
8C
330
1F
100
AcDbEntity
  8
0
  6
CONTINUOUS
 62
     7
100
AcDbLine
 10
360.4143646952
 20
-43.3243497992
 30
0.0
 11
360.4143646952
 21
-49.3243497992
 31
0.0
  0
ARC
  5
8D
330
1F
100
AcDbEntity
  8
0
  6
CONTINUOUS
 62
     7
100
AcDbCircle
 10
360.4143646952
 20
-43.3243497992
 30
0.0
 40
6.000000000000007
100
AcDbArc
 50
180.0
 51
270.0
  0
ARC
  5
8E
330
1F
100
AcDbEntity
  8
0
  6
CONTINUOUS
 62
     7
100
AcDbCircle
 10
360.4143646952
 20
-43.3243497992
 30
0.0
 40
6.000000000000007
100
AcDbArc
 50
270.0
 51
0.0
  0
LINE
  5
8F
330
1F
100
AcDbEntity
  8
0
  6
CONTINUOUS
 62
     7
100
AcDbLine
 10
223.0488604633
 20
251.8199392791
 30
0.0
 11
223.0488604633
 21
251.8837999674
 31
0.0
  0
LINE
  5
90
330
1F
100
AcDbEntity
  8
0
  6
CONTINUOUS
 62
     7
100
AcDbLine
 10
223.0488604633
 20
251.8199392791
 30
0.0
 11
223.1765818399
 21
251.8199392791
 31
0.0
  0
POINT
  5
91
330
1F
100
AcDbEntity
  8
0
  6
CONTINUOUS
 62
     7
100
AcDbPoint
 10
223.0488604633
 20
251.8199392791
 30
0.0
  0
LINE
  5
92
330
1F
100
AcDbEntity
  8
0
  6
CONTINUOUS
 62
     7
100
AcDbLine
 10
249.2043367937
 20
-36.0243497992
 30
0.0
 11
248.9922047593
 21
-36.2364818336
 31
0.0
  0
LINE
  5
93
330
1F
100
AcDbEntity
  8
0
  6
CONTINUOUS
 62
     7
100
AcDbLine
 10
248.9922047593
 20
-42.4122177649
 30
0.0
 11
249.2043367937
 21
-42.6243497992
 31
0.0
  0
ARC
  5
94
330
1F
100
AcDbEntity
  8
0
  6
CONTINUOUS
 62
     7
100
AcDbCircle
 10
248.780072725
 20
-36.0243497992
 30
0.0
 40
0.2999999999999994
100
AcDbArc
 50
270.0
 51
315.0
  0
ARC
  5
95
330
1F
100
AcDbEntity
  8
0
  6
CONTINUOUS
 62
     7
100
AcDbCircle
 10
248.780072725
 20
-42.6243497992
 30
0.0
 40
0.2999999999999944
100
AcDbArc
 50
45.0
 51
90.0
  0
LINE
  5
96
330
1F
100
AcDbEntity
  8
0
  6
CONTINUOUS
 62
     7
100
AcDbLine
 10
248.780072725
 20
-36.3243497992
 30
0.0
 11
247.7926008736
 21
-36.3243497992
 31
0.0
  0
LINE
  5
97
330
1F
100
AcDbEntity
  8
0
  6
CONTINUOUS
 62
     7
100
AcDbLine
 10
247.7926008736
 20
-42.3243497992
 30
0.0
 11
248.780072725
 21
-42.3243497992
 31
0.0
  0
LINE
  5
98
330
1F
100
AcDbEntity
  8
0
  6
CONTINUOUS
 62
     7
100
AcDbLine
 10
247.7926008736
 20
-36.3243497992
 30
0.0
 11
247.4043357937
 21
-36.8788497992
 31
0.0
  0
LINE
  5
99
330
1F
100
AcDbEntity
  8
0
  6
CONTINUOUS
 62
     7
100
AcDbLine
 10
247.4043357937
 20
-41.7698497992
 30
0.0
 11
247.7926008736
 21
-42.3243497992
 31
0.0
  0
LINE
  5
9A
330
1F
100
AcDbEntity
  8
0
  6
CONTINUOUS
 62
     7
100
AcDbLine
 10
247.0160707137
 20
-42.3243497992
 30
0.0
 11
247.4043357937
 21
-41.7698497992
 31
0.0
  0
LINE
  5
9B
330
1F
100
AcDbEntity
  8
0
  6
CONTINUOUS
 62
     7
100
AcDbLine
 10
247.4043357937
 20
-36.8788497992
 30
0.0
 11
247.0160707137
 21
-36.3243497992
 31
0.0
  0
LINE
  5
9C
330
1F
100
AcDbEntity
  8
0
  6
CONTINUOUS
 62
     7
100
AcDbLine
 10
247.0160707137
 20
-36.3243497992
 30
0.0
 11
246.809992178
 21
-36.3243497992
 31
0.0
  0
LINE
  5
9D
330
1F
100
AcDbEntity
  8
0
  6
CONTINUOUS
 62
     7
100
AcDbLine
 10
246.809992178
 20
-42.3243497992
 30
0.0
 11
247.0160707137
 21
-42.3243497992
 31
0.0
  0
LINE
  5
9E
330
1F
100
AcDbEntity
  8
0
  6
CONTINUOUS
 62
     7
100
AcDbLine
 10
246.809992178
 20
-36.3243497992
 30
0.0
 11
246.421727098
 21
-36.8788497992
 31
0.0
  0
LINE
  5
9F
330
1F
100
AcDbEntity
  8
0
  6
CONTINUOUS
 62
     7
100
AcDbLine
 10
246.421727098
 20
-41.7698497992
 30
0.0
 11
246.809992178
 21
-42.3243497992
 31
0.0
  0
LINE
  5
A0
330
1F
100
AcDbEntity
  8
0
  6
CONTINUOUS
 62
     7
100
AcDbLine
 10
246.0334620181
 20
-42.3243497992
 30
0.0
 11
246.421727098
 21
-41.7698497992
 31
0.0
  0
LINE
  5
A1
330
1F
100
AcDbEntity
  8
0
  6
CONTINUOUS
 62
     7
100
AcDbLine
 10
246.421727098
 20
-36.8788497992
 30
0.0
 11
246.0334620181
 21
-36.3243497992
 31
0.0
  0
LINE
  5
A2
330
1F
100
AcDbEntity
  8
0
  6
CONTINUOUS
 62
     7
100
AcDbLine
 10
246.0334620181
 20
-36.3243497992
 30
0.0
 11
245.8273834823
 21
-36.3243497992
 31
0.0
  0
LINE
  5
A3
330
1F
100
AcDbEntity
  8
0
  6
CONTINUOUS
 62
     7
100
AcDbLine
 10
245.8273834823
 20
-42.3243497992
 30
0.0
 11
246.0334620181
 21
-42.3243497992
 31
0.0
  0
LINE
  5
A4
330
1F
100
AcDbEntity
  8
0
  6
CONTINUOUS
 62
     7
100
AcDbLine
 10
245.8273834823
 20
-36.3243497992
 30
0.0
 11
245.4391184024
 21
-36.8788497992
 31
0.0
  0
LINE
  5
A5
330
1F
100
AcDbEntity
  8
0
  6
CONTINUOUS
 62
     7
100
AcDbLine
 10
245.4391184024
 20
-41.7698497992
 30
0.0
 11
245.8273834823
 21
-42.3243497992
 31
0.0
  0
LINE
  5
A6
330
1F
100
AcDbEntity
  8
0
  6
CONTINUOUS
 62
     7
100
AcDbLine
 10
245.0508533224
 20
-42.3243497992
 30
0.0
 11
245.4391184024
 21
-41.7698497992
 31
0.0
  0
LINE
  5
A7
330
1F
100
AcDbEntity
  8
0
  6
CONTINUOUS
 62
     7
100
AcDbLine
 10
245.4391184024
 20
-36.8788497992
 30
0.0
 11
245.0508533224
 21
-36.3243497992
 31
0.0
  0
LINE
  5
A8
330
1F
100
AcDbEntity
  8
0
  6
CONTINUOUS
 62
     7
100
AcDbLine
 10
245.0508533224
 20
-36.3243497992
 30
0.0
 11
244.8447747867
 21
-36.3243497992
 31
0.0
  0
LINE
  5
A9
330
1F
100
AcDbEntity
  8
0
  6
CONTINUOUS
 62
     7
100
AcDbLine
 10
244.8447747867
 20
-42.3243497992
 30
0.0
 11
245.0508533224
 21
-42.3243497992
 31
0.0
  0
LINE
  5
AA
330
1F
100
AcDbEntity
  8
0
  6
CONTINUOUS
 62
     7
100
AcDbLine
 10
244.8447747867
 20
-36.3243497992
 30
0.0
 11
244.4565097067
 21
-36.8788497992
 31
0.0
  0
LINE
  5
AB
330
1F
100
AcDbEntity
  8
0
  6
CONTINUOUS
 62
     7
100
AcDbLine
 10
244.4565097067
 20
-41.7698497992
 30
0.0
 11
244.8447747867
 21
-42.3243497992
 31
0.0
  0
LINE
  5
AC
330
1F
100
AcDbEntity
  8
0
  6
CONTINUOUS
 62
     7
100
AcDbLine
 10
244.0682446268
 20
-36.3243497992
 30
0.0
 11
243.862166091
 21
-36.3243497992
 31
0.0
  0
LINE
  5
AD
330
1F
100
AcDbEntity
  8
0
  6
CONTINUOUS
 62
     7
100
AcDbLine
 10
243.862166091
 20
-42.3243497992
 30
0.0
 11
244.0682446268
 21
-42.3243497992
 31
0.0
  0
LINE
  5
AE
330
1F
100
AcDbEntity
  8
0
  6
CONTINUOUS
 62
     7
100
AcDbLine
 10
244.0682446268
 20
-42.3243497992
 30
0.0
 11
244.4565097067
 21
-41.7698497992
 31
0.0
  0
LINE
  5
AF
330
1F
100
AcDbEntity
  8
0
  6
CONTINUOUS
 62
     7
100
AcDbLine
 10
244.4565097067
 20
-36.8788497992
 30
0.0
 11
244.0682446268
 21
-36.3243497992
 31
0.0
  0
LINE
  5
B0
330
1F
100
AcDbEntity
  8
0
  6
CONTINUOUS
 62
     7
100
AcDbLine
 10
243.862166091
 20
-36.3243497992
 30
0.0
 11
243.4739010111
 21
-36.8788497992
 31
0.0
  0
LINE
  5
B1
330
1F
100
AcDbEntity
  8
0
  6
CONTINUOUS
 62
     7
100
AcDbLine
 10
243.4739010111
 20
-41.7698497992
 30
0.0
 11
243.862166091
 21
-42.3243497992
 31
0.0
  0
LINE
  5
B2
330
1F
100
AcDbEntity
  8
0
  6
CONTINUOUS
 62
     7
100
AcDbLine
 10
243.0856359311
 20
-42.3243497992
 30
0.0
 11
243.4739010111
 21
-41.7698497992
 31
0.0
  0
LINE
  5
B3
330
1F
100
AcDbEntity
  8
0
  6
CONTINUOUS
 62
     7
100
AcDbLine
 10
243.4739010111
 20
-36.8788497992
 30
0.0
 11
243.0856359311
 21
-36.3243497992
 31
0.0
  0
LINE
  5
B4
330
1F
100
AcDbEntity
  8
0
  6
CONTINUOUS
 62
     7
100
AcDbLine
 10
243.0856359311
 20
-36.3243497992
 30
0.0
 11
242.8795573954
 21
-36.3243497992
 31
0.0
  0
LINE
  5
B5
330
1F
100
AcDbEntity
  8
0
  6
CONTINUOUS
 62
     7
100
AcDbLine
 10
242.8795573954
 20
-42.3243497992
 30
0.0
 11
243.0856359311
 21
-42.3243497992
 31
0.0
  0
LINE
  5
B6
330
1F
100
AcDbEntity
  8
0
  6
CONTINUOUS
 62
     7
100
AcDbLine
 10
242.8795573954
 20
-36.3243497992
 30
0.0
 11
242.4912923154
 21
-36.8788497992
 31
0.0
  0
LINE
  5
B7
330
1F
100
AcDbEntity
  8
0
  6
CONTINUOUS
 62
     7
100
AcDbLine
 10
242.4912923154
 20
-41.7698497992
 30
0.0
 11
242.8795573954
 21
-42.3243497992
 31
0.0
  0
LINE
  5
B8
330
1F
100
AcDbEntity
  8
0
  6
CONTINUOUS
 62
     7
100
AcDbLine
 10
242.1030272355
 20
-36.3243497992
 30
0.0
 11
241.8969486997
 21
-36.3243497992
 31
0.0
  0
LINE
  5
B9
330
1F
100
AcDbEntity
  8
0
  6
CONTINUOUS
 62
     7
100
AcDbLine
 10
241.8969486997
 20
-42.3243497992
 30
0.0
 11
242.1030272355
 21
-42.3243497992
 31
0.0
  0
LINE
  5
BA
330
1F
100
AcDbEntity
  8
0
  6
CONTINUOUS
 62
     7
100
AcDbLine
 10
242.1030272355
 20
-42.3243497992
 30
0.0
 11
242.4912923154
 21
-41.7698497992
 31
0.0
  0
LINE
  5
BB
330
1F
100
AcDbEntity
  8
0
  6
CONTINUOUS
 62
     7
100
AcDbLine
 10
242.4912923154
 20
-36.8788497992
 30
0.0
 11
242.1030272355
 21
-36.3243497992
 31
0.0
  0
LINE
  5
BC
330
1F
100
AcDbEntity
  8
0
  6
CONTINUOUS
 62
     7
100
AcDbLine
 10
241.8969486997
 20
-36.3243497992
 30
0.0
 11
241.5086836198
 21
-36.8788497992
 31
0.0
  0
LINE
  5
BD
330
1F
100
AcDbEntity
  8
0
  6
CONTINUOUS
 62
     7
100
AcDbLine
 10
241.5086836198
 20
-41.7698497992
 30
0.0
 11
241.8969486997
 21
-42.3243497992
 31
0.0
  0
LINE
  5
BE
330
1F
100
AcDbEntity
  8
0
  6
CONTINUOUS
 62
     7
100
AcDbLine
 10
241.1204185398
 20
-36.3243497992
 30
0.0
 11
240.9143400041
 21
-36.3243497992
 31
0.0
  0
LINE
  5
BF
330
1F
100
AcDbEntity
  8
0
  6
CONTINUOUS
 62
     7
100
AcDbLine
 10
240.9143400041
 20
-42.3243497992
 30
0.0
 11
241.1204185398
 21
-42.3243497992
 31
0.0
  0
LINE
  5
C0
330
1F
100
AcDbEntity
  8
0
  6
CONTINUOUS
 62
     7
100
AcDbLine
 10
241.1204185398
 20
-42.3243497992
 30
0.0
 11
241.5086836198
 21
-41.7698497992
 31
0.0
  0
LINE
  5
C1
330
1F
100
AcDbEntity
  8
0
  6
CONTINUOUS
 62
     7
100
AcDbLine
 10
241.5086836198
 20
-36.8788497992
 30
0.0
 11
241.1204185398
 21
-36.3243497992
 31
0.0
  0
LINE
  5
C2
330
1F
100
AcDbEntity
  8
0
  6
CONTINUOUS
 62
     7
100
AcDbLine
 10
240.9143400041
 20
-36.3243497992
 30
0.0
 11
240.5260749241
 21
-36.8788497992
 31
0.0
  0
LINE
  5
C3
330
1F
100
AcDbEntity
  8
0
  6
CONTINUOUS
 62
     7
100
AcDbLine
 10
240.5260749241
 20
-41.7698497992
 30
0.0
 11
240.9143400041
 21
-42.3243497992
 31
0.0
  0
LINE
  5
C4
330
1F
100
AcDbEntity
  8
0
  6
CONTINUOUS
 62
     7
100
AcDbLine
 10
240.1378098442
 20
-42.3243497992
 30
0.0
 11
240.5260749241
 21
-41.7698497992
 31
0.0
  0
LINE
  5
C5
330
1F
100
AcDbEntity
  8
0
  6
CONTINUOUS
 62
     7
100
AcDbLine
 10
240.5260749241
 20
-36.8788497992
 30
0.0
 11
240.1378098442
 21
-36.3243497992
 31
0.0
  0
LINE
  5
C6
330
1F
100
AcDbEntity
  8
0
  6
CONTINUOUS
 62
     7
100
AcDbLine
 10
240.1378098442
 20
-36.3243497992
 30
0.0
 11
239.9317313084
 21
-36.3243497992
 31
0.0
  0
LINE
  5
C7
330
1F
100
AcDbEntity
  8
0
  6
CONTINUOUS
 62
     7
100
AcDbLine
 10
239.9317313084
 20
-42.3243497992
 30
0.0
 11
240.1378098442
 21
-42.3243497992
 31
0.0
  0
LINE
  5
C8
330
1F
100
AcDbEntity
  8
0
  6
CONTINUOUS
 62
     7
100
AcDbLine
 10
239.9317313084
 20
-36.3243497992
 30
0.0
 11
239.5434662285
 21
-36.8788497992
 31
0.0
  0
LINE
  5
C9
330
1F
100
AcDbEntity
  8
0
  6
CONTINUOUS
 62
     7
100
AcDbLine
 10
239.5434662285
 20
-41.7698497992
 30
0.0
 11
239.9317313084
 21
-42.3243497992
 31
0.0
  0
LINE
  5
CA
330
1F
100
AcDbEntity
  8
0
  6
CONTINUOUS
 62
     7
100
AcDbLine
 10
239.1552011485
 20
-36.3243497992
 30
0.0
 11
238.9491226127
 21
-36.3243497992
 31
0.0
  0
LINE
  5
CB
330
1F
100
AcDbEntity
  8
0
  6
CONTINUOUS
 62
     7
100
AcDbLine
 10
238.9491226127
 20
-42.3243497992
 30
0.0
 11
239.1552011485
 21
-42.3243497992
 31
0.0
  0
LINE
  5
CC
330
1F
100
AcDbEntity
  8
0
  6
CONTINUOUS
 62
     7
100
AcDbLine
 10
239.1552011485
 20
-42.3243497992
 30
0.0
 11
239.5434662285
 21
-41.7698497992
 31
0.0
  0
LINE
  5
CD
330
1F
100
AcDbEntity
  8
0
  6
CONTINUOUS
 62
     7
100
AcDbLine
 10
239.5434662285
 20
-36.8788497992
 30
0.0
 11
239.1552011485
 21
-36.3243497992
 31
0.0
  0
LINE
  5
CE
330
1F
100
AcDbEntity
  8
0
  6
CONTINUOUS
 62
     7
100
AcDbLine
 10
238.9491226127
 20
-36.3243497992
 30
0.0
 11
238.5608575328
 21
-36.8788497992
 31
0.0
  0
LINE
  5
CF
330
1F
100
AcDbEntity
  8
0
  6
CONTINUOUS
 62
     7
100
AcDbLine
 10
238.5608575328
 20
-41.7698497992
 30
0.0
 11
238.9491226127
 21
-42.3243497992
 31
0.0
  0
LINE
  5
D0
330
1F
100
AcDbEntity
  8
0
  6
CONTINUOUS
 62
     7
100
AcDbLine
 10
238.1725924529
 20
-42.3243497992
 30
0.0
 11
238.5608575328
 21
-41.7698497992
 31
0.0
  0
LINE
  5
D1
330
1F
100
AcDbEntity
  8
0
  6
CONTINUOUS
 62
     7
100
AcDbLine
 10
238.5608575328
 20
-36.8788497992
 30
0.0
 11
238.1725924529
 21
-36.3243497992
 31
0.0
  0
LINE
  5
D2
330
1F
100
AcDbEntity
  8
0
  6
CONTINUOUS
 62
     7
100
AcDbLine
 10
238.1725924529
 20
-36.3243497992
 30
0.0
 11
237.9665139171
 21
-36.3243497992
 31
0.0
  0
LINE
  5
D3
330
1F
100
AcDbEntity
  8
0
  6
CONTINUOUS
 62
     7
100
AcDbLine
 10
237.9665139171
 20
-42.3243497992
 30
0.0
 11
238.1725924529
 21
-42.3243497992
 31
0.0
  0
LINE
  5
D4
330
1F
100
AcDbEntity
  8
0
  6
CONTINUOUS
 62
     7
100
AcDbLine
 10
237.9665139171
 20
-36.3243497992
 30
0.0
 11
237.5782488372
 21
-36.8788497992
 31
0.0
  0
LINE
  5
D5
330
1F
100
AcDbEntity
  8
0
  6
CONTINUOUS
 62
     7
100
AcDbLine
 10
237.5782488372
 20
-41.7698497992
 30
0.0
 11
237.9665139171
 21
-42.3243497992
 31
0.0
  0
LINE
  5
D6
330
1F
100
AcDbEntity
  8
0
  6
CONTINUOUS
 62
     7
100
AcDbLine
 10
237.1899837572
 20
-42.3243497992
 30
0.0
 11
237.5782488372
 21
-41.7698497992
 31
0.0
  0
LINE
  5
D7
330
1F
100
AcDbEntity
  8
0
  6
CONTINUOUS
 62
     7
100
AcDbLine
 10
237.5782488372
 20
-36.8788497992
 30
0.0
 11
237.1899837572
 21
-36.3243497992
 31
0.0
  0
LINE
  5
D8
330
1F
100
AcDbEntity
  8
0
  6
CONTINUOUS
 62
     7
100
AcDbLine
 10
237.1899837572
 20
-36.3243497992
 30
0.0
 11
236.9839052214
 21
-36.3243497992
 31
0.0
  0
LINE
  5
D9
330
1F
100
AcDbEntity
  8
0
  6
CONTINUOUS
 62
     7
100
AcDbLine
 10
236.9839052214
 20
-42.3243497992
 30
0.0
 11
237.1899837572
 21
-42.3243497992
 31
0.0
  0
LINE
  5
DA
330
1F
100
AcDbEntity
  8
0
  6
CONTINUOUS
 62
     7
100
AcDbLine
 10
236.9839052214
 20
-36.3243497992
 30
0.0
 11
236.5956401415
 21
-36.8788497992
 31
0.0
  0
LINE
  5
DB
330
1F
100
AcDbEntity
  8
0
  6
CONTINUOUS
 62
     7
100
AcDbLine
 10
236.5956401415
 20
-41.7698497992
 30
0.0
 11
236.9839052214
 21
-42.3243497992
 31
0.0
  0
LINE
  5
DC
330
1F
100
AcDbEntity
  8
0
  6
CONTINUOUS
 62
     7
100
AcDbLine
 10
236.2073750616
 20
-42.3243497992
 30
0.0
 11
236.5956401415
 21
-41.7698497992
 31
0.0
  0
LINE
  5
DD
330
1F
100
AcDbEntity
  8
0
  6
CONTINUOUS
 62
     7
100
AcDbLine
 10
236.5956401415
 20
-36.8788497992
 30
0.0
 11
236.2073750616
 21
-36.3243497992
 31
0.0
  0
LINE
  5
DE
330
1F
100
AcDbEntity
  8
0
  6
CONTINUOUS
 62
     7
100
AcDbLine
 10
236.2073750616
 20
-36.3243497992
 30
0.0
 11
236.0012965258
 21
-36.3243497992
 31
0.0
  0
LINE
  5
DF
330
1F
100
AcDbEntity
  8
0
  6
CONTINUOUS
 62
     7
100
AcDbLine
 10
236.0012965258
 20
-42.3243497992
 30
0.0
 11
236.2073750616
 21
-42.3243497992
 31
0.0
  0
LINE
  5
E0
330
1F
100
AcDbEntity
  8
0
  6
CONTINUOUS
 62
     7
100
AcDbLine
 10
235.2247663659
 20
-42.3243497992
 30
0.0
 11
235.6130314459
 21
-41.7698497992
 31
0.0
  0
LINE
  5
E1
330
1F
100
AcDbEntity
  8
0
  6
CONTINUOUS
 62
     7
100
AcDbLine
 10
235.6130314459
 20
-36.8788497992
 30
0.0
 11
235.2247663659
 21
-36.3243497992
 31
0.0
  0
LINE
  5
E2
330
1F
100
AcDbEntity
  8
0
  6
CONTINUOUS
 62
     7
100
AcDbLine
 10
236.0012965258
 20
-36.3243497992
 30
0.0
 11
235.6130314459
 21
-36.8788497992
 31
0.0
  0
LINE
  5
E3
330
1F
100
AcDbEntity
  8
0
  6
CONTINUOUS
 62
     7
100
AcDbLine
 10
235.6130314459
 20
-41.7698497992
 30
0.0
 11
236.0012965258
 21
-42.3243497992
 31
0.0
  0
LINE
  5
E4
330
1F
100
AcDbEntity
  8
0
  6
CONTINUOUS
 62
     7
100
AcDbLine
 10
235.2247663659
 20
-36.3243497992
 30
0.0
 11
235.0186878301
 21
-36.3243497992
 31
0.0
  0
LINE
  5
E5
330
1F
100
AcDbEntity
  8
0
  6
CONTINUOUS
 62
     7
100
AcDbLine
 10
235.0186878301
 20
-42.3243497992
 30
0.0
 11
235.2247663659
 21
-42.3243497992
 31
0.0
  0
LINE
  5
E6
330
1F
100
AcDbEntity
  8
0
  6
CONTINUOUS
 62
     7
100
AcDbLine
 10
234.2421576703
 20
-42.3243497992
 30
0.0
 11
234.6304227502
 21
-41.7698497992
 31
0.0
  0
LINE
  5
E7
330
1F
100
AcDbEntity
  8
0
  6
CONTINUOUS
 62
     7
100
AcDbLine
 10
234.6304227502
 20
-36.8788497992
 30
0.0
 11
234.2421576703
 21
-36.3243497992
 31
0.0
  0
LINE
  5
E8
330
1F
100
AcDbEntity
  8
0
  6
CONTINUOUS
 62
     7
100
AcDbLine
 10
235.0186878301
 20
-36.3243497992
 30
0.0
 11
234.6304227502
 21
-36.8788497992
 31
0.0
  0
LINE
  5
E9
330
1F
100
AcDbEntity
  8
0
  6
CONTINUOUS
 62
     7
100
AcDbLine
 10
234.6304227502
 20
-41.7698497992
 30
0.0
 11
235.0186878301
 21
-42.3243497992
 31
0.0
  0
LINE
  5
EA
330
1F
100
AcDbEntity
  8
0
  6
CONTINUOUS
 62
     7
100
AcDbLine
 10
234.2421576703
 20
-36.3243497992
 30
0.0
 11
234.0360791345
 21
-36.3243497992
 31
0.0
  0
LINE
  5
EB
330
1F
100
AcDbEntity
  8
0
  6
CONTINUOUS
 62
     7
100
AcDbLine
 10
234.0360791345
 20
-42.3243497992
 30
0.0
 11
234.2421576703
 21
-42.3243497992
 31
0.0
  0
LINE
  5
EC
330
1F
100
AcDbEntity
  8
0
  6
CONTINUOUS
 62
     7
100
AcDbLine
 10
234.0360791345
 20
-36.3243497992
 30
0.0
 11
233.6478140546
 21
-36.8788497992
 31
0.0
  0
LINE
  5
ED
330
1F
100
AcDbEntity
  8
0
  6
CONTINUOUS
 62
     7
100
AcDbLine
 10
233.6478140546
 20
-41.7698497992
 30
0.0
 11
234.0360791345
 21
-42.3243497992
 31
0.0
  0
LINE
  5
EE
330
1F
100
AcDbEntity
  8
0
  6
CONTINUOUS
 62
     7
100
AcDbLine
 10
233.2595489746
 20
-42.3243497992
 30
0.0
 11
233.6478140546
 21
-41.7698497992
 31
0.0
  0
LINE
  5
EF
330
1F
100
AcDbEntity
  8
0
  6
CONTINUOUS
 62
     7
100
AcDbLine
 10
233.6478140546
 20
-36.8788497992
 30
0.0
 11
233.2595489746
 21
-36.3243497992
 31
0.0
  0
LINE
  5
F0
330
1F
100
AcDbEntity
  8
0
  6
CONTINUOUS
 62
     7
100
AcDbLine
 10
233.2595489746
 20
-36.3243497992
 30
0.0
 11
233.0534704388
 21
-36.3243497992
 31
0.0
  0
LINE
  5
F1
330
1F
100
AcDbEntity
  8
0
  6
CONTINUOUS
 62
     7
100
AcDbLine
 10
233.0534704388
 20
-42.3243497992
 30
0.0
 11
233.2595489746
 21
-42.3243497992
 31
0.0
  0
LINE
  5
F2
330
1F
100
AcDbEntity
  8
0
  6
CONTINUOUS
 62
     7
100
AcDbLine
 10
233.0534704388
 20
-36.3243497992
 30
0.0
 11
232.8734604633
 21
-36.5814306869
 31
0.0
  0
LINE
  5
F3
330
1F
100
AcDbEntity
  8
0
  6
CONTINUOUS
 62
     7
100
AcDbLine
 10
232.8734604633
 20
-42.0672689115
 30
0.0
 11
233.0534704388
 21
-42.3243497992
 31
0.0
  0
LINE
  5
F4
330
1F
100
AcDbEntity
  8
0
  6
CONTINUOUS
 62
     7
100
AcDbLine
 10
249.2043367937
 20
263.9756502008
 30
0.0
 11
248.9922047593
 21
263.7635181664
 31
0.0
  0
LINE
  5
F5
330
1F
100
AcDbEntity
  8
0
  6
CONTINUOUS
 62
     7
100
AcDbLine
 10
248.9922047593
 20
257.5877822351
 30
0.0
 11
249.2043367937
 21
257.3756502008
 31
0.0
  0
ARC
  5
F6
330
1F
100
AcDbEntity
  8
0
  6
CONTINUOUS
 62
     7
100
AcDbCircle
 10
248.780072725
 20
263.9756502008
 30
0.0
 40
0.3000000000000682
100
AcDbArc
 50
270.0
 51
315.0
  0
ARC
  5
F7
330
1F
100
AcDbEntity
  8
0
  6
CONTINUOUS
 62
     7
100
AcDbCircle
 10
248.780072725
 20
257.3756502008
 30
0.0
 40
0.2999999999999743
100
AcDbArc
 50
45.0
 51
90.0
  0
LINE
  5
F8
330
1F
100
AcDbEntity
  8
0
  6
CONTINUOUS
 62
     7
100
AcDbLine
 10
248.780072725
 20
263.6756502008
 30
0.0
 11
247.7926008736
 21
263.6756502008
 31
0.0
  0
LINE
  5
F9
330
1F
100
AcDbEntity
  8
0
  6
CONTINUOUS
 62
     7
100
AcDbLine
 10
247.7926008736
 20
257.6756502008
 30
0.0
 11
248.780072725
 21
257.6756502008
 31
0.0
  0
LINE
  5
FA
330
1F
100
AcDbEntity
  8
0
  6
CONTINUOUS
 62
     7
100
AcDbLine
 10
247.7926008736
 20
263.6756502008
 30
0.0
 11
247.4043357937
 21
263.1211502008
 31
0.0
  0
LINE
  5
FB
330
1F
100
AcDbEntity
  8
0
  6
CONTINUOUS
 62
     7
100
AcDbLine
 10
247.4043357937
 20
258.2301502008
 30
0.0
 11
247.7926008736
 21
257.6756502008
 31
0.0
  0
LINE
  5
FC
330
1F
100
AcDbEntity
  8
0
  6
CONTINUOUS
 62
     7
100
AcDbLine
 10
247.0160707137
 20
257.6756502008
 30
0.0
 11
247.4043357937
 21
258.2301502008
 31
0.0
  0
LINE
  5
FD
330
1F
100
AcDbEntity
  8
0
  6
CONTINUOUS
 62
     7
100
AcDbLine
 10
247.4043357937
 20
263.1211502008
 30
0.0
 11
247.0160707137
 21
263.6756502008
 31
0.0
  0
LINE
  5
FE
330
1F
100
AcDbEntity
  8
0
  6
CONTINUOUS
 62
     7
100
AcDbLine
 10
247.0160707137
 20
263.6756502008
 30
0.0
 11
246.809992178
 21
263.6756502008
 31
0.0
  0
LINE
  5
FF
330
1F
100
AcDbEntity
  8
0
  6
CONTINUOUS
 62
     7
100
AcDbLine
 10
246.809992178
 20
257.6756502008
 30
0.0
 11
247.0160707137
 21
257.6756502008
 31
0.0
  0
LINE
  5
100
330
1F
100
AcDbEntity
  8
0
  6
CONTINUOUS
 62
     7
100
AcDbLine
 10
246.809992178
 20
263.6756502008
 30
0.0
 11
246.421727098
 21
263.1211502008
 31
0.0
  0
LINE
  5
101
330
1F
100
AcDbEntity
  8
0
  6
CONTINUOUS
 62
     7
100
AcDbLine
 10
246.421727098
 20
258.2301502008
 30
0.0
 11
246.809992178
 21
257.6756502008
 31
0.0
  0
LINE
  5
102
330
1F
100
AcDbEntity
  8
0
  6
CONTINUOUS
 62
     7
100
AcDbLine
 10
246.0334620181
 20
263.6756502008
 30
0.0
 11
245.8273834823
 21
263.6756502008
 31
0.0
  0
LINE
  5
103
330
1F
100
AcDbEntity
  8
0
  6
CONTINUOUS
 62
     7
100
AcDbLine
 10
245.8273834823
 20
257.6756502008
 30
0.0
 11
246.0334620181
 21
257.6756502008
 31
0.0
  0
LINE
  5
104
330
1F
100
AcDbEntity
  8
0
  6
CONTINUOUS
 62
     7
100
AcDbLine
 10
246.0334620181
 20
257.6756502008
 30
0.0
 11
246.421727098
 21
258.2301502008
 31
0.0
  0
LINE
  5
105
330
1F
100
AcDbEntity
  8
0
  6
CONTINUOUS
 62
     7
100
AcDbLine
 10
246.421727098
 20
263.1211502008
 30
0.0
 11
246.0334620181
 21
263.6756502008
 31
0.0
  0
LINE
  5
106
330
1F
100
AcDbEntity
  8
0
  6
CONTINUOUS
 62
     7
100
AcDbLine
 10
245.8273834823
 20
263.6756502008
 30
0.0
 11
245.4391184024
 21
263.1211502008
 31
0.0
  0
LINE
  5
107
330
1F
100
AcDbEntity
  8
0
  6
CONTINUOUS
 62
     7
100
AcDbLine
 10
245.4391184024
 20
258.2301502008
 30
0.0
 11
245.8273834823
 21
257.6756502008
 31
0.0
  0
LINE
  5
108
330
1F
100
AcDbEntity
  8
0
  6
CONTINUOUS
 62
     7
100
AcDbLine
 10
245.0508533224
 20
263.6756502008
 30
0.0
 11
244.8447747867
 21
263.6756502008
 31
0.0
  0
LINE
  5
109
330
1F
100
AcDbEntity
  8
0
  6
CONTINUOUS
 62
     7
100
AcDbLine
 10
244.8447747867
 20
257.6756502008
 30
0.0
 11
245.0508533224
 21
257.6756502008
 31
0.0
  0
LINE
  5
10A
330
1F
100
AcDbEntity
  8
0
  6
CONTINUOUS
 62
     7
100
AcDbLine
 10
245.0508533224
 20
257.6756502008
 30
0.0
 11
245.4391184024
 21
258.2301502008
 31
0.0
  0
LINE
  5
10B
330
1F
100
AcDbEntity
  8
0
  6
CONTINUOUS
 62
     7
100
AcDbLine
 10
245.4391184024
 20
263.1211502008
 30
0.0
 11
245.0508533224
 21
263.6756502008
 31
0.0
  0
LINE
  5
10C
330
1F
100
AcDbEntity
  8
0
  6
CONTINUOUS
 62
     7
100
AcDbLine
 10
244.8447747867
 20
263.6756502008
 30
0.0
 11
244.4565097067
 21
263.1211502008
 31
0.0
  0
LINE
  5
10D
330
1F
100
AcDbEntity
  8
0
  6
CONTINUOUS
 62
     7
100
AcDbLine
 10
244.4565097067
 20
258.2301502008
 30
0.0
 11
244.8447747867
 21
257.6756502008
 31
0.0
  0
LINE
  5
10E
330
1F
100
AcDbEntity
  8
0
  6
CONTINUOUS
 62
     7
100
AcDbLine
 10
244.0682446268
 20
257.6756502008
 30
0.0
 11
244.4565097067
 21
258.2301502008
 31
0.0
  0
LINE
  5
10F
330
1F
100
AcDbEntity
  8
0
  6
CONTINUOUS
 62
     7
100
AcDbLine
 10
244.4565097067
 20
263.1211502008
 30
0.0
 11
244.0682446268
 21
263.6756502008
 31
0.0
  0
LINE
  5
110
330
1F
100
AcDbEntity
  8
0
  6
CONTINUOUS
 62
     7
100
AcDbLine
 10
244.0682446268
 20
263.6756502008
 30
0.0
 11
243.862166091
 21
263.6756502008
 31
0.0
  0
LINE
  5
111
330
1F
100
AcDbEntity
  8
0
  6
CONTINUOUS
 62
     7
100
AcDbLine
 10
243.862166091
 20
257.6756502008
 30
0.0
 11
244.0682446268
 21
257.6756502008
 31
0.0
  0
LINE
  5
112
330
1F
100
AcDbEntity
  8
0
  6
CONTINUOUS
 62
     7
100
AcDbLine
 10
243.862166091
 20
263.6756502008
 30
0.0
 11
243.4739010111
 21
263.1211502008
 31
0.0
  0
LINE
  5
113
330
1F
100
AcDbEntity
  8
0
  6
CONTINUOUS
 62
     7
100
AcDbLine
 10
243.4739010111
 20
258.2301502008
 30
0.0
 11
243.862166091
 21
257.6756502008
 31
0.0
  0
LINE
  5
114
330
1F
100
AcDbEntity
  8
0
  6
CONTINUOUS
 62
     7
100
AcDbLine
 10
243.0856359311
 20
263.6756502008
 30
0.0
 11
242.8795573954
 21
263.6756502008
 31
0.0
  0
LINE
  5
115
330
1F
100
AcDbEntity
  8
0
  6
CONTINUOUS
 62
     7
100
AcDbLine
 10
242.8795573954
 20
257.6756502008
 30
0.0
 11
243.0856359311
 21
257.6756502008
 31
0.0
  0
LINE
  5
116
330
1F
100
AcDbEntity
  8
0
  6
CONTINUOUS
 62
     7
100
AcDbLine
 10
243.0856359311
 20
257.6756502008
 30
0.0
 11
243.4739010111
 21
258.2301502008
 31
0.0
  0
LINE
  5
117
330
1F
100
AcDbEntity
  8
0
  6
CONTINUOUS
 62
     7
100
AcDbLine
 10
243.4739010111
 20
263.1211502008
 30
0.0
 11
243.0856359311
 21
263.6756502008
 31
0.0
  0
LINE
  5
118
330
1F
100
AcDbEntity
  8
0
  6
CONTINUOUS
 62
     7
100
AcDbLine
 10
242.8795573954
 20
263.6756502008
 30
0.0
 11
242.4912923154
 21
263.1211502008
 31
0.0
  0
LINE
  5
119
330
1F
100
AcDbEntity
  8
0
  6
CONTINUOUS
 62
     7
100
AcDbLine
 10
242.4912923154
 20
258.2301502008
 30
0.0
 11
242.8795573954
 21
257.6756502008
 31
0.0
  0
LINE
  5
11A
330
1F
100
AcDbEntity
  8
0
  6
CONTINUOUS
 62
     7
100
AcDbLine
 10
242.1030272355
 20
263.6756502008
 30
0.0
 11
241.8969486997
 21
263.6756502008
 31
0.0
  0
LINE
  5
11B
330
1F
100
AcDbEntity
  8
0
  6
CONTINUOUS
 62
     7
100
AcDbLine
 10
241.8969486997
 20
257.6756502008
 30
0.0
 11
242.1030272355
 21
257.6756502008
 31
0.0
  0
LINE
  5
11C
330
1F
100
AcDbEntity
  8
0
  6
CONTINUOUS
 62
     7
100
AcDbLine
 10
242.1030272355
 20
257.6756502008
 30
0.0
 11
242.4912923154
 21
258.2301502008
 31
0.0
  0
LINE
  5
11D
330
1F
100
AcDbEntity
  8
0
  6
CONTINUOUS
 62
     7
100
AcDbLine
 10
242.4912923154
 20
263.1211502008
 30
0.0
 11
242.1030272355
 21
263.6756502008
 31
0.0
  0
LINE
  5
11E
330
1F
100
AcDbEntity
  8
0
  6
CONTINUOUS
 62
     7
100
AcDbLine
 10
241.8969486997
 20
263.6756502008
 30
0.0
 11
241.5086836198
 21
263.1211502008
 31
0.0
  0
LINE
  5
11F
330
1F
100
AcDbEntity
  8
0
  6
CONTINUOUS
 62
     7
100
AcDbLine
 10
241.5086836198
 20
258.2301502008
 30
0.0
 11
241.8969486997
 21
257.6756502008
 31
0.0
  0
LINE
  5
120
330
1F
100
AcDbEntity
  8
0
  6
CONTINUOUS
 62
     7
100
AcDbLine
 10
241.1204185398
 20
257.6756502008
 30
0.0
 11
241.5086836198
 21
258.2301502008
 31
0.0
  0
LINE
  5
121
330
1F
100
AcDbEntity
  8
0
  6
CONTINUOUS
 62
     7
100
AcDbLine
 10
241.5086836198
 20
263.1211502008
 30
0.0
 11
241.1204185398
 21
263.6756502008
 31
0.0
  0
LINE
  5
122
330
1F
100
AcDbEntity
  8
0
  6
CONTINUOUS
 62
     7
100
AcDbLine
 10
241.1204185398
 20
263.6756502008
 30
0.0
 11
240.9143400041
 21
263.6756502008
 31
0.0
  0
LINE
  5
123
330
1F
100
AcDbEntity
  8
0
  6
CONTINUOUS
 62
     7
100
AcDbLine
 10
240.9143400041
 20
257.6756502008
 30
0.0
 11
241.1204185398
 21
257.6756502008
 31
0.0
  0
LINE
  5
124
330
1F
100
AcDbEntity
  8
0
  6
CONTINUOUS
 62
     7
100
AcDbLine
 10
240.9143400041
 20
263.6756502008
 30
0.0
 11
240.5260749241
 21
263.1211502008
 31
0.0
  0
LINE
  5
125
330
1F
100
AcDbEntity
  8
0
  6
CONTINUOUS
 62
     7
100
AcDbLine
 10
240.5260749241
 20
258.2301502008
 30
0.0
 11
240.9143400041
 21
257.6756502008
 31
0.0
  0
LINE
  5
126
330
1F
100
AcDbEntity
  8
0
  6
CONTINUOUS
 62
     7
100
AcDbLine
 10
240.1378098442
 20
263.6756502008
 30
0.0
 11
239.9317313084
 21
263.6756502008
 31
0.0
  0
LINE
  5
127
330
1F
100
AcDbEntity
  8
0
  6
CONTINUOUS
 62
     7
100
AcDbLine
 10
239.9317313084
 20
257.6756502008
 30
0.0
 11
240.1378098442
 21
257.6756502008
 31
0.0
  0
LINE
  5
128
330
1F
100
AcDbEntity
  8
0
  6
CONTINUOUS
 62
     7
100
AcDbLine
 10
240.1378098442
 20
257.6756502008
 30
0.0
 11
240.5260749241
 21
258.2301502008
 31
0.0
  0
LINE
  5
129
330
1F
100
AcDbEntity
  8
0
  6
CONTINUOUS
 62
     7
100
AcDbLine
 10
240.5260749241
 20
263.1211502008
 30
0.0
 11
240.1378098442
 21
263.6756502008
 31
0.0
  0
LINE
  5
12A
330
1F
100
AcDbEntity
  8
0
  6
CONTINUOUS
 62
     7
100
AcDbLine
 10
239.9317313084
 20
263.6756502008
 30
0.0
 11
239.5434662285
 21
263.1211502008
 31
0.0
  0
LINE
  5
12B
330
1F
100
AcDbEntity
  8
0
  6
CONTINUOUS
 62
     7
100
AcDbLine
 10
239.5434662285
 20
258.2301502008
 30
0.0
 11
239.9317313084
 21
257.6756502008
 31
0.0
  0
LINE
  5
12C
330
1F
100
AcDbEntity
  8
0
  6
CONTINUOUS
 62
     7
100
AcDbLine
 10
239.1552011485
 20
257.6756502008
 30
0.0
 11
239.5434662285
 21
258.2301502008
 31
0.0
  0
LINE
  5
12D
330
1F
100
AcDbEntity
  8
0
  6
CONTINUOUS
 62
     7
100
AcDbLine
 10
239.5434662285
 20
263.1211502008
 30
0.0
 11
239.1552011485
 21
263.6756502008
 31
0.0
  0
LINE
  5
12E
330
1F
100
AcDbEntity
  8
0
  6
CONTINUOUS
 62
     7
100
AcDbLine
 10
239.1552011485
 20
263.6756502008
 30
0.0
 11
238.9491226127
 21
263.6756502008
 31
0.0
  0
LINE
  5
12F
330
1F
100
AcDbEntity
  8
0
  6
CONTINUOUS
 62
     7
100
AcDbLine
 10
238.9491226127
 20
257.6756502008
 30
0.0
 11
239.1552011485
 21
257.6756502008
 31
0.0
  0
LINE
  5
130
330
1F
100
AcDbEntity
  8
0
  6
CONTINUOUS
 62
     7
100
AcDbLine
 10
238.9491226127
 20
263.6756502008
 30
0.0
 11
238.5608575328
 21
263.1211502008
 31
0.0
  0
LINE
  5
131
330
1F
100
AcDbEntity
  8
0
  6
CONTINUOUS
 62
     7
100
AcDbLine
 10
238.5608575328
 20
258.2301502008
 30
0.0
 11
238.9491226127
 21
257.6756502008
 31
0.0
  0
LINE
  5
132
330
1F
100
AcDbEntity
  8
0
  6
CONTINUOUS
 62
     7
100
AcDbLine
 10
238.1725924529
 20
257.6756502008
 30
0.0
 11
238.5608575328
 21
258.2301502008
 31
0.0
  0
LINE
  5
133
330
1F
100
AcDbEntity
  8
0
  6
CONTINUOUS
 62
     7
100
AcDbLine
 10
238.5608575328
 20
263.1211502008
 30
0.0
 11
238.1725924529
 21
263.6756502008
 31
0.0
  0
LINE
  5
134
330
1F
100
AcDbEntity
  8
0
  6
CONTINUOUS
 62
     7
100
AcDbLine
 10
238.1725924529
 20
263.6756502008
 30
0.0
 11
237.9665139171
 21
263.6756502008
 31
0.0
  0
LINE
  5
135
330
1F
100
AcDbEntity
  8
0
  6
CONTINUOUS
 62
     7
100
AcDbLine
 10
237.9665139171
 20
257.6756502008
 30
0.0
 11
238.1725924529
 21
257.6756502008
 31
0.0
  0
LINE
  5
136
330
1F
100
AcDbEntity
  8
0
  6
CONTINUOUS
 62
     7
100
AcDbLine
 10
237.9665139171
 20
263.6756502008
 30
0.0
 11
237.5782488372
 21
263.1211502008
 31
0.0
  0
LINE
  5
137
330
1F
100
AcDbEntity
  8
0
  6
CONTINUOUS
 62
     7
100
AcDbLine
 10
237.5782488372
 20
258.2301502008
 30
0.0
 11
237.9665139171
 21
257.6756502008
 31
0.0
  0
LINE
  5
138
330
1F
100
AcDbEntity
  8
0
  6
CONTINUOUS
 62
     7
100
AcDbLine
 10
237.1899837572
 20
257.6756502008
 30
0.0
 11
237.5782488372
 21
258.2301502008
 31
0.0
  0
LINE
  5
139
330
1F
100
AcDbEntity
  8
0
  6
CONTINUOUS
 62
     7
100
AcDbLine
 10
237.5782488372
 20
263.1211502008
 30
0.0
 11
237.1899837572
 21
263.6756502008
 31
0.0
  0
LINE
  5
13A
330
1F
100
AcDbEntity
  8
0
  6
CONTINUOUS
 62
     7
100
AcDbLine
 10
237.1899837572
 20
263.6756502008
 30
0.0
 11
236.9839052214
 21
263.6756502008
 31
0.0
  0
LINE
  5
13B
330
1F
100
AcDbEntity
  8
0
  6
CONTINUOUS
 62
     7
100
AcDbLine
 10
236.9839052214
 20
257.6756502008
 30
0.0
 11
237.1899837572
 21
257.6756502008
 31
0.0
  0
LINE
  5
13C
330
1F
100
AcDbEntity
  8
0
  6
CONTINUOUS
 62
     7
100
AcDbLine
 10
236.2073750616
 20
257.6756502008
 30
0.0
 11
236.5956401415
 21
258.2301502008
 31
0.0
  0
LINE
  5
13D
330
1F
100
AcDbEntity
  8
0
  6
CONTINUOUS
 62
     7
100
AcDbLine
 10
236.5956401415
 20
263.1211502008
 30
0.0
 11
236.2073750616
 21
263.6756502008
 31
0.0
  0
LINE
  5
13E
330
1F
100
AcDbEntity
  8
0
  6
CONTINUOUS
 62
     7
100
AcDbLine
 10
236.9839052214
 20
263.6756502008
 30
0.0
 11
236.5956401415
 21
263.1211502008
 31
0.0
  0
LINE
  5
13F
330
1F
100
AcDbEntity
  8
0
  6
CONTINUOUS
 62
     7
100
AcDbLine
 10
236.5956401415
 20
258.2301502008
 30
0.0
 11
236.9839052214
 21
257.6756502008
 31
0.0
  0
LINE
  5
140
330
1F
100
AcDbEntity
  8
0
  6
CONTINUOUS
 62
     7
100
AcDbLine
 10
236.2073750616
 20
263.6756502008
 30
0.0
 11
236.0012965258
 21
263.6756502008
 31
0.0
  0
LINE
  5
141
330
1F
100
AcDbEntity
  8
0
  6
CONTINUOUS
 62
     7
100
AcDbLine
 10
236.0012965258
 20
257.6756502008
 30
0.0
 11
236.2073750616
 21
257.6756502008
 31
0.0
  0
LINE
  5
142
330
1F
100
AcDbEntity
  8
0
  6
CONTINUOUS
 62
     7
100
AcDbLine
 10
236.0012965258
 20
263.6756502008
 30
0.0
 11
235.6130314459
 21
263.1211502008
 31
0.0
  0
LINE
  5
143
330
1F
100
AcDbEntity
  8
0
  6
CONTINUOUS
 62
     7
100
AcDbLine
 10
235.6130314459
 20
258.2301502008
 30
0.0
 11
236.0012965258
 21
257.6756502008
 31
0.0
  0
LINE
  5
144
330
1F
100
AcDbEntity
  8
0
  6
CONTINUOUS
 62
     7
100
AcDbLine
 10
235.2247663659
 20
257.6756502008
 30
0.0
 11
235.6130314459
 21
258.2301502008
 31
0.0
  0
LINE
  5
145
330
1F
100
AcDbEntity
  8
0
  6
CONTINUOUS
 62
     7
100
AcDbLine
 10
235.6130314459
 20
263.1211502008
 30
0.0
 11
235.2247663659
 21
263.6756502008
 31
0.0
  0
LINE
  5
146
330
1F
100
AcDbEntity
  8
0
  6
CONTINUOUS
 62
     7
100
AcDbLine
 10
235.2247663659
 20
263.6756502008
 30
0.0
 11
235.0186878301
 21
263.6756502008
 31
0.0
  0
LINE
  5
147
330
1F
100
AcDbEntity
  8
0
  6
CONTINUOUS
 62
     7
100
AcDbLine
 10
235.0186878301
 20
257.6756502008
 30
0.0
 11
235.2247663659
 21
257.6756502008
 31
0.0
  0
LINE
  5
148
330
1F
100
AcDbEntity
  8
0
  6
CONTINUOUS
 62
     7
100
AcDbLine
 10
235.0186878301
 20
263.6756502008
 30
0.0
 11
234.6304227502
 21
263.1211502008
 31
0.0
  0
LINE
  5
149
330
1F
100
AcDbEntity
  8
0
  6
CONTINUOUS
 62
     7
100
AcDbLine
 10
234.6304227502
 20
258.2301502008
 30
0.0
 11
235.0186878301
 21
257.6756502008
 31
0.0
  0
LINE
  5
14A
330
1F
100
AcDbEntity
  8
0
  6
CONTINUOUS
 62
     7
100
AcDbLine
 10
234.2421576703
 20
257.6756502008
 30
0.0
 11
234.6304227502
 21
258.2301502008
 31
0.0
  0
LINE
  5
14B
330
1F
100
AcDbEntity
  8
0
  6
CONTINUOUS
 62
     7
100
AcDbLine
 10
234.6304227502
 20
263.1211502008
 30
0.0
 11
234.2421576703
 21
263.6756502008
 31
0.0
  0
LINE
  5
14C
330
1F
100
AcDbEntity
  8
0
  6
CONTINUOUS
 62
     7
100
AcDbLine
 10
234.2421576703
 20
263.6756502008
 30
0.0
 11
234.0360791345
 21
263.6756502008
 31
0.0
  0
LINE
  5
14D
330
1F
100
AcDbEntity
  8
0
  6
CONTINUOUS
 62
     7
100
AcDbLine
 10
234.0360791345
 20
257.6756502008
 30
0.0
 11
234.2421576703
 21
257.6756502008
 31
0.0
  0
LINE
  5
14E
330
1F
100
AcDbEntity
  8
0
  6
CONTINUOUS
 62
     7
100
AcDbLine
 10
234.0360791345
 20
263.6756502008
 30
0.0
 11
233.6478140546
 21
263.1211502008
 31
0.0
  0
LINE
  5
14F
330
1F
100
AcDbEntity
  8
0
  6
CONTINUOUS
 62
     7
100
AcDbLine
 10
233.6478140546
 20
258.2301502008
 30
0.0
 11
234.0360791345
 21
257.6756502008
 31
0.0
  0
LINE
  5
150
330
1F
100
AcDbEntity
  8
0
  6
CONTINUOUS
 62
     7
100
AcDbLine
 10
233.2595489746
 20
257.6756502008
 30
0.0
 11
233.6478140546
 21
258.2301502008
 31
0.0
  0
LINE
  5
151
330
1F
100
AcDbEntity
  8
0
  6
CONTINUOUS
 62
     7
100
AcDbLine
 10
233.6478140546
 20
263.1211502008
 30
0.0
 11
233.2595489746
 21
263.6756502008
 31
0.0
  0
LINE
  5
152
330
1F
100
AcDbEntity
  8
0
  6
CONTINUOUS
 62
     7
100
AcDbLine
 10
233.2595489746
 20
263.6756502008
 30
0.0
 11
233.0534704388
 21
263.6756502008
 31
0.0
  0
LINE
  5
153
330
1F
100
AcDbEntity
  8
0
  6
CONTINUOUS
 62
     7
100
AcDbLine
 10
233.0534704388
 20
257.6756502008
 30
0.0
 11
233.2595489746
 21
257.6756502008
 31
0.0
  0
LINE
  5
154
330
1F
100
AcDbEntity
  8
0
  6
CONTINUOUS
 62
     7
100
AcDbLine
 10
233.0534704388
 20
263.6756502008
 30
0.0
 11
232.8734604633
 21
263.4185693131
 31
0.0
  0
LINE
  5
155
330
1F
100
AcDbEntity
  8
0
  6
CONTINUOUS
 62
     7
100
AcDbLine
 10
232.8734604633
 20
257.9327310885
 30
0.0
 11
233.0534704388
 21
257.6756502008
 31
0.0
  0
LINE
  5
156
330
1F
100
AcDbEntity
  8
0
  6
CONTINUOUS
 62
     7
100
AcDbLine
 10
247.7926008736
 20
-36.3243497992
 30
0.0
 11
247.7926008736
 21
-42.3243497992
 31
0.0
  0
LINE
  5
157
330
1F
100
AcDbEntity
  8
0
  6
CONTINUOUS
 62
     7
100
AcDbLine
 10
247.4043357937
 20
-36.8788497992
 30
0.0
 11
247.4043357937
 21
-41.7698497992
 31
0.0
  0
LINE
  5
158
330
1F
100
AcDbEntity
  8
0
  6
CONTINUOUS
 62
     7
100
AcDbLine
 10
247.0160707137
 20
-36.3243497992
 30
0.0
 11
247.0160707137
 21
-42.3243497992
 31
0.0
  0
LINE
  5
159
330
1F
100
AcDbEntity
  8
0
  6
CONTINUOUS
 62
     7
100
AcDbLine
 10
246.809992178
 20
-36.3243497992
 30
0.0
 11
246.809992178
 21
-42.3243497992
 31
0.0
  0
LINE
  5
15A
330
1F
100
AcDbEntity
  8
0
  6
CONTINUOUS
 62
     7
100
AcDbLine
 10
246.421727098
 20
-36.8788497992
 30
0.0
 11
246.421727098
 21
-41.7698497992
 31
0.0
  0
LINE
  5
15B
330
1F
100
AcDbEntity
  8
0
  6
CONTINUOUS
 62
     7
100
AcDbLine
 10
246.0334620181
 20
-36.3243497992
 30
0.0
 11
246.0334620181
 21
-42.3243497992
 31
0.0
  0
LINE
  5
15C
330
1F
100
AcDbEntity
  8
0
  6
CONTINUOUS
 62
     7
100
AcDbLine
 10
245.8273834823
 20
-36.3243497992
 30
0.0
 11
245.8273834823
 21
-42.3243497992
 31
0.0
  0
LINE
  5
15D
330
1F
100
AcDbEntity
  8
0
  6
CONTINUOUS
 62
     7
100
AcDbLine
 10
245.4391184024
 20
-36.8788497992
 30
0.0
 11
245.4391184024
 21
-41.7698497992
 31
0.0
  0
LINE
  5
15E
330
1F
100
AcDbEntity
  8
0
  6
CONTINUOUS
 62
     7
100
AcDbLine
 10
245.0508533224
 20
-36.3243497992
 30
0.0
 11
245.0508533224
 21
-42.3243497992
 31
0.0
  0
LINE
  5
15F
330
1F
100
AcDbEntity
  8
0
  6
CONTINUOUS
 62
     7
100
AcDbLine
 10
244.8447747867
 20
-36.3243497992
 30
0.0
 11
244.8447747867
 21
-42.3243497992
 31
0.0
  0
LINE
  5
160
330
1F
100
AcDbEntity
  8
0
  6
CONTINUOUS
 62
     7
100
AcDbLine
 10
244.4565097067
 20
-36.8788497992
 30
0.0
 11
244.4565097067
 21
-41.7698497992
 31
0.0
  0
LINE
  5
161
330
1F
100
AcDbEntity
  8
0
  6
CONTINUOUS
 62
     7
100
AcDbLine
 10
244.0682446268
 20
-36.3243497992
 30
0.0
 11
244.0682446268
 21
-42.3243497992
 31
0.0
  0
LINE
  5
162
330
1F
100
AcDbEntity
  8
0
  6
CONTINUOUS
 62
     7
100
AcDbLine
 10
243.862166091
 20
-36.3243497992
 30
0.0
 11
243.862166091
 21
-42.3243497992
 31
0.0
  0
LINE
  5
163
330
1F
100
AcDbEntity
  8
0
  6
CONTINUOUS
 62
     7
100
AcDbLine
 10
243.4739010111
 20
-36.8788497992
 30
0.0
 11
243.4739010111
 21
-41.7698497992
 31
0.0
  0
LINE
  5
164
330
1F
100
AcDbEntity
  8
0
  6
CONTINUOUS
 62
     7
100
AcDbLine
 10
243.0856359311
 20
-36.3243497992
 30
0.0
 11
243.0856359311
 21
-42.3243497992
 31
0.0
  0
LINE
  5
165
330
1F
100
AcDbEntity
  8
0
  6
CONTINUOUS
 62
     7
100
AcDbLine
 10
242.8795573954
 20
-36.3243497992
 30
0.0
 11
242.8795573954
 21
-42.3243497992
 31
0.0
  0
LINE
  5
166
330
1F
100
AcDbEntity
  8
0
  6
CONTINUOUS
 62
     7
100
AcDbLine
 10
242.4912923154
 20
-36.8788497992
 30
0.0
 11
242.4912923154
 21
-41.7698497992
 31
0.0
  0
LINE
  5
167
330
1F
100
AcDbEntity
  8
0
  6
CONTINUOUS
 62
     7
100
AcDbLine
 10
242.1030272355
 20
-36.3243497992
 30
0.0
 11
242.1030272355
 21
-42.3243497992
 31
0.0
  0
LINE
  5
168
330
1F
100
AcDbEntity
  8
0
  6
CONTINUOUS
 62
     7
100
AcDbLine
 10
241.8969486997
 20
-36.3243497992
 30
0.0
 11
241.8969486997
 21
-42.3243497992
 31
0.0
  0
LINE
  5
169
330
1F
100
AcDbEntity
  8
0
  6
CONTINUOUS
 62
     7
100
AcDbLine
 10
241.5086836198
 20
-36.8788497992
 30
0.0
 11
241.5086836198
 21
-41.7698497992
 31
0.0
  0
LINE
  5
16A
330
1F
100
AcDbEntity
  8
0
  6
CONTINUOUS
 62
     7
100
AcDbLine
 10
241.1204185398
 20
-36.3243497992
 30
0.0
 11
241.1204185398
 21
-42.3243497992
 31
0.0
  0
LINE
  5
16B
330
1F
100
AcDbEntity
  8
0
  6
CONTINUOUS
 62
     7
100
AcDbLine
 10
240.9143400041
 20
-36.3243497992
 30
0.0
 11
240.9143400041
 21
-42.3243497992
 31
0.0
  0
LINE
  5
16C
330
1F
100
AcDbEntity
  8
0
  6
CONTINUOUS
 62
     7
100
AcDbLine
 10
240.5260749241
 20
-36.8788497992
 30
0.0
 11
240.5260749241
 21
-41.7698497992
 31
0.0
  0
LINE
  5
16D
330
1F
100
AcDbEntity
  8
0
  6
CONTINUOUS
 62
     7
100
AcDbLine
 10
240.1378098442
 20
-36.3243497992
 30
0.0
 11
240.1378098442
 21
-42.3243497992
 31
0.0
  0
LINE
  5
16E
330
1F
100
AcDbEntity
  8
0
  6
CONTINUOUS
 62
     7
100
AcDbLine
 10
239.9317313084
 20
-36.3243497992
 30
0.0
 11
239.9317313084
 21
-42.3243497992
 31
0.0
  0
LINE
  5
16F
330
1F
100
AcDbEntity
  8
0
  6
CONTINUOUS
 62
     7
100
AcDbLine
 10
239.5434662285
 20
-36.8788497992
 30
0.0
 11
239.5434662285
 21
-41.7698497992
 31
0.0
  0
LINE
  5
170
330
1F
100
AcDbEntity
  8
0
  6
CONTINUOUS
 62
     7
100
AcDbLine
 10
239.1552011485
 20
-36.3243497992
 30
0.0
 11
239.1552011485
 21
-42.3243497992
 31
0.0
  0
LINE
  5
171
330
1F
100
AcDbEntity
  8
0
  6
CONTINUOUS
 62
     7
100
AcDbLine
 10
238.9491226127
 20
-36.3243497992
 30
0.0
 11
238.9491226127
 21
-42.3243497992
 31
0.0
  0
LINE
  5
172
330
1F
100
AcDbEntity
  8
0
  6
CONTINUOUS
 62
     7
100
AcDbLine
 10
238.5608575328
 20
-36.8788497992
 30
0.0
 11
238.5608575328
 21
-41.7698497992
 31
0.0
  0
LINE
  5
173
330
1F
100
AcDbEntity
  8
0
  6
CONTINUOUS
 62
     7
100
AcDbLine
 10
238.1725924529
 20
-36.3243497992
 30
0.0
 11
238.1725924529
 21
-42.3243497992
 31
0.0
  0
LINE
  5
174
330
1F
100
AcDbEntity
  8
0
  6
CONTINUOUS
 62
     7
100
AcDbLine
 10
237.9665139171
 20
-36.3243497992
 30
0.0
 11
237.9665139171
 21
-42.3243497992
 31
0.0
  0
LINE
  5
175
330
1F
100
AcDbEntity
  8
0
  6
CONTINUOUS
 62
     7
100
AcDbLine
 10
237.5782488372
 20
-36.8788497992
 30
0.0
 11
237.5782488372
 21
-41.7698497992
 31
0.0
  0
LINE
  5
176
330
1F
100
AcDbEntity
  8
0
  6
CONTINUOUS
 62
     7
100
AcDbLine
 10
237.1899837572
 20
-36.3243497992
 30
0.0
 11
237.1899837572
 21
-42.3243497992
 31
0.0
  0
LINE
  5
177
330
1F
100
AcDbEntity
  8
0
  6
CONTINUOUS
 62
     7
100
AcDbLine
 10
236.9839052214
 20
-36.3243497992
 30
0.0
 11
236.9839052214
 21
-42.3243497992
 31
0.0
  0
LINE
  5
178
330
1F
100
AcDbEntity
  8
0
  6
CONTINUOUS
 62
     7
100
AcDbLine
 10
236.5956401415
 20
-36.8788497992
 30
0.0
 11
236.5956401415
 21
-41.7698497992
 31
0.0
  0
LINE
  5
179
330
1F
100
AcDbEntity
  8
0
  6
CONTINUOUS
 62
     7
100
AcDbLine
 10
236.2073750616
 20
-36.3243497992
 30
0.0
 11
236.2073750616
 21
-42.3243497992
 31
0.0
  0
LINE
  5
17A
330
1F
100
AcDbEntity
  8
0
  6
CONTINUOUS
 62
     7
100
AcDbLine
 10
236.0012965258
 20
-36.3243497992
 30
0.0
 11
236.0012965258
 21
-42.3243497992
 31
0.0
  0
LINE
  5
17B
330
1F
100
AcDbEntity
  8
0
  6
CONTINUOUS
 62
     7
100
AcDbLine
 10
235.2247663659
 20
-36.3243497992
 30
0.0
 11
235.2247663659
 21
-42.3243497992
 31
0.0
  0
LINE
  5
17C
330
1F
100
AcDbEntity
  8
0
  6
CONTINUOUS
 62
     7
100
AcDbLine
 10
235.6130314459
 20
-36.8788497992
 30
0.0
 11
235.6130314459
 21
-41.7698497992
 31
0.0
  0
LINE
  5
17D
330
1F
100
AcDbEntity
  8
0
  6
CONTINUOUS
 62
     7
100
AcDbLine
 10
235.0186878301
 20
-36.3243497992
 30
0.0
 11
235.0186878301
 21
-42.3243497992
 31
0.0
  0
LINE
  5
17E
330
1F
100
AcDbEntity
  8
0
  6
CONTINUOUS
 62
     7
100
AcDbLine
 10
234.2421576703
 20
-36.3243497992
 30
0.0
 11
234.2421576703
 21
-42.3243497992
 31
0.0
  0
LINE
  5
17F
330
1F
100
AcDbEntity
  8
0
  6
CONTINUOUS
 62
     7
100
AcDbLine
 10
234.6304227502
 20
-36.8788497992
 30
0.0
 11
234.6304227502
 21
-41.7698497992
 31
0.0
  0
LINE
  5
180
330
1F
100
AcDbEntity
  8
0
  6
CONTINUOUS
 62
     7
100
AcDbLine
 10
234.0360791345
 20
-36.3243497992
 30
0.0
 11
234.0360791345
 21
-42.3243497992
 31
0.0
  0
LINE
  5
181
330
1F
100
AcDbEntity
  8
0
  6
CONTINUOUS
 62
     7
100
AcDbLine
 10
233.6478140546
 20
-36.8788497992
 30
0.0
 11
233.6478140546
 21
-41.7698497992
 31
0.0
  0
LINE
  5
182
330
1F
100
AcDbEntity
  8
0
  6
CONTINUOUS
 62
     7
100
AcDbLine
 10
233.2595489746
 20
-36.3243497992
 30
0.0
 11
233.2595489746
 21
-42.3243497992
 31
0.0
  0
LINE
  5
183
330
1F
100
AcDbEntity
  8
0
  6
CONTINUOUS
 62
     7
100
AcDbLine
 10
233.0534704388
 20
-36.3243497992
 30
0.0
 11
233.0534704388
 21
-42.3243497992
 31
0.0
  0
LINE
  5
184
330
1F
100
AcDbEntity
  8
0
  6
CONTINUOUS
 62
     7
100
AcDbLine
 10
247.7926008736
 20
263.6756502008
 30
0.0
 11
247.7926008736
 21
257.6756502008
 31
0.0
  0
LINE
  5
185
330
1F
100
AcDbEntity
  8
0
  6
CONTINUOUS
 62
     7
100
AcDbLine
 10
247.4043357937
 20
263.1211502008
 30
0.0
 11
247.4043357937
 21
258.2301502008
 31
0.0
  0
LINE
  5
186
330
1F
100
AcDbEntity
  8
0
  6
CONTINUOUS
 62
     7
100
AcDbLine
 10
247.0160707137
 20
263.6756502008
 30
0.0
 11
247.0160707137
 21
257.6756502008
 31
0.0
  0
LINE
  5
187
330
1F
100
AcDbEntity
  8
0
  6
CONTINUOUS
 62
     7
100
AcDbLine
 10
246.809992178
 20
263.6756502008
 30
0.0
 11
246.809992178
 21
257.6756502008
 31
0.0
  0
LINE
  5
188
330
1F
100
AcDbEntity
  8
0
  6
CONTINUOUS
 62
     7
100
AcDbLine
 10
246.421727098
 20
263.1211502008
 30
0.0
 11
246.421727098
 21
258.2301502008
 31
0.0
  0
LINE
  5
189
330
1F
100
AcDbEntity
  8
0
  6
CONTINUOUS
 62
     7
100
AcDbLine
 10
246.0334620181
 20
263.6756502008
 30
0.0
 11
246.0334620181
 21
257.6756502008
 31
0.0
  0
LINE
  5
18A
330
1F
100
AcDbEntity
  8
0
  6
CONTINUOUS
 62
     7
100
AcDbLine
 10
245.8273834823
 20
263.6756502008
 30
0.0
 11
245.8273834823
 21
257.6756502008
 31
0.0
  0
LINE
  5
18B
330
1F
100
AcDbEntity
  8
0
  6
CONTINUOUS
 62
     7
100
AcDbLine
 10
245.4391184024
 20
263.1211502008
 30
0.0
 11
245.4391184024
 21
258.2301502008
 31
0.0
  0
LINE
  5
18C
330
1F
100
AcDbEntity
  8
0
  6
CONTINUOUS
 62
     7
100
AcDbLine
 10
245.0508533224
 20
263.6756502008
 30
0.0
 11
245.0508533224
 21
257.6756502008
 31
0.0
  0
LINE
  5
18D
330
1F
100
AcDbEntity
  8
0
  6
CONTINUOUS
 62
     7
100
AcDbLine
 10
244.8447747867
 20
263.6756502008
 30
0.0
 11
244.8447747867
 21
257.6756502008
 31
0.0
  0
LINE
  5
18E
330
1F
100
AcDbEntity
  8
0
  6
CONTINUOUS
 62
     7
100
AcDbLine
 10
244.4565097067
 20
263.1211502008
 30
0.0
 11
244.4565097067
 21
258.2301502008
 31
0.0
  0
LINE
  5
18F
330
1F
100
AcDbEntity
  8
0
  6
CONTINUOUS
 62
     7
100
AcDbLine
 10
244.0682446268
 20
263.6756502008
 30
0.0
 11
244.0682446268
 21
257.6756502008
 31
0.0
  0
LINE
  5
190
330
1F
100
AcDbEntity
  8
0
  6
CONTINUOUS
 62
     7
100
AcDbLine
 10
243.862166091
 20
263.6756502008
 30
0.0
 11
243.862166091
 21
257.6756502008
 31
0.0
  0
LINE
  5
191
330
1F
100
AcDbEntity
  8
0
  6
CONTINUOUS
 62
     7
100
AcDbLine
 10
243.4739010111
 20
263.1211502008
 30
0.0
 11
243.4739010111
 21
258.2301502008
 31
0.0
  0
LINE
  5
192
330
1F
100
AcDbEntity
  8
0
  6
CONTINUOUS
 62
     7
100
AcDbLine
 10
243.0856359311
 20
263.6756502008
 30
0.0
 11
243.0856359311
 21
257.6756502008
 31
0.0
  0
LINE
  5
193
330
1F
100
AcDbEntity
  8
0
  6
CONTINUOUS
 62
     7
100
AcDbLine
 10
242.8795573954
 20
263.6756502008
 30
0.0
 11
242.8795573954
 21
257.6756502008
 31
0.0
  0
LINE
  5
194
330
1F
100
AcDbEntity
  8
0
  6
CONTINUOUS
 62
     7
100
AcDbLine
 10
242.4912923154
 20
263.1211502008
 30
0.0
 11
242.4912923154
 21
258.2301502008
 31
0.0
  0
LINE
  5
195
330
1F
100
AcDbEntity
  8
0
  6
CONTINUOUS
 62
     7
100
AcDbLine
 10
242.1030272355
 20
263.6756502008
 30
0.0
 11
242.1030272355
 21
257.6756502008
 31
0.0
  0
LINE
  5
196
330
1F
100
AcDbEntity
  8
0
  6
CONTINUOUS
 62
     7
100
AcDbLine
 10
241.8969486997
 20
263.6756502008
 30
0.0
 11
241.8969486997
 21
257.6756502008
 31
0.0
  0
LINE
  5
197
330
1F
100
AcDbEntity
  8
0
  6
CONTINUOUS
 62
     7
100
AcDbLine
 10
241.5086836198
 20
263.1211502008
 30
0.0
 11
241.5086836198
 21
258.2301502008
 31
0.0
  0
LINE
  5
198
330
1F
100
AcDbEntity
  8
0
  6
CONTINUOUS
 62
     7
100
AcDbLine
 10
241.1204185398
 20
263.6756502008
 30
0.0
 11
241.1204185398
 21
257.6756502008
 31
0.0
  0
LINE
  5
199
330
1F
100
AcDbEntity
  8
0
  6
CONTINUOUS
 62
     7
100
AcDbLine
 10
240.9143400041
 20
263.6756502008
 30
0.0
 11
240.9143400041
 21
257.6756502008
 31
0.0
  0
LINE
  5
19A
330
1F
100
AcDbEntity
  8
0
  6
CONTINUOUS
 62
     7
100
AcDbLine
 10
240.5260749241
 20
263.1211502008
 30
0.0
 11
240.5260749241
 21
258.2301502008
 31
0.0
  0
LINE
  5
19B
330
1F
100
AcDbEntity
  8
0
  6
CONTINUOUS
 62
     7
100
AcDbLine
 10
240.1378098442
 20
263.6756502008
 30
0.0
 11
240.1378098442
 21
257.6756502008
 31
0.0
  0
LINE
  5
19C
330
1F
100
AcDbEntity
  8
0
  6
CONTINUOUS
 62
     7
100
AcDbLine
 10
239.9317313084
 20
263.6756502008
 30
0.0
 11
239.9317313084
 21
257.6756502008
 31
0.0
  0
LINE
  5
19D
330
1F
100
AcDbEntity
  8
0
  6
CONTINUOUS
 62
     7
100
AcDbLine
 10
239.5434662285
 20
263.1211502008
 30
0.0
 11
239.5434662285
 21
258.2301502008
 31
0.0
  0
LINE
  5
19E
330
1F
100
AcDbEntity
  8
0
  6
CONTINUOUS
 62
     7
100
AcDbLine
 10
239.1552011485
 20
263.6756502008
 30
0.0
 11
239.1552011485
 21
257.6756502008
 31
0.0
  0
LINE
  5
19F
330
1F
100
AcDbEntity
  8
0
  6
CONTINUOUS
 62
     7
100
AcDbLine
 10
238.9491226127
 20
263.6756502008
 30
0.0
 11
238.9491226127
 21
257.6756502008
 31
0.0
  0
LINE
  5
1A0
330
1F
100
AcDbEntity
  8
0
  6
CONTINUOUS
 62
     7
100
AcDbLine
 10
238.5608575328
 20
263.1211502008
 30
0.0
 11
238.5608575328
 21
258.2301502008
 31
0.0
  0
LINE
  5
1A1
330
1F
100
AcDbEntity
  8
0
  6
CONTINUOUS
 62
     7
100
AcDbLine
 10
238.1725924529
 20
263.6756502008
 30
0.0
 11
238.1725924529
 21
257.6756502008
 31
0.0
  0
LINE
  5
1A2
330
1F
100
AcDbEntity
  8
0
  6
CONTINUOUS
 62
     7
100
AcDbLine
 10
237.9665139171
 20
263.6756502008
 30
0.0
 11
237.9665139171
 21
257.6756502008
 31
0.0
  0
LINE
  5
1A3
330
1F
100
AcDbEntity
  8
0
  6
CONTINUOUS
 62
     7
100
AcDbLine
 10
237.5782488372
 20
263.1211502008
 30
0.0
 11
237.5782488372
 21
258.2301502008
 31
0.0
  0
LINE
  5
1A4
330
1F
100
AcDbEntity
  8
0
  6
CONTINUOUS
 62
     7
100
AcDbLine
 10
237.1899837572
 20
263.6756502008
 30
0.0
 11
237.1899837572
 21
257.6756502008
 31
0.0
  0
LINE
  5
1A5
330
1F
100
AcDbEntity
  8
0
  6
CONTINUOUS
 62
     7
100
AcDbLine
 10
236.9839052214
 20
263.6756502008
 30
0.0
 11
236.9839052214
 21
257.6756502008
 31
0.0
  0
LINE
  5
1A6
330
1F
100
AcDbEntity
  8
0
  6
CONTINUOUS
 62
     7
100
AcDbLine
 10
236.2073750616
 20
263.6756502008
 30
0.0
 11
236.2073750616
 21
257.6756502008
 31
0.0
  0
LINE
  5
1A7
330
1F
100
AcDbEntity
  8
0
  6
CONTINUOUS
 62
     7
100
AcDbLine
 10
236.5956401415
 20
263.1211502008
 30
0.0
 11
236.5956401415
 21
258.2301502008
 31
0.0
  0
LINE
  5
1A8
330
1F
100
AcDbEntity
  8
0
  6
CONTINUOUS
 62
     7
100
AcDbLine
 10
236.0012965258
 20
263.6756502008
 30
0.0
 11
236.0012965258
 21
257.6756502008
 31
0.0
  0
LINE
  5
1A9
330
1F
100
AcDbEntity
  8
0
  6
CONTINUOUS
 62
     7
100
AcDbLine
 10
235.6130314459
 20
263.1211502008
 30
0.0
 11
235.6130314459
 21
258.2301502008
 31
0.0
  0
LINE
  5
1AA
330
1F
100
AcDbEntity
  8
0
  6
CONTINUOUS
 62
     7
100
AcDbLine
 10
235.2247663659
 20
263.6756502008
 30
0.0
 11
235.2247663659
 21
257.6756502008
 31
0.0
  0
LINE
  5
1AB
330
1F
100
AcDbEntity
  8
0
  6
CONTINUOUS
 62
     7
100
AcDbLine
 10
235.0186878301
 20
263.6756502008
 30
0.0
 11
235.0186878301
 21
257.6756502008
 31
0.0
  0
LINE
  5
1AC
330
1F
100
AcDbEntity
  8
0
  6
CONTINUOUS
 62
     7
100
AcDbLine
 10
234.6304227502
 20
263.1211502008
 30
0.0
 11
234.6304227502
 21
258.2301502008
 31
0.0
  0
LINE
  5
1AD
330
1F
100
AcDbEntity
  8
0
  6
CONTINUOUS
 62
     7
100
AcDbLine
 10
234.2421576703
 20
263.6756502008
 30
0.0
 11
234.2421576703
 21
257.6756502008
 31
0.0
  0
LINE
  5
1AE
330
1F
100
AcDbEntity
  8
0
  6
CONTINUOUS
 62
     7
100
AcDbLine
 10
234.0360791345
 20
263.6756502008
 30
0.0
 11
234.0360791345
 21
257.6756502008
 31
0.0
  0
LINE
  5
1AF
330
1F
100
AcDbEntity
  8
0
  6
CONTINUOUS
 62
     7
100
AcDbLine
 10
233.6478140546
 20
263.1211502008
 30
0.0
 11
233.6478140546
 21
258.2301502008
 31
0.0
  0
LINE
  5
1B0
330
1F
100
AcDbEntity
  8
0
  6
CONTINUOUS
 62
     7
100
AcDbLine
 10
233.2595489746
 20
263.6756502008
 30
0.0
 11
233.2595489746
 21
257.6756502008
 31
0.0
  0
LINE
  5
1B1
330
1F
100
AcDbEntity
  8
0
  6
CONTINUOUS
 62
     7
100
AcDbLine
 10
233.0534704388
 20
263.6756502008
 30
0.0
 11
233.0534704388
 21
257.6756502008
 31
0.0
  0
LINE
  5
1B2
330
1F
100
AcDbEntity
  8
0
  6
CONTINUOUS
 62
     7
100
AcDbLine
 10
252.2043367937
 20
264.6756502008
 30
0.0
 11
249.2043367937
 21
264.6756502008
 31
0.0
  0
LINE
  5
1B3
330
1F
100
AcDbEntity
  8
0
  6
CONTINUOUS
 62
     7
100
AcDbLine
 10
249.2043367937
 20
-43.3243497992
 30
0.0
 11
252.2043367937
 21
-43.3243497992
 31
0.0
  0
LINE
  5
1B4
330
1F
100
AcDbEntity
  8
0
  6
CONTINUOUS
 62
     7
100
AcDbLine
 10
249.2043367937
 20
264.6756502008
 30
0.0
 11
249.2043367937
 21
-43.3243497992
 31
0.0
  0
LINE
  5
1B5
330
1F
100
AcDbEntity
  8
0
  6
CONTINUOUS
 62
     7
100
AcDbLine
 10
252.2043367937
 20
264.6756502008
 30
0.0
 11
252.2043367937
 21
-43.3243497992
 31
0.0
  0
LINE
  5
1B6
330
1F
100
AcDbEntity
  8
0
  6
CONTINUOUS
 62
     7
100
AcDbLine
 10
252.2043367937
 20
-49.3243497992
 30
0.0
 11
249.2043367937
 21
-49.3243497992
 31
0.0
  0
LINE
  5
1B7
330
1F
100
AcDbEntity
  8
0
  6
CONTINUOUS
 62
     7
100
AcDbLine
 10
249.2043367937
 20
-49.3243497992
 30
0.0
 11
249.2043367937
 21
-43.3243497992
 31
0.0
  0
LINE
  5
1B8
330
1F
100
AcDbEntity
  8
0
  6
CONTINUOUS
 62
     7
100
AcDbLine
 10
252.2043367937
 20
-43.3243497992
 30
0.0
 11
252.2043367937
 21
-49.3243497992
 31
0.0
  0
LINE
  5
1B9
330
1F
100
AcDbEntity
  8
0
  6
CONTINUOUS
 62
     7
100
AcDbLine
 10
249.2043367937
 20
270.6756502008
 30
0.0
 11
252.2043367937
 21
270.6756502008
 31
0.0
  0
LINE
  5
1BA
330
1F
100
AcDbEntity
  8
0
  6
CONTINUOUS
 62
     7
100
AcDbLine
 10
249.2043367937
 20
264.6756502008
 30
0.0
 11
249.2043367937
 21
270.6756502008
 31
0.0
  0
LINE
  5
1BB
330
1F
100
AcDbEntity
  8
0
  6
CONTINUOUS
 62
     7
100
AcDbLine
 10
252.2043367937
 20
270.6756502008
 30
0.0
 11
252.2043367937
 21
264.6756502008
 31
0.0
  0
LINE
  5
1BC
330
1F
100
AcDbEntity
  8
0
  6
CONTINUOUS
 62
     7
100
AcDbLine
 10
232.8734604633
 20
264.6756502008
 30
0.0
 11
229.8734604633
 21
264.6756502008
 31
0.0
  0
LINE
  5
1BD
330
1F
100
AcDbEntity
  8
0
  6
CONTINUOUS
 62
     7
100
AcDbLine
 10
232.8734604633
 20
-43.3243497992
 30
0.0
 11
232.8734604633
 21
264.6756502008
 31
0.0
  0
LINE
  5
1BE
330
1F
100
AcDbEntity
  8
0
  6
CONTINUOUS
 62
     7
100
AcDbLine
 10
229.8734604633
 20
-43.3243497992
 30
0.0
 11
232.8734604633
 21
-43.3243497992
 31
0.0
  0
LINE
  5
1BF
330
1F
100
AcDbEntity
  8
0
  6
CONTINUOUS
 62
     7
100
AcDbLine
 10
229.8734604633
 20
-43.3243497992
 30
0.0
 11
229.8734604633
 21
264.6756502008
 31
0.0
  0
LINE
  5
1C0
330
1F
100
AcDbEntity
  8
0
  6
CONTINUOUS
 62
     7
100
AcDbLine
 10
232.8734604633
 20
-43.3243497992
 30
0.0
 11
232.8734604633
 21
-49.3243497992
 31
0.0
  0
LINE
  5
1C1
330
1F
100
AcDbEntity
  8
0
  6
CONTINUOUS
 62
     7
100
AcDbLine
 10
232.8734604633
 20
-49.3243497992
 30
0.0
 11
229.8734604633
 21
-49.3243497992
 31
0.0
  0
LINE
  5
1C2
330
1F
100
AcDbEntity
  8
0
  6
CONTINUOUS
 62
     7
100
AcDbLine
 10
229.8734604633
 20
-49.3243497992
 30
0.0
 11
229.8734604633
 21
-43.3243497992
 31
0.0
  0
LINE
  5
1C3
330
1F
100
AcDbEntity
  8
0
  6
CONTINUOUS
 62
     7
100
AcDbLine
 10
229.8734604633
 20
270.6756502008
 30
0.0
 11
232.8734604633
 21
270.6756502008
 31
0.0
  0
LINE
  5
1C4
330
1F
100
AcDbEntity
  8
0
  6
CONTINUOUS
 62
     7
100
AcDbLine
 10
229.8734604633
 20
264.6756502008
 30
0.0
 11
229.8734604633
 21
270.6756502008
 31
0.0
  0
LINE
  5
1C5
330
1F
100
AcDbEntity
  8
0
  6
CONTINUOUS
 62
     7
100
AcDbLine
 10
232.8734604633
 20
270.6756502008
 30
0.0
 11
232.8734604633
 21
264.6756502008
 31
0.0
  0
LINE
  5
1C6
330
1F
100
AcDbEntity
  8
0
  6
CONTINUOUS
 62
     7
100
AcDbLine
 10
175.8734604633
 20
-49.3243497992
 30
0.0
 11
229.8734604633
 21
-49.3243497992
 31
0.0
  0
LINE
  5
1C7
330
1F
100
AcDbEntity
  8
0
  6
CONTINUOUS
 62
     7
100
AcDbLine
 10
175.8734604633
 20
-49.3243497992
 30
0.0
 11
175.8734604633
 21
-43.3243497992
 31
0.0
  0
LINE
  5
1C8
330
1F
100
AcDbEntity
  8
0
  6
CONTINUOUS
 62
     7
100
AcDbLine
 10
175.8734604633
 20
-43.3243497992
 30
0.0
 11
229.8734604633
 21
-43.3243497992
 31
0.0
  0
LINE
  5
1C9
330
1F
100
AcDbEntity
  8
0
  6
CONTINUOUS
 62
     7
100
AcDbLine
 10
175.8734604633
 20
264.6756502008
 30
0.0
 11
175.8734604633
 21
-43.3243497992
 31
0.0
  0
LINE
  5
1CA
330
1F
100
AcDbEntity
  8
0
  6
CONTINUOUS
 62
     7
100
AcDbLine
 10
229.8734604633
 20
264.6756502008
 30
0.0
 11
175.8734604633
 21
264.6756502008
 31
0.0
  0
LINE
  5
1CB
330
1F
100
AcDbEntity
  8
0
  6
CONTINUOUS
 62
     7
100
AcDbLine
 10
205.8734604633
 20
238.6756502008
 30
0.0
 11
229.8734604633
 21
238.6756502008
 31
0.0
  0
ARC
  5
1CC
330
1F
100
AcDbEntity
  8
0
  6
CONTINUOUS
 62
     7
100
AcDbCircle
 10
205.8734604633
 20
226.6756502008
 30
0.0
 40
12.00000000000003
100
AcDbArc
 50
90.0
 51
180.0
  0
LINE
  5
1CD
330
1F
100
AcDbEntity
  8
0
  6
CONTINUOUS
 62
     7
100
AcDbLine
 10
193.8734604633
 20
-5.3243497992
 30
0.0
 11
193.8734604633
 21
226.6756502008
 31
0.0
  0
ARC
  5
1CE
330
1F
100
AcDbEntity
  8
0
  6
CONTINUOUS
 62
     7
100
AcDbCircle
 10
205.8734604633
 20
-5.3243497992
 30
0.0
 40
12.00000000000001
100
AcDbArc
 50
180.0
 51
270.0
  0
LINE
  5
1CF
330
1F
100
AcDbEntity
  8
0
  6
CONTINUOUS
 62
     7
100
AcDbLine
 10
229.8734604633
 20
-17.3243497992
 30
0.0
 11
205.8734604633
 21
-17.3243497992
 31
0.0
  0
LINE
  5
1D0
330
1F
100
AcDbEntity
  8
0
  6
CONTINUOUS
 62
     7
100
AcDbLine
 10
205.8734604633
 20
-17.3243497992
 30
0.0
 11
205.8734604633
 21
-11.3243497992
 31
0.0
  0
LINE
  5
1D1
330
1F
100
AcDbEntity
  8
0
  6
CONTINUOUS
 62
     7
100
AcDbLine
 10
205.8734604633
 20
-11.3243497992
 30
0.0
 11
229.8734604633
 21
-11.3243497992
 31
0.0
  0
ARC
  5
1D2
330
1F
100
AcDbEntity
  8
0
  6
CONTINUOUS
 62
     7
100
AcDbCircle
 10
175.8734604633
 20
-43.3243497992
 30
0.0
 40
6.000000000000007
100
AcDbArc
 50
180.0
 51
270.0
  0
LINE
  5
1D3
330
1F
100
AcDbEntity
  8
0
  6
CONTINUOUS
 62
     7
100
AcDbLine
 10
175.8734604633
 20
-43.3243497992
 30
0.0
 11
169.8734604633
 21
-43.3243497992
 31
0.0
  0
LINE
  5
1D4
330
1F
100
AcDbEntity
  8
0
  6
CONTINUOUS
 62
     7
100
AcDbLine
 10
193.8734604633
 20
-5.3243497992
 30
0.0
 11
199.8734604633
 21
-5.3243497992
 31
0.0
  0
ARC
  5
1D5
330
1F
100
AcDbEntity
  8
0
  6
CONTINUOUS
 62
     7
100
AcDbCircle
 10
205.8734604633
 20
-5.3243497992
 30
0.0
 40
6.000000000000005
100
AcDbArc
 50
180.0
 51
270.0
  0
LINE
  5
1D6
330
1F
100
AcDbEntity
  8
0
  6
CONTINUOUS
 62
     7
100
AcDbLine
 10
169.8734604633
 20
264.6756502008
 30
0.0
 11
169.8734604633
 21
-43.3243497992
 31
0.0
  0
LINE
  5
1D7
330
1F
100
AcDbEntity
  8
0
  6
CONTINUOUS
 62
     7
100
AcDbLine
 10
175.8734604633
 20
264.6756502008
 30
0.0
 11
169.8734604633
 21
264.6756502008
 31
0.0
  0
LINE
  5
1D8
330
1F
100
AcDbEntity
  8
0
  6
CONTINUOUS
 62
     7
100
AcDbLine
 10
193.8734604633
 20
226.6756502008
 30
0.0
 11
199.8734604633
 21
226.6756502008
 31
0.0
  0
LINE
  5
1D9
330
1F
100
AcDbEntity
  8
0
  6
CONTINUOUS
 62
     7
100
AcDbLine
 10
199.8734604633
 20
226.6756502008
 30
0.0
 11
199.8734604633
 21
-5.3243497992
 31
0.0
  0
LINE
  5
1DA
330
1F
100
AcDbEntity
  8
0
  6
CONTINUOUS
 62
     7
100
AcDbLine
 10
205.8734604633
 20
232.6756502008
 30
0.0
 11
205.8734604633
 21
238.6756502008
 31
0.0
  0
LINE
  5
1DB
330
1F
100
AcDbEntity
  8
0
  6
CONTINUOUS
 62
     7
100
AcDbLine
 10
229.8734604633
 20
232.6756502008
 30
0.0
 11
205.8734604633
 21
232.6756502008
 31
0.0
  0
ARC
  5
1DC
330
1F
100
AcDbEntity
  8
0
  6
CONTINUOUS
 62
     7
100
AcDbCircle
 10
205.8734604633
 20
226.6756502008
 30
0.0
 40
6.000000000000028
100
AcDbArc
 50
90.0
 51
180.0
  0
LINE
  5
1DD
330
1F
100
AcDbEntity
  8
0
  6
CONTINUOUS
 62
     7
100
AcDbLine
 10
175.8734604633
 20
264.6756502008
 30
0.0
 11
175.8734604633
 21
270.6756502008
 31
0.0
  0
LINE
  5
1DE
330
1F
100
AcDbEntity
  8
0
  6
CONTINUOUS
 62
     7
100
AcDbLine
 10
229.8734604633
 20
270.6756502008
 30
0.0
 11
175.8734604633
 21
270.6756502008
 31
0.0
  0
ARC
  5
1DF
330
1F
100
AcDbEntity
  8
0
  6
CONTINUOUS
 62
     7
100
AcDbCircle
 10
175.8734604633
 20
264.6756502008
 30
0.0
 40
6.0
100
AcDbArc
 50
90.0
 51
180.0
  0
LINE
  5
1E0
330
1F
100
AcDbEntity
  8
0
  6
CONTINUOUS
 62
     7
100
AcDbLine
 10
248.9922047593
 20
-36.2364818336
 30
0.0
 11
248.9922047593
 21
-42.4122177649
 31
0.0
  0
LINE
  5
1E1
330
1F
100
AcDbEntity
  8
0
  6
CONTINUOUS
 62
     7
100
AcDbLine
 10
248.780072725
 20
-42.3243497992
 30
0.0
 11
248.780072725
 21
-36.3243497992
 31
0.0
  0
LINE
  5
1E2
330
1F
100
AcDbEntity
  8
0
  6
CONTINUOUS
 62
     7
100
AcDbLine
 10
248.9922047593
 20
263.7635181664
 30
0.0
 11
248.9922047593
 21
257.5877822351
 31
0.0
  0
LINE
  5
1E3
330
1F
100
AcDbEntity
  8
0
  6
CONTINUOUS
 62
     7
100
AcDbLine
 10
248.780072725
 20
257.6756502008
 30
0.0
 11
248.780072725
 21
263.6756502008
 31
0.0
  0
LINE
  5
1E4
330
1F
100
AcDbEntity
  8
0
  6
CONTINUOUS
 62
     7
100
AcDbLine
 10
249.2043367937
 20
352.3378193845
 30
0.0
 11
248.9922047593
 21
352.1256873501
 31
0.0
  0
LINE
  5
1E5
330
1F
100
AcDbEntity
  8
0
  6
CONTINUOUS
 62
     7
100
AcDbLine
 10
248.9922047593
 20
345.9499514188
 30
0.0
 11
249.2043367937
 21
345.7378193845
 31
0.0
  0
ARC
  5
1E6
330
1F
100
AcDbEntity
  8
0
  6
CONTINUOUS
 62
     7
100
AcDbCircle
 10
248.780072725
 20
352.3378193845
 30
0.0
 40
0.2999999999999743
100
AcDbArc
 50
270.0
 51
315.0
  0
ARC
  5
1E7
330
1F
100
AcDbEntity
  8
0
  6
CONTINUOUS
 62
     7
100
AcDbCircle
 10
248.780072725
 20
345.7378193845
 30
0.0
 40
0.3000000000000145
100
AcDbArc
 50
45.0
 51
90.0
  0
LINE
  5
1E8
330
1F
100
AcDbEntity
  8
0
  6
CONTINUOUS
 62
     7
100
AcDbLine
 10
236.2073750616
 20
352.0378193845
 30
0.0
 11
236.0012965258
 21
352.0378193845
 31
0.0
  0
LINE
  5
1E9
330
1F
100
AcDbEntity
  8
0
  6
CONTINUOUS
 62
     7
100
AcDbLine
 10
236.0012965258
 20
346.0378193845
 30
0.0
 11
236.2073750616
 21
346.0378193845
 31
0.0
  0
LINE
  5
1EA
330
1F
100
AcDbEntity
  8
0
  6
CONTINUOUS
 62
     7
100
AcDbLine
 10
247.0160707137
 20
352.0378193845
 30
0.0
 11
246.809992178
 21
352.0378193845
 31
0.0
  0
LINE
  5
1EB
330
1F
100
AcDbEntity
  8
0
  6
CONTINUOUS
 62
     7
100
AcDbLine
 10
246.809992178
 20
346.0378193845
 30
0.0
 11
247.0160707137
 21
346.0378193845
 31
0.0
  0
LINE
  5
1EC
330
1F
100
AcDbEntity
  8
0
  6
CONTINUOUS
 62
     7
100
AcDbLine
 10
245.0508533224
 20
352.0378193845
 30
0.0
 11
244.8447747867
 21
352.0378193845
 31
0.0
  0
LINE
  5
1ED
330
1F
100
AcDbEntity
  8
0
  6
CONTINUOUS
 62
     7
100
AcDbLine
 10
244.8447747867
 20
346.0378193845
 30
0.0
 11
245.0508533224
 21
346.0378193845
 31
0.0
  0
LINE
  5
1EE
330
1F
100
AcDbEntity
  8
0
  6
CONTINUOUS
 62
     7
100
AcDbLine
 10
243.0856359311
 20
346.0378193845
 30
0.0
 11
243.4739010111
 21
346.5923193845
 31
0.0
  0
LINE
  5
1EF
330
1F
100
AcDbEntity
  8
0
  6
CONTINUOUS
 62
     7
100
AcDbLine
 10
243.4739010111
 20
351.4833193845
 30
0.0
 11
243.0856359311
 21
352.0378193845
 31
0.0
  0
LINE
  5
1F0
330
1F
100
AcDbEntity
  8
0
  6
CONTINUOUS
 62
     7
100
AcDbLine
 10
243.862166091
 20
352.0378193845
 30
0.0
 11
243.4739010111
 21
351.4833193845
 31
0.0
  0
LINE
  5
1F1
330
1F
100
AcDbEntity
  8
0
  6
CONTINUOUS
 62
     7
100
AcDbLine
 10
243.4739010111
 20
346.5923193845
 30
0.0
 11
243.862166091
 21
346.0378193845
 31
0.0
  0
LINE
  5
1F2
330
1F
100
AcDbEntity
  8
0
  6
CONTINUOUS
 62
     7
100
AcDbLine
 10
243.0856359311
 20
352.0378193845
 30
0.0
 11
242.8795573954
 21
352.0378193845
 31
0.0
  0
LINE
  5
1F3
330
1F
100
AcDbEntity
  8
0
  6
CONTINUOUS
 62
     7
100
AcDbLine
 10
242.8795573954
 20
346.0378193845
 30
0.0
 11
243.0856359311
 21
346.0378193845
 31
0.0
  0
LINE
  5
1F4
330
1F
100
AcDbEntity
  8
0
  6
CONTINUOUS
 62
     7
100
AcDbLine
 10
242.1030272355
 20
352.0378193845
 30
0.0
 11
241.8969486997
 21
352.0378193845
 31
0.0
  0
LINE
  5
1F5
330
1F
100
AcDbEntity
  8
0
  6
CONTINUOUS
 62
     7
100
AcDbLine
 10
241.8969486997
 20
346.0378193845
 30
0.0
 11
242.1030272355
 21
346.0378193845
 31
0.0
  0
LINE
  5
1F6
330
1F
100
AcDbEntity
  8
0
  6
CONTINUOUS
 62
     7
100
AcDbLine
 10
247.7926008736
 20
352.0378193845
 30
0.0
 11
247.4043357937
 21
351.4833193845
 31
0.0
  0
LINE
  5
1F7
330
1F
100
AcDbEntity
  8
0
  6
CONTINUOUS
 62
     7
100
AcDbLine
 10
247.4043357937
 20
346.5923193845
 30
0.0
 11
247.7926008736
 21
346.0378193845
 31
0.0
  0
LINE
  5
1F8
330
1F
100
AcDbEntity
  8
0
  6
CONTINUOUS
 62
     7
100
AcDbLine
 10
240.9143400041
 20
352.0378193845
 30
0.0
 11
240.5260749241
 21
351.4833193845
 31
0.0
  0
LINE
  5
1F9
330
1F
100
AcDbEntity
  8
0
  6
CONTINUOUS
 62
     7
100
AcDbLine
 10
240.5260749241
 20
346.5923193845
 30
0.0
 11
240.9143400041
 21
346.0378193845
 31
0.0
  0
LINE
  5
1FA
330
1F
100
AcDbEntity
  8
0
  6
CONTINUOUS
 62
     7
100
AcDbLine
 10
240.1378098442
 20
352.0378193845
 30
0.0
 11
239.9317313084
 21
352.0378193845
 31
0.0
  0
LINE
  5
1FB
330
1F
100
AcDbEntity
  8
0
  6
CONTINUOUS
 62
     7
100
AcDbLine
 10
239.9317313084
 20
346.0378193845
 30
0.0
 11
240.1378098442
 21
346.0378193845
 31
0.0
  0
LINE
  5
1FC
330
1F
100
AcDbEntity
  8
0
  6
CONTINUOUS
 62
     7
100
AcDbLine
 10
239.1552011485
 20
346.0378193845
 30
0.0
 11
239.5434662285
 21
346.5923193845
 31
0.0
  0
LINE
  5
1FD
330
1F
100
AcDbEntity
  8
0
  6
CONTINUOUS
 62
     7
100
AcDbLine
 10
239.5434662285
 20
351.4833193845
 30
0.0
 11
239.1552011485
 21
352.0378193845
 31
0.0
  0
LINE
  5
1FE
330
1F
100
AcDbEntity
  8
0
  6
CONTINUOUS
 62
     7
100
AcDbLine
 10
239.9317313084
 20
352.0378193845
 30
0.0
 11
239.5434662285
 21
351.4833193845
 31
0.0
  0
LINE
  5
1FF
330
1F
100
AcDbEntity
  8
0
  6
CONTINUOUS
 62
     7
100
AcDbLine
 10
239.5434662285
 20
346.5923193845
 30
0.0
 11
239.9317313084
 21
346.0378193845
 31
0.0
  0
LINE
  5
200
330
1F
100
AcDbEntity
  8
0
  6
CONTINUOUS
 62
     7
100
AcDbLine
 10
239.1552011485
 20
352.0378193845
 30
0.0
 11
238.9491226127
 21
352.0378193845
 31
0.0
  0
LINE
  5
201
330
1F
100
AcDbEntity
  8
0
  6
CONTINUOUS
 62
     7
100
AcDbLine
 10
238.9491226127
 20
346.0378193845
 30
0.0
 11
239.1552011485
 21
346.0378193845
 31
0.0
  0
LINE
  5
202
330
1F
100
AcDbEntity
  8
0
  6
CONTINUOUS
 62
     7
100
AcDbLine
 10
238.1725924529
 20
346.0378193845
 30
0.0
 11
238.5608575328
 21
346.5923193845
 31
0.0
  0
LINE
  5
203
330
1F
100
AcDbEntity
  8
0
  6
CONTINUOUS
 62
     7
100
AcDbLine
 10
238.5608575328
 20
351.4833193845
 30
0.0
 11
238.1725924529
 21
352.0378193845
 31
0.0
  0
LINE
  5
204
330
1F
100
AcDbEntity
  8
0
  6
CONTINUOUS
 62
     7
100
AcDbLine
 10
238.9491226127
 20
352.0378193845
 30
0.0
 11
238.5608575328
 21
351.4833193845
 31
0.0
  0
LINE
  5
205
330
1F
100
AcDbEntity
  8
0
  6
CONTINUOUS
 62
     7
100
AcDbLine
 10
238.5608575328
 20
346.5923193845
 30
0.0
 11
238.9491226127
 21
346.0378193845
 31
0.0
  0
LINE
  5
206
330
1F
100
AcDbEntity
  8
0
  6
CONTINUOUS
 62
     7
100
AcDbLine
 10
238.1725924529
 20
352.0378193845
 30
0.0
 11
237.9665139171
 21
352.0378193845
 31
0.0
  0
LINE
  5
207
330
1F
100
AcDbEntity
  8
0
  6
CONTINUOUS
 62
     7
100
AcDbLine
 10
237.9665139171
 20
346.0378193845
 30
0.0
 11
238.1725924529
 21
346.0378193845
 31
0.0
  0
LINE
  5
208
330
1F
100
AcDbEntity
  8
0
  6
CONTINUOUS
 62
     7
100
AcDbLine
 10
237.1899837572
 20
346.0378193845
 30
0.0
 11
237.5782488372
 21
346.5923193845
 31
0.0
  0
LINE
  5
209
330
1F
100
AcDbEntity
  8
0
  6
CONTINUOUS
 62
     7
100
AcDbLine
 10
237.5782488372
 20
351.4833193845
 30
0.0
 11
237.1899837572
 21
352.0378193845
 31
0.0
  0
LINE
  5
20A
330
1F
100
AcDbEntity
  8
0
  6
CONTINUOUS
 62
     7
100
AcDbLine
 10
236.2073750616
 20
346.0378193845
 30
0.0
 11
236.5956401415
 21
346.5923193845
 31
0.0
  0
LINE
  5
20B
330
1F
100
AcDbEntity
  8
0
  6
CONTINUOUS
 62
     7
100
AcDbLine
 10
236.5956401415
 20
351.4833193845
 30
0.0
 11
236.2073750616
 21
352.0378193845
 31
0.0
  0
LINE
  5
20C
330
1F
100
AcDbEntity
  8
0
  6
CONTINUOUS
 62
     7
100
AcDbLine
 10
236.9839052214
 20
352.0378193845
 30
0.0
 11
236.5956401415
 21
351.4833193845
 31
0.0
  0
LINE
  5
20D
330
1F
100
AcDbEntity
  8
0
  6
CONTINUOUS
 62
     7
100
AcDbLine
 10
236.5956401415
 20
346.5923193845
 30
0.0
 11
236.9839052214
 21
346.0378193845
 31
0.0
  0
LINE
  5
20E
330
1F
100
AcDbEntity
  8
0
  6
CONTINUOUS
 62
     7
100
AcDbLine
 10
235.2247663659
 20
352.0378193845
 30
0.0
 11
235.0186878301
 21
352.0378193845
 31
0.0
  0
LINE
  5
20F
330
1F
100
AcDbEntity
  8
0
  6
CONTINUOUS
 62
     7
100
AcDbLine
 10
235.0186878301
 20
346.0378193845
 30
0.0
 11
235.2247663659
 21
346.0378193845
 31
0.0
  0
LINE
  5
210
330
1F
100
AcDbEntity
  8
0
  6
CONTINUOUS
 62
     7
100
AcDbLine
 10
234.2421576703
 20
346.0378193845
 30
0.0
 11
234.6304227502
 21
346.5923193845
 31
0.0
  0
LINE
  5
211
330
1F
100
AcDbEntity
  8
0
  6
CONTINUOUS
 62
     7
100
AcDbLine
 10
234.6304227502
 20
351.4833193845
 30
0.0
 11
234.2421576703
 21
352.0378193845
 31
0.0
  0
LINE
  5
212
330
1F
100
AcDbEntity
  8
0
  6
CONTINUOUS
 62
     7
100
AcDbLine
 10
235.0186878301
 20
352.0378193845
 30
0.0
 11
234.6304227502
 21
351.4833193845
 31
0.0
  0
LINE
  5
213
330
1F
100
AcDbEntity
  8
0
  6
CONTINUOUS
 62
     7
100
AcDbLine
 10
234.6304227502
 20
346.5923193845
 30
0.0
 11
235.0186878301
 21
346.0378193845
 31
0.0
  0
LINE
  5
214
330
1F
100
AcDbEntity
  8
0
  6
CONTINUOUS
 62
     7
100
AcDbLine
 10
234.0360791345
 20
352.0378193845
 30
0.0
 11
233.6478140546
 21
351.4833193845
 31
0.0
  0
LINE
  5
215
330
1F
100
AcDbEntity
  8
0
  6
CONTINUOUS
 62
     7
100
AcDbLine
 10
233.6478140546
 20
346.5923193845
 30
0.0
 11
234.0360791345
 21
346.0378193845
 31
0.0
  0
LINE
  5
216
330
1F
100
AcDbEntity
  8
0
  6
CONTINUOUS
 62
     7
100
AcDbLine
 10
233.2595489746
 20
352.0378193845
 30
0.0
 11
233.0534704388
 21
352.0378193845
 31
0.0
  0
LINE
  5
217
330
1F
100
AcDbEntity
  8
0
  6
CONTINUOUS
 62
     7
100
AcDbLine
 10
233.0534704388
 20
346.0378193845
 30
0.0
 11
233.2595489746
 21
346.0378193845
 31
0.0
  0
LINE
  5
218
330
1F
100
AcDbEntity
  8
0
  6
CONTINUOUS
 62
     7
100
AcDbLine
 10
233.0534704388
 20
352.0378193845
 30
0.0
 11
232.8734604633
 21
351.7807384968
 31
0.0
  0
LINE
  5
219
330
1F
100
AcDbEntity
  8
0
  6
CONTINUOUS
 62
     7
100
AcDbLine
 10
232.8734604633
 20
346.2949002722
 30
0.0
 11
233.0534704388
 21
346.0378193845
 31
0.0
  0
LINE
  5
21A
330
1F
100
AcDbEntity
  8
0
  6
CONTINUOUS
 62
     7
100
AcDbLine
 10
244.8447747867
 20
352.0378193845
 30
0.0
 11
244.4565097067
 21
351.4833193845
 31
0.0
  0
LINE
  5
21B
330
1F
100
AcDbEntity
  8
0
  6
CONTINUOUS
 62
     7
100
AcDbLine
 10
244.4565097067
 20
346.5923193845
 30
0.0
 11
244.8447747867
 21
346.0378193845
 31
0.0
  0
LINE
  5
21C
330
1F
100
AcDbEntity
  8
0
  6
CONTINUOUS
 62
     7
100
AcDbLine
 10
240.1378098442
 20
346.0378193845
 30
0.0
 11
240.5260749241
 21
346.5923193845
 31
0.0
  0
LINE
  5
21D
330
1F
100
AcDbEntity
  8
0
  6
CONTINUOUS
 62
     7
100
AcDbLine
 10
240.5260749241
 20
351.4833193845
 30
0.0
 11
240.1378098442
 21
352.0378193845
 31
0.0
  0
LINE
  5
21E
330
1F
100
AcDbEntity
  8
0
  6
CONTINUOUS
 62
     7
100
AcDbLine
 10
248.780072725
 20
352.0378193845
 30
0.0
 11
247.7926008736
 21
352.0378193845
 31
0.0
  0
LINE
  5
21F
330
1F
100
AcDbEntity
  8
0
  6
CONTINUOUS
 62
     7
100
AcDbLine
 10
247.7926008736
 20
346.0378193845
 30
0.0
 11
248.780072725
 21
346.0378193845
 31
0.0
  0
LINE
  5
220
330
1F
100
AcDbEntity
  8
0
  6
CONTINUOUS
 62
     7
100
AcDbLine
 10
246.0334620181
 20
352.0378193845
 30
0.0
 11
245.8273834823
 21
352.0378193845
 31
0.0
  0
LINE
  5
221
330
1F
100
AcDbEntity
  8
0
  6
CONTINUOUS
 62
     7
100
AcDbLine
 10
245.8273834823
 20
346.0378193845
 30
0.0
 11
246.0334620181
 21
346.0378193845
 31
0.0
  0
LINE
  5
222
330
1F
100
AcDbEntity
  8
0
  6
CONTINUOUS
 62
     7
100
AcDbLine
 10
245.0508533224
 20
346.0378193845
 30
0.0
 11
245.4391184024
 21
346.5923193845
 31
0.0
  0
LINE
  5
223
330
1F
100
AcDbEntity
  8
0
  6
CONTINUOUS
 62
     7
100
AcDbLine
 10
245.4391184024
 20
351.4833193845
 30
0.0
 11
245.0508533224
 21
352.0378193845
 31
0.0
  0
LINE
  5
224
330
1F
100
AcDbEntity
  8
0
  6
CONTINUOUS
 62
     7
100
AcDbLine
 10
245.8273834823
 20
352.0378193845
 30
0.0
 11
245.4391184024
 21
351.4833193845
 31
0.0
  0
LINE
  5
225
330
1F
100
AcDbEntity
  8
0
  6
CONTINUOUS
 62
     7
100
AcDbLine
 10
245.4391184024
 20
346.5923193845
 30
0.0
 11
245.8273834823
 21
346.0378193845
 31
0.0
  0
LINE
  5
226
330
1F
100
AcDbEntity
  8
0
  6
CONTINUOUS
 62
     7
100
AcDbLine
 10
235.2247663659
 20
346.0378193845
 30
0.0
 11
235.6130314459
 21
346.5923193845
 31
0.0
  0
LINE
  5
227
330
1F
100
AcDbEntity
  8
0
  6
CONTINUOUS
 62
     7
100
AcDbLine
 10
235.6130314459
 20
351.4833193845
 30
0.0
 11
235.2247663659
 21
352.0378193845
 31
0.0
  0
LINE
  5
228
330
1F
100
AcDbEntity
  8
0
  6
CONTINUOUS
 62
     7
100
AcDbLine
 10
244.0682446268
 20
346.0378193845
 30
0.0
 11
244.4565097067
 21
346.5923193845
 31
0.0
  0
LINE
  5
229
330
1F
100
AcDbEntity
  8
0
  6
CONTINUOUS
 62
     7
100
AcDbLine
 10
244.4565097067
 20
351.4833193845
 30
0.0
 11
244.0682446268
 21
352.0378193845
 31
0.0
  0
LINE
  5
22A
330
1F
100
AcDbEntity
  8
0
  6
CONTINUOUS
 62
     7
100
AcDbLine
 10
241.8969486997
 20
352.0378193845
 30
0.0
 11
241.5086836198
 21
351.4833193845
 31
0.0
  0
LINE
  5
22B
330
1F
100
AcDbEntity
  8
0
  6
CONTINUOUS
 62
     7
100
AcDbLine
 10
241.5086836198
 20
346.5923193845
 30
0.0
 11
241.8969486997
 21
346.0378193845
 31
0.0
  0
LINE
  5
22C
330
1F
100
AcDbEntity
  8
0
  6
CONTINUOUS
 62
     7
100
AcDbLine
 10
244.0682446268
 20
352.0378193845
 30
0.0
 11
243.862166091
 21
352.0378193845
 31
0.0
  0
LINE
  5
22D
330
1F
100
AcDbEntity
  8
0
  6
CONTINUOUS
 62
     7
100
AcDbLine
 10
243.862166091
 20
346.0378193845
 30
0.0
 11
244.0682446268
 21
346.0378193845
 31
0.0
  0
LINE
  5
22E
330
1F
100
AcDbEntity
  8
0
  6
CONTINUOUS
 62
     7
100
AcDbLine
 10
237.9665139171
 20
352.0378193845
 30
0.0
 11
237.5782488372
 21
351.4833193845
 31
0.0
  0
LINE
  5
22F
330
1F
100
AcDbEntity
  8
0
  6
CONTINUOUS
 62
     7
100
AcDbLine
 10
237.5782488372
 20
346.5923193845
 30
0.0
 11
237.9665139171
 21
346.0378193845
 31
0.0
  0
LINE
  5
230
330
1F
100
AcDbEntity
  8
0
  6
CONTINUOUS
 62
     7
100
AcDbLine
 10
237.1899837572
 20
352.0378193845
 30
0.0
 11
236.9839052214
 21
352.0378193845
 31
0.0
  0
LINE
  5
231
330
1F
100
AcDbEntity
  8
0
  6
CONTINUOUS
 62
     7
100
AcDbLine
 10
236.9839052214
 20
346.0378193845
 30
0.0
 11
237.1899837572
 21
346.0378193845
 31
0.0
  0
LINE
  5
232
330
1F
100
AcDbEntity
  8
0
  6
CONTINUOUS
 62
     7
100
AcDbLine
 10
242.1030272355
 20
346.0378193845
 30
0.0
 11
242.4912923154
 21
346.5923193845
 31
0.0
  0
LINE
  5
233
330
1F
100
AcDbEntity
  8
0
  6
CONTINUOUS
 62
     7
100
AcDbLine
 10
242.4912923154
 20
351.4833193845
 30
0.0
 11
242.1030272355
 21
352.0378193845
 31
0.0
  0
LINE
  5
234
330
1F
100
AcDbEntity
  8
0
  6
CONTINUOUS
 62
     7
100
AcDbLine
 10
242.8795573954
 20
352.0378193845
 30
0.0
 11
242.4912923154
 21
351.4833193845
 31
0.0
  0
LINE
  5
235
330
1F
100
AcDbEntity
  8
0
  6
CONTINUOUS
 62
     7
100
AcDbLine
 10
242.4912923154
 20
346.5923193845
 30
0.0
 11
242.8795573954
 21
346.0378193845
 31
0.0
  0
LINE
  5
236
330
1F
100
AcDbEntity
  8
0
  6
CONTINUOUS
 62
     7
100
AcDbLine
 10
247.0160707137
 20
346.0378193845
 30
0.0
 11
247.4043357937
 21
346.5923193845
 31
0.0
  0
LINE
  5
237
330
1F
100
AcDbEntity
  8
0
  6
CONTINUOUS
 62
     7
100
AcDbLine
 10
247.4043357937
 20
351.4833193845
 30
0.0
 11
247.0160707137
 21
352.0378193845
 31
0.0
  0
LINE
  5
238
330
1F
100
AcDbEntity
  8
0
  6
CONTINUOUS
 62
     7
100
AcDbLine
 10
236.0012965258
 20
352.0378193845
 30
0.0
 11
235.6130314459
 21
351.4833193845
 31
0.0
  0
LINE
  5
239
330
1F
100
AcDbEntity
  8
0
  6
CONTINUOUS
 62
     7
100
AcDbLine
 10
235.6130314459
 20
346.5923193845
 30
0.0
 11
236.0012965258
 21
346.0378193845
 31
0.0
  0
LINE
  5
23A
330
1F
100
AcDbEntity
  8
0
  6
CONTINUOUS
 62
     7
100
AcDbLine
 10
241.1204185398
 20
352.0378193845
 30
0.0
 11
240.9143400041
 21
352.0378193845
 31
0.0
  0
LINE
  5
23B
330
1F
100
AcDbEntity
  8
0
  6
CONTINUOUS
 62
     7
100
AcDbLine
 10
240.9143400041
 20
346.0378193845
 30
0.0
 11
241.1204185398
 21
346.0378193845
 31
0.0
  0
LINE
  5
23C
330
1F
100
AcDbEntity
  8
0
  6
CONTINUOUS
 62
     7
100
AcDbLine
 10
246.0334620181
 20
346.0378193845
 30
0.0
 11
246.421727098
 21
346.5923193845
 31
0.0
  0
LINE
  5
23D
330
1F
100
AcDbEntity
  8
0
  6
CONTINUOUS
 62
     7
100
AcDbLine
 10
246.421727098
 20
351.4833193845
 30
0.0
 11
246.0334620181
 21
352.0378193845
 31
0.0
  0
LINE
  5
23E
330
1F
100
AcDbEntity
  8
0
  6
CONTINUOUS
 62
     7
100
AcDbLine
 10
246.809992178
 20
352.0378193845
 30
0.0
 11
246.421727098
 21
351.4833193845
 31
0.0
  0
LINE
  5
23F
330
1F
100
AcDbEntity
  8
0
  6
CONTINUOUS
 62
     7
100
AcDbLine
 10
246.421727098
 20
346.5923193845
 30
0.0
 11
246.809992178
 21
346.0378193845
 31
0.0
  0
LINE
  5
240
330
1F
100
AcDbEntity
  8
0
  6
CONTINUOUS
 62
     7
100
AcDbLine
 10
233.2595489746
 20
346.0378193845
 30
0.0
 11
233.6478140546
 21
346.5923193845
 31
0.0
  0
LINE
  5
241
330
1F
100
AcDbEntity
  8
0
  6
CONTINUOUS
 62
     7
100
AcDbLine
 10
233.6478140546
 20
351.4833193845
 30
0.0
 11
233.2595489746
 21
352.0378193845
 31
0.0
  0
LINE
  5
242
330
1F
100
AcDbEntity
  8
0
  6
CONTINUOUS
 62
     7
100
AcDbLine
 10
241.1204185398
 20
346.0378193845
 30
0.0
 11
241.5086836198
 21
346.5923193845
 31
0.0
  0
LINE
  5
243
330
1F
100
AcDbEntity
  8
0
  6
CONTINUOUS
 62
     7
100
AcDbLine
 10
241.5086836198
 20
351.4833193845
 30
0.0
 11
241.1204185398
 21
352.0378193845
 31
0.0
  0
LINE
  5
244
330
1F
100
AcDbEntity
  8
0
  6
CONTINUOUS
 62
     7
100
AcDbLine
 10
234.2421576703
 20
352.0378193845
 30
0.0
 11
234.0360791345
 21
352.0378193845
 31
0.0
  0
LINE
  5
245
330
1F
100
AcDbEntity
  8
0
  6
CONTINUOUS
 62
     7
100
AcDbLine
 10
234.0360791345
 20
346.0378193845
 30
0.0
 11
234.2421576703
 21
346.0378193845
 31
0.0
  0
LINE
  5
246
330
1F
100
AcDbEntity
  8
0
  6
CONTINUOUS
 62
     7
100
AcDbLine
 10
220.5212604633
 20
355.0388193845
 30
0.0
 11
220.5212604633
 21
355.0378193845
 31
0.0
  0
SPLINE
  5
247
330
1F
100
AcDbEntity
  8
0
  6
CONTINUOUS
 62
     7
100
AcDbSpline
210
0.0
220
0.0
230
1.0
 70
    24
 71
     3
 72
    12
 73
     8
 74
     0
 42
0.00000001
 43
0.00000001
 40
0.0
 40
0.0
 40
0.0
 40
0.0
 40
0.0922890451756972
 40
0.1889671023220109
 40
0.4128424699641174
 40
0.6856326680148257
 40
1.0
 40
1.0
 40
1.0
 40
1.0
 10
223.0488604633494
 20
355.0388193844913
 30
0.0
 10
222.8755906412404
 20
355.0388193844913
 30
0.0
 10
222.5208107630711
 20
355.0388193844913
 30
0.0
 10
221.8417314350942
 20
355.0388193844913
 30
0.0
 10
221.1538004984116
 20
355.0388193844913
 30
0.0
 10
220.6246460036104
 20
355.0388193844913
 30
0.0
 10
220.5573116448829
 20
355.0388193844913
 30
0.0
 10
220.5212604633494
 20
355.0388193844913
 30
0.0
  0
LINE
  5
248
330
1F
100
AcDbEntity
  8
0
  6
CONTINUOUS
 62
     7
100
AcDbLine
 10
223.0488604633
 20
355.0388193845
 30
0.0
 11
223.0488604633
 21
355.0378193845
 31
0.0
  0
SPLINE
  5
249
330
1F
100
AcDbEntity
  8
0
  6
CONTINUOUS
 62
     7
100
AcDbSpline
210
0.0
220
0.0
230
1.0
 70
    24
 71
     3
 72
    12
 73
     8
 74
     0
 42
0.00000001
 43
0.00000001
 40
0.0
 40
0.0
 40
0.0
 40
0.0
 40
0.3143673319851777
 40
0.5871575300358847
 40
0.8110328976779905
 40
0.9077109548243032
 40
1.0
 40
1.0
 40
1.0
 40
1.0
 10
225.5764604633494
 20
355.0388193844913
 30
0.0
 10
225.5404092818159
 20
355.0388193844913
 30
0.0
 10
225.4730749230884
 20
355.0388193844913
 30
0.0
 10
224.9439204282872
 20
355.0388193844913
 30
0.0
 10
224.2559894916046
 20
355.0388193844913
 30
0.0
 10
223.5769101636277
 20
355.0388193844913
 30
0.0
 10
223.2221302854585
 20
355.0388193844913
 30
0.0
 10
223.0488604633494
 20
355.0388193844913
 30
0.0
  0
LINE
  5
24A
330
1F
100
AcDbEntity
  8
0
  6
CONTINUOUS
 62
     7
100
AcDbLine
 10
225.5764604633
 20
355.0388193845
 30
0.0
 11
225.5764604633
 21
355.0378193845
 31
0.0
  0
LINE
  5
24B
330
1F
100
AcDbEntity
  8
0
  6
CONTINUOUS
 62
     7
100
AcDbLine
 10
223.2267604633
 20
355.0388193845
 30
0.0
 11
223.4638604633
 21
355.0388193845
 31
0.0
  0
LINE
  5
24C
330
1F
100
AcDbEntity
  8
0
  6
CONTINUOUS
 62
     7
100
AcDbLine
 10
222.8818604633
 20
355.0388193845
 30
0.0
 11
223.2267604633
 21
355.0388193845
 31
0.0
  0
LINE
  5
24D
330
1F
100
AcDbEntity
  8
0
  6
CONTINUOUS
 62
     7
100
AcDbLine
 10
236.2073750616
 20
352.0378193845
 30
0.0
 11
236.2073750616
 21
346.0378193845
 31
0.0
  0
LINE
  5
24E
330
1F
100
AcDbEntity
  8
0
  6
CONTINUOUS
 62
     7
100
AcDbLine
 10
236.0012965258
 20
352.0378193845
 30
0.0
 11
236.0012965258
 21
346.0378193845
 31
0.0
  0
LINE
  5
24F
330
1F
100
AcDbEntity
  8
0
  6
CONTINUOUS
 62
     7
100
AcDbLine
 10
247.0160707137
 20
352.0378193845
 30
0.0
 11
247.0160707137
 21
346.0378193845
 31
0.0
  0
LINE
  5
250
330
1F
100
AcDbEntity
  8
0
  6
CONTINUOUS
 62
     7
100
AcDbLine
 10
246.809992178
 20
352.0378193845
 30
0.0
 11
246.809992178
 21
346.0378193845
 31
0.0
  0
LINE
  5
251
330
1F
100
AcDbEntity
  8
0
  6
CONTINUOUS
 62
     7
100
AcDbLine
 10
245.0508533224
 20
352.0378193845
 30
0.0
 11
245.0508533224
 21
346.0378193845
 31
0.0
  0
LINE
  5
252
330
1F
100
AcDbEntity
  8
0
  6
CONTINUOUS
 62
     7
100
AcDbLine
 10
244.8447747867
 20
352.0378193845
 30
0.0
 11
244.8447747867
 21
346.0378193845
 31
0.0
  0
LINE
  5
253
330
1F
100
AcDbEntity
  8
0
  6
CONTINUOUS
 62
     7
100
AcDbLine
 10
243.0856359311
 20
352.0378193845
 30
0.0
 11
243.0856359311
 21
346.0378193845
 31
0.0
  0
LINE
  5
254
330
1F
100
AcDbEntity
  8
0
  6
CONTINUOUS
 62
     7
100
AcDbLine
 10
243.4739010111
 20
351.4833193845
 30
0.0
 11
243.4739010111
 21
346.5923193845
 31
0.0
  0
LINE
  5
255
330
1F
100
AcDbEntity
  8
0
  6
CONTINUOUS
 62
     7
100
AcDbLine
 10
243.862166091
 20
352.0378193845
 30
0.0
 11
243.862166091
 21
346.0378193845
 31
0.0
  0
LINE
  5
256
330
1F
100
AcDbEntity
  8
0
  6
CONTINUOUS
 62
     7
100
AcDbLine
 10
242.8795573954
 20
352.0378193845
 30
0.0
 11
242.8795573954
 21
346.0378193845
 31
0.0
  0
LINE
  5
257
330
1F
100
AcDbEntity
  8
0
  6
CONTINUOUS
 62
     7
100
AcDbLine
 10
242.1030272355
 20
352.0378193845
 30
0.0
 11
242.1030272355
 21
346.0378193845
 31
0.0
  0
LINE
  5
258
330
1F
100
AcDbEntity
  8
0
  6
CONTINUOUS
 62
     7
100
AcDbLine
 10
241.8969486997
 20
352.0378193845
 30
0.0
 11
241.8969486997
 21
346.0378193845
 31
0.0
  0
LINE
  5
259
330
1F
100
AcDbEntity
  8
0
  6
CONTINUOUS
 62
     7
100
AcDbLine
 10
247.4043357937
 20
351.4833193845
 30
0.0
 11
247.4043357937
 21
346.5923193845
 31
0.0
  0
LINE
  5
25A
330
1F
100
AcDbEntity
  8
0
  6
CONTINUOUS
 62
     7
100
AcDbLine
 10
247.7926008736
 20
352.0378193845
 30
0.0
 11
247.7926008736
 21
346.0378193845
 31
0.0
  0
LINE
  5
25B
330
1F
100
AcDbEntity
  8
0
  6
CONTINUOUS
 62
     7
100
AcDbLine
 10
240.5260749241
 20
351.4833193845
 30
0.0
 11
240.5260749241
 21
346.5923193845
 31
0.0
  0
LINE
  5
25C
330
1F
100
AcDbEntity
  8
0
  6
CONTINUOUS
 62
     7
100
AcDbLine
 10
240.9143400041
 20
352.0378193845
 30
0.0
 11
240.9143400041
 21
346.0378193845
 31
0.0
  0
LINE
  5
25D
330
1F
100
AcDbEntity
  8
0
  6
CONTINUOUS
 62
     7
100
AcDbLine
 10
240.1378098442
 20
352.0378193845
 30
0.0
 11
240.1378098442
 21
346.0378193845
 31
0.0
  0
LINE
  5
25E
330
1F
100
AcDbEntity
  8
0
  6
CONTINUOUS
 62
     7
100
AcDbLine
 10
239.9317313084
 20
352.0378193845
 30
0.0
 11
239.9317313084
 21
346.0378193845
 31
0.0
  0
LINE
  5
25F
330
1F
100
AcDbEntity
  8
0
  6
CONTINUOUS
 62
     7
100
AcDbLine
 10
239.1552011485
 20
352.0378193845
 30
0.0
 11
239.1552011485
 21
346.0378193845
 31
0.0
  0
LINE
  5
260
330
1F
100
AcDbEntity
  8
0
  6
CONTINUOUS
 62
     7
100
AcDbLine
 10
239.5434662285
 20
351.4833193845
 30
0.0
 11
239.5434662285
 21
346.5923193845
 31
0.0
  0
LINE
  5
261
330
1F
100
AcDbEntity
  8
0
  6
CONTINUOUS
 62
     7
100
AcDbLine
 10
238.9491226127
 20
352.0378193845
 30
0.0
 11
238.9491226127
 21
346.0378193845
 31
0.0
  0
LINE
  5
262
330
1F
100
AcDbEntity
  8
0
  6
CONTINUOUS
 62
     7
100
AcDbLine
 10
238.1725924529
 20
352.0378193845
 30
0.0
 11
238.1725924529
 21
346.0378193845
 31
0.0
  0
LINE
  5
263
330
1F
100
AcDbEntity
  8
0
  6
CONTINUOUS
 62
     7
100
AcDbLine
 10
238.5608575328
 20
351.4833193845
 30
0.0
 11
238.5608575328
 21
346.5923193845
 31
0.0
  0
LINE
  5
264
330
1F
100
AcDbEntity
  8
0
  6
CONTINUOUS
 62
     7
100
AcDbLine
 10
237.9665139171
 20
352.0378193845
 30
0.0
 11
237.9665139171
 21
346.0378193845
 31
0.0
  0
LINE
  5
265
330
1F
100
AcDbEntity
  8
0
  6
CONTINUOUS
 62
     7
100
AcDbLine
 10
237.1899837572
 20
352.0378193845
 30
0.0
 11
237.1899837572
 21
346.0378193845
 31
0.0
  0
LINE
  5
266
330
1F
100
AcDbEntity
  8
0
  6
CONTINUOUS
 62
     7
100
AcDbLine
 10
237.5782488372
 20
351.4833193845
 30
0.0
 11
237.5782488372
 21
346.5923193845
 31
0.0
  0
LINE
  5
267
330
1F
100
AcDbEntity
  8
0
  6
CONTINUOUS
 62
     7
100
AcDbLine
 10
236.5956401415
 20
351.4833193845
 30
0.0
 11
236.5956401415
 21
346.5923193845
 31
0.0
  0
LINE
  5
268
330
1F
100
AcDbEntity
  8
0
  6
CONTINUOUS
 62
     7
100
AcDbLine
 10
236.9839052214
 20
352.0378193845
 30
0.0
 11
236.9839052214
 21
346.0378193845
 31
0.0
  0
LINE
  5
269
330
1F
100
AcDbEntity
  8
0
  6
CONTINUOUS
 62
     7
100
AcDbLine
 10
235.2247663659
 20
352.0378193845
 30
0.0
 11
235.2247663659
 21
346.0378193845
 31
0.0
  0
LINE
  5
26A
330
1F
100
AcDbEntity
  8
0
  6
CONTINUOUS
 62
     7
100
AcDbLine
 10
235.0186878301
 20
352.0378193845
 30
0.0
 11
235.0186878301
 21
346.0378193845
 31
0.0
  0
LINE
  5
26B
330
1F
100
AcDbEntity
  8
0
  6
CONTINUOUS
 62
     7
100
AcDbLine
 10
234.2421576703
 20
352.0378193845
 30
0.0
 11
234.2421576703
 21
346.0378193845
 31
0.0
  0
LINE
  5
26C
330
1F
100
AcDbEntity
  8
0
  6
CONTINUOUS
 62
     7
100
AcDbLine
 10
234.6304227502
 20
351.4833193845
 30
0.0
 11
234.6304227502
 21
346.5923193845
 31
0.0
  0
LINE
  5
26D
330
1F
100
AcDbEntity
  8
0
  6
CONTINUOUS
 62
     7
100
AcDbLine
 10
233.6478140546
 20
351.4833193845
 30
0.0
 11
233.6478140546
 21
346.5923193845
 31
0.0
  0
LINE
  5
26E
330
1F
100
AcDbEntity
  8
0
  6
CONTINUOUS
 62
     7
100
AcDbLine
 10
234.0360791345
 20
352.0378193845
 30
0.0
 11
234.0360791345
 21
346.0378193845
 31
0.0
  0
LINE
  5
26F
330
1F
100
AcDbEntity
  8
0
  6
CONTINUOUS
 62
     7
100
AcDbLine
 10
233.2595489746
 20
352.0378193845
 30
0.0
 11
233.2595489746
 21
346.0378193845
 31
0.0
  0
LINE
  5
270
330
1F
100
AcDbEntity
  8
0
  6
CONTINUOUS
 62
     7
100
AcDbLine
 10
233.0534704388
 20
352.0378193845
 30
0.0
 11
233.0534704388
 21
346.0378193845
 31
0.0
  0
LINE
  5
271
330
1F
100
AcDbEntity
  8
0
  6
CONTINUOUS
 62
     7
100
AcDbLine
 10
244.4565097067
 20
351.4833193845
 30
0.0
 11
244.4565097067
 21
346.5923193845
 31
0.0
  0
LINE
  5
272
330
1F
100
AcDbEntity
  8
0
  6
CONTINUOUS
 62
     7
100
AcDbLine
 10
246.0334620181
 20
352.0378193845
 30
0.0
 11
246.0334620181
 21
346.0378193845
 31
0.0
  0
LINE
  5
273
330
1F
100
AcDbEntity
  8
0
  6
CONTINUOUS
 62
     7
100
AcDbLine
 10
245.8273834823
 20
352.0378193845
 30
0.0
 11
245.8273834823
 21
346.0378193845
 31
0.0
  0
LINE
  5
274
330
1F
100
AcDbEntity
  8
0
  6
CONTINUOUS
 62
     7
100
AcDbLine
 10
245.4391184024
 20
351.4833193845
 30
0.0
 11
245.4391184024
 21
346.5923193845
 31
0.0
  0
LINE
  5
275
330
1F
100
AcDbEntity
  8
0
  6
CONTINUOUS
 62
     7
100
AcDbLine
 10
235.6130314459
 20
351.4833193845
 30
0.0
 11
235.6130314459
 21
346.5923193845
 31
0.0
  0
LINE
  5
276
330
1F
100
AcDbEntity
  8
0
  6
CONTINUOUS
 62
     7
100
AcDbLine
 10
244.0682446268
 20
352.0378193845
 30
0.0
 11
244.0682446268
 21
346.0378193845
 31
0.0
  0
LINE
  5
277
330
1F
100
AcDbEntity
  8
0
  6
CONTINUOUS
 62
     7
100
AcDbLine
 10
241.5086836198
 20
351.4833193845
 30
0.0
 11
241.5086836198
 21
346.5923193845
 31
0.0
  0
LINE
  5
278
330
1F
100
AcDbEntity
  8
0
  6
CONTINUOUS
 62
     7
100
AcDbLine
 10
242.4912923154
 20
351.4833193845
 30
0.0
 11
242.4912923154
 21
346.5923193845
 31
0.0
  0
LINE
  5
279
330
1F
100
AcDbEntity
  8
0
  6
CONTINUOUS
 62
     7
100
AcDbLine
 10
241.1204185398
 20
352.0378193845
 30
0.0
 11
241.1204185398
 21
346.0378193845
 31
0.0
  0
LINE
  5
27A
330
1F
100
AcDbEntity
  8
0
  6
CONTINUOUS
 62
     7
100
AcDbLine
 10
246.421727098
 20
351.4833193845
 30
0.0
 11
246.421727098
 21
346.5923193845
 31
0.0
  0
LINE
  5
27B
330
1F
100
AcDbEntity
  8
0
  6
CONTINUOUS
 62
     7
100
AcDbLine
 10
252.2043367937
 20
340.0378193845
 30
0.0
 11
249.2043367937
 21
340.0378193845
 31
0.0
  0
LINE
  5
27C
330
1F
100
AcDbEntity
  8
0
  6
CONTINUOUS
 62
     7
100
AcDbLine
 10
249.2043367937
 20
346.0378193845
 30
0.0
 11
252.2043367937
 21
346.0378193845
 31
0.0
  0
LINE
  5
27D
330
1F
100
AcDbEntity
  8
0
  6
CONTINUOUS
 62
     7
100
AcDbLine
 10
249.2043367937
 20
340.0378193845
 30
0.0
 11
249.2043367937
 21
346.0378193845
 31
0.0
  0
LINE
  5
27E
330
1F
100
AcDbEntity
  8
0
  6
CONTINUOUS
 62
     7
100
AcDbLine
 10
252.2043367937
 20
346.0378193845
 30
0.0
 11
252.2043367937
 21
340.0378193845
 31
0.0
  0
LINE
  5
27F
330
1F
100
AcDbEntity
  8
0
  6
CONTINUOUS
 62
     7
100
AcDbLine
 10
252.2043367937
 20
352.0378193845
 30
0.0
 11
249.2043367937
 21
352.0378193845
 31
0.0
  0
LINE
  5
280
330
1F
100
AcDbEntity
  8
0
  6
CONTINUOUS
 62
     7
100
AcDbLine
 10
249.2043367937
 20
358.0378193845
 30
0.0
 11
252.2043367937
 21
358.0378193845
 31
0.0
  0
LINE
  5
281
330
1F
100
AcDbEntity
  8
0
  6
CONTINUOUS
 62
     7
100
AcDbLine
 10
249.2043367937
 20
352.0378193845
 30
0.0
 11
249.2043367937
 21
358.0378193845
 31
0.0
  0
LINE
  5
282
330
1F
100
AcDbEntity
  8
0
  6
CONTINUOUS
 62
     7
100
AcDbLine
 10
252.2043367937
 20
358.0378193845
 30
0.0
 11
252.2043367937
 21
352.0378193845
 31
0.0
  0
LINE
  5
283
330
1F
100
AcDbEntity
  8
0
  6
CONTINUOUS
 62
     7
100
AcDbLine
 10
249.2043367937
 20
352.0378193845
 30
0.0
 11
249.2043367937
 21
346.0378193845
 31
0.0
  0
LINE
  5
284
330
1F
100
AcDbEntity
  8
0
  6
CONTINUOUS
 62
     7
100
AcDbLine
 10
252.2043367937
 20
352.0378193845
 30
0.0
 11
252.2043367937
 21
346.0378193845
 31
0.0
  0
LINE
  5
285
330
1F
100
AcDbEntity
  8
0
  6
CONTINUOUS
 62
     7
100
AcDbLine
 10
229.8734604633
 20
358.0378193845
 30
0.0
 11
232.8734604633
 21
358.0378193845
 31
0.0
  0
LINE
  5
286
330
1F
100
AcDbEntity
  8
0
  6
CONTINUOUS
 62
     7
100
AcDbLine
 10
232.8734604633
 20
352.0378193845
 30
0.0
 11
229.8734604633
 21
352.0378193845
 31
0.0
  0
LINE
  5
287
330
1F
100
AcDbEntity
  8
0
  6
CONTINUOUS
 62
     7
100
AcDbLine
 10
229.8734604633
 20
352.0378193845
 30
0.0
 11
229.8734604633
 21
358.0378193845
 31
0.0
  0
LINE
  5
288
330
1F
100
AcDbEntity
  8
0
  6
CONTINUOUS
 62
     7
100
AcDbLine
 10
232.8734604633
 20
358.0378193845
 30
0.0
 11
232.8734604633
 21
352.0378193845
 31
0.0
  0
LINE
  5
289
330
1F
100
AcDbEntity
  8
0
  6
CONTINUOUS
 62
     7
100
AcDbLine
 10
229.8734604633
 20
346.0378193845
 30
0.0
 11
232.8734604633
 21
346.0378193845
 31
0.0
  0
LINE
  5
28A
330
1F
100
AcDbEntity
  8
0
  6
CONTINUOUS
 62
     7
100
AcDbLine
 10
229.8734604633
 20
346.0378193845
 30
0.0
 11
229.8734604633
 21
352.0378193845
 31
0.0
  0
LINE
  5
28B
330
1F
100
AcDbEntity
  8
0
  6
CONTINUOUS
 62
     7
100
AcDbLine
 10
232.8734604633
 20
346.0378193845
 30
0.0
 11
232.8734604633
 21
352.0378193845
 31
0.0
  0
LINE
  5
28C
330
1F
100
AcDbEntity
  8
0
  6
CONTINUOUS
 62
     7
100
AcDbLine
 10
232.8734604633
 20
340.0378193845
 30
0.0
 11
229.8734604633
 21
340.0378193845
 31
0.0
  0
LINE
  5
28D
330
1F
100
AcDbEntity
  8
0
  6
CONTINUOUS
 62
     7
100
AcDbLine
 10
229.8734604633
 20
340.0378193845
 30
0.0
 11
229.8734604633
 21
346.0378193845
 31
0.0
  0
LINE
  5
28E
330
1F
100
AcDbEntity
  8
0
  6
CONTINUOUS
 62
     7
100
AcDbLine
 10
232.8734604633
 20
346.0378193845
 30
0.0
 11
232.8734604633
 21
340.0378193845
 31
0.0
  0
LINE
  5
28F
330
1F
100
AcDbEntity
  8
0
  6
CONTINUOUS
 62
     7
100
AcDbLine
 10
175.8734604633
 20
355.0378193845
 30
0.0
 11
229.8734604633
 21
355.0378193845
 31
0.0
  0
LINE
  5
290
330
1F
100
AcDbEntity
  8
0
  6
CONTINUOUS
 62
     7
100
AcDbLine
 10
229.8734604633
 20
349.0378193845
 30
0.0
 11
175.8734604633
 21
349.0378193845
 31
0.0
  0
LINE
  5
291
330
1F
100
AcDbEntity
  8
0
  6
CONTINUOUS
 62
     7
100
AcDbLine
 10
175.8734604633
 20
349.0378193845
 30
0.0
 11
175.8734604633
 21
355.0378193845
 31
0.0
  0
ARC
  5
292
330
1F
100
AcDbEntity
  8
0
  6
CONTINUOUS
 62
     7
100
AcDbCircle
 10
175.8734604633
 20
349.0378193845
 30
0.0
 40
6.0
100
AcDbArc
 50
90.0
 51
180.0
  0
LINE
  5
293
330
1F
100
AcDbEntity
  8
0
  6
CONTINUOUS
 62
     7
100
AcDbLine
 10
169.8734604633
 20
349.0378193845
 30
0.0
 11
175.8734604633
 21
349.0378193845
 31
0.0
  0
ARC
  5
294
330
1F
100
AcDbEntity
  8
0
  6
CONTINUOUS
 62
     7
100
AcDbCircle
 10
175.8734604633
 20
349.0378193845
 30
0.0
 40
6.0
100
AcDbArc
 50
180.0
 51
270.0
  0
LINE
  5
295
330
1F
100
AcDbEntity
  8
0
  6
CONTINUOUS
 62
     7
100
AcDbLine
 10
175.8734604633
 20
343.0378193845
 30
0.0
 11
175.8734604633
 21
349.0378193845
 31
0.0
  0
LINE
  5
296
330
1F
100
AcDbEntity
  8
0
  6
CONTINUOUS
 62
     7
100
AcDbLine
 10
229.8734604633
 20
343.0378193845
 30
0.0
 11
175.8734604633
 21
343.0378193845
 31
0.0
  0
LINE
  5
297
330
1F
100
AcDbEntity
  8
0
  6
CONTINUOUS
 62
     7
100
AcDbLine
 10
248.9922047593
 20
352.1256873501
 30
0.0
 11
248.9922047593
 21
345.9499514188
 31
0.0
  0
LINE
  5
298
330
1F
100
AcDbEntity
  8
0
  6
CONTINUOUS
 62
     7
100
AcDbLine
 10
248.780072725
 20
346.0378193845
 30
0.0
 11
248.780072725
 21
352.0378193845
 31
0.0
  0
LINE
  5
299
330
1F
100
AcDbEntity
  8
0
  6
CONTINUOUS
 62
     7
100
AcDbLine
 10
81.9912619872
 20
99.3314175322
 30
0.0
 11
81.927401299
 21
99.3314175322
 31
0.0
  0
LINE
  5
29A
330
1F
100
AcDbEntity
  8
0
  6
CONTINUOUS
 62
     7
100
AcDbLine
 10
81.9912619872
 20
99.3314175322
 30
0.0
 11
81.9912619872
 21
99.4591389088
 31
0.0
  0
LINE
  5
29B
330
1F
100
AcDbEntity
  8
0
  6
CONTINUOUS
 62
     7
100
AcDbLine
 10
72.9342212396
 20
257.6756502008
 30
0.0
 11
72.9342212396
 21
257.6117895125
 31
0.0
  0
LINE
  5
29C
330
1F
100
AcDbEntity
  8
0
  6
CONTINUOUS
 62
     7
100
AcDbLine
 10
72.9342212396
 20
257.6756502008
 30
0.0
 11
72.806499863
 21
257.6756502008
 31
0.0
  0
LINE
  5
29D
330
1F
100
AcDbEntity
  8
0
  6
CONTINUOUS
 62
     7
100
AcDbLine
 10
59.81854759
 20
218.6376773589
 30
0.0
 11
59.7546869017
 21
218.6376773589
 31
0.0
  0
LINE
  5
29E
330
1F
100
AcDbEntity
  8
0
  6
CONTINUOUS
 62
     7
100
AcDbLine
 10
59.81854759
 20
218.6376773589
 30
0.0
 11
59.81854759
 21
218.7653987355
 31
0.0
  0
LINE
  5
29F
330
1F
100
AcDbEntity
  8
0
  6
CONTINUOUS
 62
     7
100
AcDbLine
 10
72.9342212396
 20
-31.8243497992
 30
0.0
 11
72.9342212396
 21
-31.7604891109
 31
0.0
  0
LINE
  5
2A0
330
1F
100
AcDbEntity
  8
0
  6
CONTINUOUS
 62
     7
100
AcDbLine
 10
72.9342212396
 20
-31.8243497992
 30
0.0
 11
73.0619426162
 21
-31.8243497992
 31
0.0
  0
LINE
  5
2A1
330
1F
100
AcDbEntity
  8
0
  6
CONTINUOUS
 62
     7
100
AcDbLine
 10
86.0498948891
 20
218.6376773589
 30
0.0
 11
86.1137555774
 21
218.6376773589
 31
0.0
  0
LINE
  5
2A2
330
1F
100
AcDbEntity
  8
0
  6
CONTINUOUS
 62
     7
100
AcDbLine
 10
86.0498948891
 20
218.6376773589
 30
0.0
 11
86.0498948891
 21
218.7653987355
 31
0.0
  0
LINE
  5
2A3
330
1F
100
AcDbEntity
  8
0
  6
CONTINUOUS
 62
     7
100
AcDbLine
 10
72.9342212396
 20
-36.3243497992
 30
0.0
 11
72.9342212396
 21
-36.2604891109
 31
0.0
  0
LINE
  5
2A4
330
1F
100
AcDbEntity
  8
0
  6
CONTINUOUS
 62
     7
100
AcDbLine
 10
72.9342212396
 20
-36.3243497992
 30
0.0
 11
73.0619426162
 21
-36.3243497992
 31
0.0
  0
POINT
  5
2A5
330
1F
100
AcDbEntity
  8
0
  6
CONTINUOUS
 62
     7
100
AcDbPoint
 10
81.9912619872
 20
99.3314175322
 30
0.0
  0
POINT
  5
2A6
330
1F
100
AcDbEntity
  8
0
  6
CONTINUOUS
 62
     7
100
AcDbPoint
 10
72.9342212396
 20
257.6756502008
 30
0.0
  0
POINT
  5
2A7
330
1F
100
AcDbEntity
  8
0
  6
CONTINUOUS
 62
     7
100
AcDbPoint
 10
59.81854759
 20
218.6376773589
 30
0.0
  0
POINT
  5
2A8
330
1F
100
AcDbEntity
  8
0
  6
CONTINUOUS
 62
     7
100
AcDbPoint
 10
72.9342212396
 20
-31.8243497992
 30
0.0
  0
POINT
  5
2A9
330
1F
100
AcDbEntity
  8
0
  6
CONTINUOUS
 62
     7
100
AcDbPoint
 10
86.0498948891
 20
218.6376773589
 30
0.0
  0
POINT
  5
2AA
330
1F
100
AcDbEntity
  8
0
  6
CONTINUOUS
 62
     7
100
AcDbPoint
 10
72.9342212396
 20
-36.3243497992
 30
0.0
  0
LINE
  5
2AB
330
1F
100
AcDbEntity
  8
0
  6
CONTINUOUS
 62
     7
100
AcDbLine
 10
74.9442212396
 20
-38.1638757582
 30
0.0
 11
74.9442212396
 21
-40.4848238403
 31
0.0
  0
LINE
  5
2AC
330
1F
100
AcDbEntity
  8
0
  6
CONTINUOUS
 62
     7
100
AcDbLine
 10
72.9342212396
 20
-37.0034017171
 30
0.0
 11
74.9442212396
 21
-38.1638757582
 31
0.0
  0
LINE
  5
2AD
330
1F
100
AcDbEntity
  8
0
  6
CONTINUOUS
 62
     7
100
AcDbLine
 10
70.9242212396
 20
-38.1638757582
 30
0.0
 11
72.9342212396
 21
-37.0034017171
 31
0.0
  0
LINE
  5
2AE
330
1F
100
AcDbEntity
  8
0
  6
CONTINUOUS
 62
     7
100
AcDbLine
 10
70.9242212396
 20
-40.4848238403
 30
0.0
 11
70.9242212396
 21
-38.1638757582
 31
0.0
  0
LINE
  5
2AF
330
1F
100
AcDbEntity
  8
0
  6
CONTINUOUS
 62
     7
100
AcDbLine
 10
72.9342212396
 20
-41.6452978814
 30
0.0
 11
70.9242212396
 21
-40.4848238403
 31
0.0
  0
LINE
  5
2B0
330
1F
100
AcDbEntity
  8
0
  6
CONTINUOUS
 62
     7
100
AcDbLine
 10
74.9442212396
 20
-40.4848238403
 30
0.0
 11
72.9342212396
 21
-41.6452978814
 31
0.0
  0
CIRCLE
  5
2B1
330
1F
100
AcDbEntity
  8
0
  6
CONTINUOUS
 62
     7
100
AcDbCircle
 10
72.9342212396
 20
-39.3243497992
 30
0.0
 40
5.784999999999997
  0
ARC
  5
2B2
330
1F
100
AcDbEntity
  8
0
  6
CONTINUOUS
 62
     7
100
AcDbCircle
 10
72.9342212396
 20
-39.3243497992
 30
0.0
 40
2.010000000000006
100
AcDbArc
 50
300.0
 51
0.0
  0
ARC
  5
2B3
330
1F
100
AcDbEntity
  8
0
  6
CONTINUOUS
 62
     7
100
AcDbCircle
 10
72.9342212396
 20
-39.3243497992
 30
0.0
 40
2.01
100
AcDbArc
 50
0.0
 51
60.0
  0
ARC
  5
2B4
330
1F
100
AcDbEntity
  8
0
  6
CONTINUOUS
 62
     7
100
AcDbCircle
 10
72.9342212396
 20
-39.3243497992
 30
0.0
 40
2.010000000000006
100
AcDbArc
 50
240.0
 51
300.0
  0
ARC
  5
2B5
330
1F
100
AcDbEntity
  8
0
  6
CONTINUOUS
 62
     7
100
AcDbCircle
 10
72.9342212396
 20
-39.3243497992
 30
0.0
 40
2.010000000000006
100
AcDbArc
 50
180.0
 51
240.0
  0
ARC
  5
2B6
330
1F
100
AcDbEntity
  8
0
  6
CONTINUOUS
 62
     7
100
AcDbCircle
 10
72.9342212396
 20
-39.3243497992
 30
0.0
 40
2.010000000000005
100
AcDbArc
 50
120.0
 51
180.0
  0
ARC
  5
2B7
330
1F
100
AcDbEntity
  8
0
  6
CONTINUOUS
 62
     7
100
AcDbCircle
 10
72.9342212396
 20
-39.3243497992
 30
0.0
 40
2.01
100
AcDbArc
 50
60.0
 51
120.0
  0
LINE
  5
2B8
330
1F
100
AcDbEntity
  8
0
  6
CONTINUOUS
 62
     7
100
AcDbLine
 10
74.9442212396
 20
261.8361242418
 30
0.0
 11
74.9442212396
 21
259.5151761597
 31
0.0
  0
LINE
  5
2B9
330
1F
100
AcDbEntity
  8
0
  6
CONTINUOUS
 62
     7
100
AcDbLine
 10
72.9342212396
 20
262.9965982829
 30
0.0
 11
74.9442212396
 21
261.8361242418
 31
0.0
  0
LINE
  5
2BA
330
1F
100
AcDbEntity
  8
0
  6
CONTINUOUS
 62
     7
100
AcDbLine
 10
70.9242212396
 20
261.8361242418
 30
0.0
 11
72.9342212396
 21
262.9965982829
 31
0.0
  0
LINE
  5
2BB
330
1F
100
AcDbEntity
  8
0
  6
CONTINUOUS
 62
     7
100
AcDbLine
 10
70.9242212396
 20
259.5151761597
 30
0.0
 11
70.9242212396
 21
261.8361242418
 31
0.0
  0
LINE
  5
2BC
330
1F
100
AcDbEntity
  8
0
  6
CONTINUOUS
 62
     7
100
AcDbLine
 10
72.9342212396
 20
258.3547021186
 30
0.0
 11
70.9242212396
 21
259.5151761597
 31
0.0
  0
LINE
  5
2BD
330
1F
100
AcDbEntity
  8
0
  6
CONTINUOUS
 62
     7
100
AcDbLine
 10
74.9442212396
 20
259.5151761597
 30
0.0
 11
72.9342212396
 21
258.3547021186
 31
0.0
  0
CIRCLE
  5
2BE
330
1F
100
AcDbEntity
  8
0
  6
CONTINUOUS
 62
     7
100
AcDbCircle
 10
72.9342212396
 20
260.6756502008
 30
0.0
 40
5.784999999999997
  0
ARC
  5
2BF
330
1F
100
AcDbEntity
  8
0
  6
CONTINUOUS
 62
     7
100
AcDbCircle
 10
72.9342212396
 20
260.6756502008
 30
0.0
 40
2.009999999999991
100
AcDbArc
 50
300.0
 51
0.0
  0
ARC
  5
2C0
330
1F
100
AcDbEntity
  8
0
  6
CONTINUOUS
 62
     7
100
AcDbCircle
 10
72.9342212396
 20
260.6756502008
 30
0.0
 40
2.009999999999989
100
AcDbArc
 50
240.0
 51
300.0
  0
ARC
  5
2C1
330
1F
100
AcDbEntity
  8
0
  6
CONTINUOUS
 62
     7
100
AcDbCircle
 10
72.9342212396
 20
260.6756502008
 30
0.0
 40
2.010000000000005
100
AcDbArc
 50
180.0
 51
240.0
  0
ARC
  5
2C2
330
1F
100
AcDbEntity
  8
0
  6
CONTINUOUS
 62
     7
100
AcDbCircle
 10
72.9342212396
 20
260.6756502008
 30
0.0
 40
2.010000000000038
100
AcDbArc
 50
120.0
 51
180.0
  0
ARC
  5
2C3
330
1F
100
AcDbEntity
  8
0
  6
CONTINUOUS
 62
     7
100
AcDbCircle
 10
72.9342212396
 20
260.6756502008
 30
0.0
 40
2.010000000000038
100
AcDbArc
 50
60.0
 51
120.0
  0
ARC
  5
2C4
330
1F
100
AcDbEntity
  8
0
  6
CONTINUOUS
 62
     7
100
AcDbCircle
 10
72.9342212396
 20
260.6756502008
 30
0.0
 40
2.010000000000031
100
AcDbArc
 50
0.0
 51
60.0
  0
ARC
  5
2C5
330
1F
100
AcDbEntity
  8
0
  6
CONTINUOUS
 62
     7
100
AcDbCircle
 10
69.9342212396
 20
-43.3243497992
 30
0.0
 40
6.000000000000007
100
AcDbArc
 50
180.0
 51
270.0
  0
LINE
  5
2C6
330
1F
100
AcDbEntity
  8
0
  6
CONTINUOUS
 62
     7
100
AcDbLine
 10
63.9342212396
 20
264.6756502008
 30
0.0
 11
63.9342212396
 21
-43.3243497992
 31
0.0
  0
ARC
  5
2C7
330
1F
100
AcDbEntity
  8
0
  6
CONTINUOUS
 62
     7
100
AcDbCircle
 10
69.9342212396
 20
264.6756502008
 30
0.0
 40
6.000000000000014
100
AcDbArc
 50
90.0
 51
180.0
  0
LINE
  5
2C8
330
1F
100
AcDbEntity
  8
0
  6
CONTINUOUS
 62
     7
100
AcDbLine
 10
75.9342212396
 20
270.6756502008
 30
0.0
 11
69.9342212396
 21
270.6756502008
 31
0.0
  0
ARC
  5
2C9
330
1F
100
AcDbEntity
  8
0
  6
CONTINUOUS
 62
     7
100
AcDbCircle
 10
75.9342212396
 20
264.6756502008
 30
0.0
 40
6.0
100
AcDbArc
 50
0.0
 51
90.0
  0
LINE
  5
2CA
330
1F
100
AcDbEntity
  8
0
  6
CONTINUOUS
 62
     7
100
AcDbLine
 10
81.9342212396
 20
-43.3243497992
 30
0.0
 11
81.9342212396
 21
264.6756502008
 31
0.0
  0
ARC
  5
2CB
330
1F
100
AcDbEntity
  8
0
  6
CONTINUOUS
 62
     7
100
AcDbCircle
 10
75.9342212396
 20
-43.3243497992
 30
0.0
 40
6.000000000000007
100
AcDbArc
 50
270.0
 51
0.0
  0
LINE
  5
2CC
330
1F
100
AcDbEntity
  8
0
  6
CONTINUOUS
 62
     7
100
AcDbLine
 10
69.9342212396
 20
-49.3243497992
 30
0.0
 11
75.9342212396
 21
-49.3243497992
 31
0.0
  0
CIRCLE
  5
2CD
330
1F
100
AcDbEntity
  8
0
  6
CONTINUOUS
 62
     7
100
AcDbCircle
 10
72.9342212396
 20
-39.3243497992
 30
0.0
 40
5.999999999999986
  0
CIRCLE
  5
2CE
330
1F
100
AcDbEntity
  8
0
  6
CONTINUOUS
 62
     7
100
AcDbCircle
 10
72.9342212396
 20
260.6756502008
 30
0.0
 40
5.999999999999986
  0
ENDSEC
  0
SECTION
  2
OBJECTS
  0
DICTIONARY
  5
C
330
0
100
AcDbDictionary
  3
ACAD_GROUP
350
D
  3
ACAD_MLINESTYLE
350
17
  3
ACAD_SCALELIST
350
47
  3
DWGPROPS
350
2CF
  0
DICTIONARY
  5
D
102
{ACAD_REACTORS
330
C
102
}
330
C
100
AcDbDictionary
  0
DICTIONARY
  5
17
102
{ACAD_REACTORS
330
C
102
}
330
C
100
AcDbDictionary
  3
STANDARD
350
18
  0
DICTIONARY
  5
47
102
{ACAD_REACTORS
330
C
102
}
330
C
100
AcDbDictionary
  0
XRECORD
  5
2CF
102
{ACAD_REACTORS
330
C
102
}
330
C
100
AcDbXrecord
  1
DWGPROPS COOKIE
  2

  3

  4

  6

  7

  8
Pedro.Queiros
  9

300
=
301
=
302
=
303
=
304
=
305
=
306
=
307
=
308
=
309
=
 40
0.0
 41
2459622.511217894
 42
2459622.511218403
  1

 90
        0
  0
MLINESTYLE
  5
18
102
{ACAD_REACTORS
330
17
102
}
330
17
100
AcDbMlineStyle
  2
Standard
 70
     0
  3

 62
   256
 51
90.0
 52
90.0
 71
     2
 49
0.5
 62
   256
  6
BYLAYER
 49
-0.5
 62
   256
  6
BYLAYER
  0
ENDSEC
  0
EOF
