  0
SECTION
  2
HEADER
  9
$ACADVER
  1
AC1014
  9
$ACADMAINTVER
 70
     9
  9
$DWGCODEPAGE
  3
ANSI_1252
  9
$INSBASE
 10
0.0
 20
0.0
 30
0.0
  9
$EXTMIN
 10
0.0
 20
0.0
 30
0.0
  9
$EXTMAX
 10
279.4
 20
215.9
 30
0.0
  9
$LIMMIN
 10
0.0
 20
0.0
  9
$LIMMAX
 10
279.4
 20
215.9
  9
$ORTHOMODE
 70
     0
  9
$REGENMODE
 70
     1
  9
$FILLMODE
 70
     1
  9
$QTEXTMODE
 70
     0
  9
$MIRRTEXT
 70
     1
  9
$DRAGMODE
 70
     2
  9
$LTSCALE
 40
1.0
  9
$OSMODE
 70
    37
  9
$ATTMODE
 70
     1
  9
$TEXTSIZE
 40
3.5
  9
$TRACEWID
 40
1.0
  9
$TEXTSTYLE
  7
STANDARD
  9
$CLAYER
  8
0
  9
$CELTYPE
  6
BYLAYER
  9
$CECOLOR
 62
   256
  9
$CELTSCALE
 40
1.0
  9
$DELOBJ
 70
     1
  9
$DISPSILH
 70
     0
  9
$DIMSCALE
 40
1.0
  9
$DIMASZ
 40
3.302
  9
$DIMEXO
 40
1.0
  9
$DIMDLI
 40
3.75
  9
$DIMRND
 40
0.0
  9
$DIMDLE
 40
0.0
  9
$DIMEXE
 40
1.0
  9
$DIMTP
 40
0.0
  9
$DIMTM
 40
0.0
  9
$DIMTXT
 40
3.5
  9
$DIMCEN
 40
2.5
  9
$DIMTSZ
 40
0.0
  9
$DIMTOL
 70
     0
  9
$DIMLIM
 70
     0
  9
$DIMTIH
 70
     1
  9
$DIMTOH
 70
     1
  9
$DIMSE1
 70
     0
  9
$DIMSE2
 70
     0
  9
$DIMTAD
 70
     1
  9
$DIMZIN
 70
     1
  9
$DIMBLK
  1

  9
$DIMASO
 70
     1
  9
$DIMSHO
 70
     1
  9
$DIMPOST
  1

  9
$DIMAPOST
  1

  9
$DIMALT
 70
     0
  9
$DIMALTD
 70
     3
  9
$DIMALTF
 40
0.0393700787
  9
$DIMLFAC
 40
5.0
  9
$DIMTOFL
 70
     1
  9
$DIMTVP
 40
0.0
  9
$DIMTIX
 70
     0
  9
$DIMSOXD
 70
     0
  9
$DIMSAH
 70
     0
  9
$DIMBLK1
  1

  9
$DIMBLK2
  1

  9
$DIMSTYLE
  2
ISO-25
  9
$DIMCLRD
 70
     0
  9
$DIMCLRE
 70
     0
  9
$DIMCLRT
 70
     0
  9
$DIMTFAC
 40
1.0
  9
$DIMGAP
 40
1.524
  9
$DIMJUST
 70
     0
  9
$DIMSD1
 70
     0
  9
$DIMSD2
 70
     0
  9
$DIMTOLJ
 70
     0
  9
$DIMTZIN
 70
     1
  9
$DIMALTZ
 70
     0
  9
$DIMALTTZ
 70
     0
  9
$DIMFIT
 70
     3
  9
$DIMUPT
 70
     0
  9
$DIMUNIT
 70
     2
  9
$DIMDEC
 70
     2
  9
$DIMTDEC
 70
     2
  9
$DIMALTU
 70
     2
  9
$DIMALTTD
 70
     3
  9
$DIMTXSTY
  7
STANDARD
  9
$DIMAUNIT
 70
     0
  9
$LUNITS
 70
     2
  9
$LUPREC
 70
     2
  9
$SKETCHINC
 40
1.0
  9
$FILLETRAD
 40
0.0
  9
$AUNITS
 70
     0
  9
$AUPREC
 70
     2
  9
$MENU
  1
.
  9
$ELEVATION
 40
0.0
  9
$PELEVATION
 40
0.0
  9
$THICKNESS
 40
0.0
  9
$LIMCHECK
 70
     0
  9
$CHAMFERA
 40
0.0
  9
$CHAMFERB
 40
0.0
  9
$CHAMFERC
 40
0.0
  9
$CHAMFERD
 40
0.0
  9
$SKPOLY
 70
     0
  9
$TDCREATE
 40
2459716.74043147
  9
$TDUPDATE
 40
2459716.74043213
  9
$TDINDWG
 40
0.0000000116
  9
$TDUSRTIMER
 40
0.0000000116
  9
$USRTIMER
 70
     1
  9
$ANGBASE
 50
0.0
  9
$ANGDIR
 70
     0
  9
$PDMODE
 70
     0
  9
$PDSIZE
 40
-1.0
  9
$PLINEWID
 40
0.0
  9
$COORDS
 70
     1
  9
$SPLFRAME
 70
     0
  9
$SPLINETYPE
 70
     6
  9
$SPLINESEGS
 70
     8
  9
$ATTDIA
 70
     0
  9
$ATTREQ
 70
     1
  9
$HANDLING
 70
     1
  9
$HANDSEED
  5
18B
  9
$SURFTAB1
 70
     6
  9
$SURFTAB2
 70
     6
  9
$SURFTYPE
 70
     6
  9
$SURFU
 70
     6
  9
$SURFV
 70
     6
  9
$UCSNAME
  2

  9
$UCSORG
 10
0.0
 20
0.0
 30
0.0
  9
$UCSXDIR
 10
1.0
 20
0.0
 30
0.0
  9
$UCSYDIR
 10
0.0
 20
1.0
 30
0.0
  9
$PUCSNAME
  2

  9
$PUCSORG
 10
0.0
 20
0.0
 30
0.0
  9
$PUCSXDIR
 10
1.0
 20
0.0
 30
0.0
  9
$PUCSYDIR
 10
0.0
 20
1.0
 30
0.0
  9
$USERI1
 70
     0
  9
$USERI2
 70
     0
  9
$USERI3
 70
     0
  9
$USERI4
 70
     0
  9
$USERI5
 70
     0
  9
$USERR1
 40
0.0
  9
$USERR2
 40
0.0
  9
$USERR3
 40
0.0
  9
$USERR4
 40
0.0
  9
$USERR5
 40
0.0
  9
$WORLDVIEW
 70
     1
  9
$SHADEDGE
 70
     3
  9
$SHADEDIF
 70
    70
  9
$TILEMODE
 70
     1
  9
$MAXACTVP
 70
    64
  9
$PINSBASE
 10
0.0
 20
0.0
 30
0.0
  9
$PLIMCHECK
 70
     0
  9
$PEXTMIN
 10
1.0000000000E+20
 20
1.0000000000E+20
 30
1.0000000000E+20
  9
$PEXTMAX
 10
-1.0000000000E+20
 20
-1.0000000000E+20
 30
-1.0000000000E+20
  9
$PLIMMIN
 10
0.0
 20
0.0
  9
$PLIMMAX
 10
420.0
 20
297.0
  9
$UNITMODE
 70
     0
  9
$VISRETAIN
 70
     1
  9
$PLINEGEN
 70
     0
  9
$PSLTSCALE
 70
     1
  9
$TREEDEPTH
 70
  3020
  9
$PICKSTYLE
 70
     1
  9
$CMLSTYLE
  2
STANDARD
  9
$CMLJUST
 70
     0
  9
$CMLSCALE
 40
20.0
  9
$PROXYGRAPHICS
 70
     1
  9
$MEASUREMENT
 70
     1
  0
ENDSEC
  0
SECTION
  2
CLASSES
  0
CLASS
  1
ACDBDICTIONARYWDFLT
  2
AcDbDictionaryWithDefault
  3
ObjectDBX Classes
 90
        0
280
     0
281
     0
  0
CLASS
  1
VISUALSTYLE
  2
AcDbVisualStyle
  3
ObjectDBX Classes
 90
     4095
280
     0
281
     0
  0
CLASS
  1
MATERIAL
  2
AcDbMaterial
  3
ObjectDBX Classes
 90
     1153
280
     0
281
     0
  0
CLASS
  1
SCALE
  2
AcDbScale
  3
ObjectDBX Classes
 90
     1153
280
     0
281
     0
  0
CLASS
  1
TABLESTYLE
  2
AcDbTableStyle
  3
ObjectDBX Classes
 90
     4095
280
     0
281
     0
  0
CLASS
  1
MLEADERSTYLE
  2
AcDbMLeaderStyle
  3
ACDB_MLEADERSTYLE_CLASS
 90
     4095
280
     0
281
     0
  0
CLASS
  1
SUN
  2
AcDbSun
  3
SCENEOE
 90
     1153
280
     0
281
     0
  0
CLASS
  1
XRECORD
  2
AcDbXrecord
  3
ObjectDBX Classes
 90
        0
280
     0
281
     0
  0
CLASS
  1
LWPOLYLINE
  2
AcDbPolyline
  3
ObjectDBX Classes
 90
        0
280
     0
281
     1
  0
CLASS
  1
HATCH
  2
AcDbHatch
  3
ObjectDBX Classes
 90
        0
280
     0
281
     1
  0
ENDSEC
  0
SECTION
  2
TABLES
  0
TABLE
  2
VPORT
  5
8
330
0
100
AcDbSymbolTable
 70
     1
  0
VPORT
  5
29
330
8
100
AcDbSymbolTableRecord
100
AcDbViewportTableRecord
  2
*ACTIVE
 70
     0
 10
0.0
 20
0.0
 11
1.0
 21
1.0
 12
139.7
 22
107.95
 13
0.0
 23
0.0
 14
10.0
 24
10.0
 15
10.0
 25
10.0
 16
0.0
 26
0.0
 36
1.0
 17
0.0
 27
0.0
 37
0.0
 40
215.9
 41
1.2941176471
 42
50.0
 43
0.0
 44
0.0
 50
0.0
 51
0.0
 71
     0
 72
  2000
 73
     1
 74
     3
 75
     0
 76
     0
 77
     0
 78
     0
  0
ENDTAB
  0
TABLE
  2
LTYPE
  5
5
330
0
100
AcDbSymbolTable
 70
     6
  0
LTYPE
  5
14
330
5
100
AcDbSymbolTableRecord
100
AcDbLinetypeTableRecord
  2
BYBLOCK
 70
     0
  3

 72
    65
 73
     0
 40
0.0
  0
LTYPE
  5
15
330
5
100
AcDbSymbolTableRecord
100
AcDbLinetypeTableRecord
  2
BYLAYER
 70
     0
  3

 72
    65
 73
     0
 40
0.0
  0
LTYPE
  5
16
330
5
100
AcDbSymbolTableRecord
100
AcDbLinetypeTableRecord
  2
CONTINUOUS
 70
     0
  3
Solid line
 72
    65
 73
     0
 40
0.0
  0
LTYPE
  5
5E
330
5
100
AcDbSymbolTableRecord
100
AcDbLinetypeTableRecord
  2
HIDDEN
 70
     0
  3
Hidden __ __ __ __ __ __ __ __ __ __ __ __ __ __
 72
    65
 73
     2
 40
1.905
 49
1.27
 74
     0
 49
-0.635
 74
     0
  0
LTYPE
  5
5F
330
5
100
AcDbSymbolTableRecord
100
AcDbLinetypeTableRecord
  2
PHANTOM
 70
     0
  3
Phantom ______  __  __  ______  __  __  ______
 72
    65
 73
     6
 40
12.7
 49
6.35
 74
     0
 49
-1.27
 74
     0
 49
1.27
 74
     0
 49
-1.27
 74
     0
 49
1.27
 74
     0
 49
-1.27
 74
     0
  0
LTYPE
  5
60
330
5
100
AcDbSymbolTableRecord
100
AcDbLinetypeTableRecord
  2
CENTER
 70
     0
  3
Center ____ _ ____ _ ____ _ ____ _ ____ _ ____
 72
    65
 73
     4
 40
10.16
 49
6.35
 74
     0
 49
-1.27
 74
     0
 49
1.27
 74
     0
 49
-1.27
 74
     0
  0
LTYPE
  5
61
330
5
100
AcDbSymbolTableRecord
100
AcDbLinetypeTableRecord
  2
CENTERX2
 70
     0
  3
Center (2x) ________  __  ________  __  _____
 72
    65
 73
     4
 40
20.32
 49
12.7
 74
     0
 49
-2.54
 74
     0
 49
2.54
 74
     0
 49
-2.54
 74
     0
  0
LTYPE
  5
62
330
5
100
AcDbSymbolTableRecord
100
AcDbLinetypeTableRecord
  2
DOT2
 70
     0
  3
Dot (.5x) ........................................
 72
    65
 73
     2
 40
0.635
 49
0.0
 74
     0
 49
-0.635
 74
     0
  0
ENDTAB
  0
TABLE
  2
LAYER
  5
2
330
0
100
AcDbSymbolTable
 70
     1
  0
LAYER
  5
10
330
2
100
AcDbSymbolTableRecord
100
AcDbLayerTableRecord
  2
0
 70
     0
 62
     7
  6
CONTINUOUS
  0
ENDTAB
  0
TABLE
  2
STYLE
  5
3
330
0
100
AcDbSymbolTable
 70
     1
  0
STYLE
  5
11
330
3
100
AcDbSymbolTableRecord
100
AcDbTextStyleTableRecord
  2
STANDARD
 70
     0
 40
0.0
 41
1.0
 50
0.0
 71
     0
 42
3.5
  3
GOTHIC.TTF
  4

1001
ACAD
1000
CENTURY GOTHIC
1071
       34
  0
ENDTAB
  0
TABLE
  2
VIEW
  5
6
330
0
100
AcDbSymbolTable
 70
     0
  0
ENDTAB
  0
TABLE
  2
UCS
  5
7
330
0
100
AcDbSymbolTable
 70
     0
  0
ENDTAB
  0
TABLE
  2
APPID
  5
9
330
0
100
AcDbSymbolTable
 70
     1
  0
APPID
  5
12
330
9
100
AcDbSymbolTableRecord
100
AcDbRegAppTableRecord
  2
ACAD
 70
     0
  0
ENDTAB
  0
TABLE
  2
DIMSTYLE
  5
A
330
0
100
AcDbSymbolTable
 70
     1
  0
DIMSTYLE
105
27
330
A
100
AcDbSymbolTableRecord
100
AcDbDimStyleTableRecord
  2
ISO-25
 70
     0
  3

  4

  5

  6

  7

 40
1.0
 41
2.5
 42
0.625
 43
3.75
 44
1.25
 45
0.0
 46
0.0
 47
0.0
 48
0.0
140
2.5
141
2.5
142
0.0
143
0.0393700787
144
1.0
145
0.0
146
1.0
147
0.625
 71
     0
 72
     0
 73
     0
 74
     0
 75
     0
 76
     0
 77
     1
 78
     8
170
     0
171
     3
172
     1
173
     0
174
     0
175
     0
176
     0
177
     0
178
     0
270
     2
271
     2
272
     2
273
     2
274
     3
340
11
275
     0
280
     0
281
     0
282
     0
283
     0
284
     8
285
     0
286
     0
287
     3
288
     0
  0
ENDTAB
  0
TABLE
  2
BLOCK_RECORD
  5
1
330
0
100
AcDbSymbolTable
 70
     1
  0
BLOCK_RECORD
  5
1F
330
1
100
AcDbSymbolTableRecord
100
AcDbBlockTableRecord
  2
*MODEL_SPACE
  0
BLOCK_RECORD
  5
1B
330
1
100
AcDbSymbolTableRecord
100
AcDbBlockTableRecord
  2
*PAPER_SPACE
  0
BLOCK_RECORD
  5
23
330
1
100
AcDbSymbolTableRecord
100
AcDbBlockTableRecord
  2
*PAPER_SPACE0
  0
ENDTAB
  0
ENDSEC
  0
SECTION
  2
BLOCKS
  0
BLOCK
  5
20
330
1F
100
AcDbEntity
  8
0
100
AcDbBlockBegin
  2
*MODEL_SPACE
 70
     0
 10
0.0
 20
0.0
 30
0.0
  3
*MODEL_SPACE
  1

  0
ENDBLK
  5
21
330
1F
100
AcDbEntity
  8
0
100
AcDbBlockEnd
  0
BLOCK
  5
1C
330
1B
100
AcDbEntity
 67
     1
  8
0
100
AcDbBlockBegin
  2
*PAPER_SPACE
 70
     0
 10
0.0
 20
0.0
 30
0.0
  3
*PAPER_SPACE
  1

  0
ENDBLK
  5
1D
330
1B
100
AcDbEntity
 67
     1
  8
0
100
AcDbBlockEnd
  0
BLOCK
  5
24
330
23
100
AcDbEntity
  8
0
100
AcDbBlockBegin
  2
*PAPER_SPACE0
 70
     0
 10
0.0
 20
0.0
 30
0.0
  3
*PAPER_SPACE0
  1

  0
ENDBLK
  5
25
330
23
100
AcDbEntity
  8
0
100
AcDbBlockEnd
  0
ENDSEC
  0
SECTION
  2
ENTITIES
  0
LINE
  5
63
330
1F
100
AcDbEntity
  8
0
  6
CONTINUOUS
 62
     7
100
AcDbLine
 10
120.2891871803
 20
108.2237999951
 30
0.0
 11
120.3396626442
 21
108.2237999951
 31
0.0
  0
LINE
  5
64
330
1F
100
AcDbEntity
  8
0
  6
CONTINUOUS
 62
     7
100
AcDbLine
 10
120.2891871803
 20
108.2237999951
 30
0.0
 11
120.2891871803
 21
108.3247509231
 31
0.0
  0
LINE
  5
65
330
1F
100
AcDbEntity
  8
0
  6
CONTINUOUS
 62
     7
100
AcDbLine
 10
113.4734549729
 20
73.1661518785
 30
0.0
 11
113.4734549729
 21
73.2166273425
 31
0.0
  0
LINE
  5
66
330
1F
100
AcDbEntity
  8
0
  6
CONTINUOUS
 62
     7
100
AcDbLine
 10
113.4734549729
 20
73.1661518785
 30
0.0
 11
113.5744059009
 21
73.1661518785
 31
0.0
  0
LINE
  5
67
330
1F
100
AcDbEntity
  8
0
  6
CONTINUOUS
 62
     7
100
AcDbLine
 10
116.3734549729
 20
173.1661518785
 30
0.0
 11
116.3734549729
 21
173.1156764145
 31
0.0
  0
LINE
  5
68
330
1F
100
AcDbEntity
  8
0
  6
CONTINUOUS
 62
     7
100
AcDbLine
 10
116.3734549729
 20
173.1661518785
 30
0.0
 11
116.272504045
 21
173.1661518785
 31
0.0
  0
LINE
  5
69
330
1F
100
AcDbEntity
  8
0
  6
CONTINUOUS
 62
     7
100
AcDbLine
 10
105.8734549729
 20
173.1661518785
 30
0.0
 11
105.8734549729
 21
173.2166273425
 31
0.0
  0
LINE
  5
6A
330
1F
100
AcDbEntity
  8
0
  6
CONTINUOUS
 62
     7
100
AcDbLine
 10
105.8734549729
 20
173.1661518785
 30
0.0
 11
105.772504045
 21
173.1661518785
 31
0.0
  0
LINE
  5
6B
330
1F
100
AcDbEntity
  8
0
  6
CONTINUOUS
 62
     7
100
AcDbLine
 10
105.8734549729
 20
173.1661518785
 30
0.0
 11
105.9239304369
 21
173.1661518785
 31
0.0
  0
LINE
  5
6C
330
1F
100
AcDbEntity
  8
0
  6
CONTINUOUS
 62
     7
100
AcDbLine
 10
105.8734549729
 20
173.1661518785
 30
0.0
 11
105.8734549729
 21
173.2671028065
 31
0.0
  0
LINE
  5
6D
330
1F
100
AcDbEntity
  8
0
  6
CONTINUOUS
 62
     7
100
AcDbLine
 10
105.8734549729
 20
123.1661518785
 30
0.0
 11
105.9239304369
 21
123.1661518785
 31
0.0
  0
LINE
  5
6E
330
1F
100
AcDbEntity
  8
0
  6
CONTINUOUS
 62
     7
100
AcDbLine
 10
105.8734549729
 20
123.1661518785
 30
0.0
 11
105.8734549729
 21
123.2671028065
 31
0.0
  0
LINE
  5
6F
330
1F
100
AcDbEntity
  8
0
  6
CONTINUOUS
 62
     7
100
AcDbLine
 10
105.8734549729
 20
73.1661518785
 30
0.0
 11
105.9239304369
 21
73.1661518785
 31
0.0
  0
LINE
  5
70
330
1F
100
AcDbEntity
  8
0
  6
CONTINUOUS
 62
     7
100
AcDbLine
 10
105.8734549729
 20
73.1661518785
 30
0.0
 11
105.8734549729
 21
73.2671028065
 31
0.0
  0
LINE
  5
71
330
1F
100
AcDbEntity
  8
0
  6
CONTINUOUS
 62
     7
100
AcDbLine
 10
105.8734549729
 20
73.1661518785
 30
0.0
 11
105.8734549729
 21
73.2166273425
 31
0.0
  0
LINE
  5
72
330
1F
100
AcDbEntity
  8
0
  6
CONTINUOUS
 62
     7
100
AcDbLine
 10
105.8734549729
 20
73.1661518785
 30
0.0
 11
105.772504045
 21
73.1661518785
 31
0.0
  0
LINE
  5
73
330
1F
100
AcDbEntity
  8
0
  6
CONTINUOUS
 62
     7
100
AcDbLine
 10
105.8734549729
 20
173.1661518785
 30
0.0
 11
105.8734549729
 21
173.2166273425
 31
0.0
  0
LINE
  5
74
330
1F
100
AcDbEntity
  8
0
  6
CONTINUOUS
 62
     7
100
AcDbLine
 10
105.8734549729
 20
173.1661518785
 30
0.0
 11
105.772504045
 21
173.1661518785
 31
0.0
  0
LINE
  5
75
330
1F
100
AcDbEntity
  8
0
  6
CONTINUOUS
 62
     7
100
AcDbLine
 10
105.8734549729
 20
73.1661518785
 30
0.0
 11
105.8734549729
 21
73.2166273425
 31
0.0
  0
LINE
  5
76
330
1F
100
AcDbEntity
  8
0
  6
CONTINUOUS
 62
     7
100
AcDbLine
 10
105.8734549729
 20
73.1661518785
 30
0.0
 11
105.772504045
 21
73.1661518785
 31
0.0
  0
POINT
  5
77
330
1F
100
AcDbEntity
  8
0
  6
CONTINUOUS
 62
     7
100
AcDbPoint
 10
120.2891871803
 20
108.2237999951
 30
0.0
  0
POINT
  5
78
330
1F
100
AcDbEntity
  8
0
  6
CONTINUOUS
 62
     7
100
AcDbPoint
 10
113.4734549729
 20
73.1661518785
 30
0.0
  0
POINT
  5
79
330
1F
100
AcDbEntity
  8
0
  6
CONTINUOUS
 62
     7
100
AcDbPoint
 10
116.3734549729
 20
173.1661518785
 30
0.0
  0
POINT
  5
7A
330
1F
100
AcDbEntity
  8
0
  6
CONTINUOUS
 62
     7
100
AcDbPoint
 10
105.8734549729
 20
173.1661518785
 30
0.0
  0
POINT
  5
7B
330
1F
100
AcDbEntity
  8
0
  6
CONTINUOUS
 62
     7
100
AcDbPoint
 10
105.8734549729
 20
173.1661518785
 30
0.0
  0
POINT
  5
7C
330
1F
100
AcDbEntity
  8
0
  6
CONTINUOUS
 62
     7
100
AcDbPoint
 10
105.8734549729
 20
123.1661518785
 30
0.0
  0
POINT
  5
7D
330
1F
100
AcDbEntity
  8
0
  6
CONTINUOUS
 62
     7
100
AcDbPoint
 10
105.8734549729
 20
73.1661518785
 30
0.0
  0
POINT
  5
7E
330
1F
100
AcDbEntity
  8
0
  6
CONTINUOUS
 62
     7
100
AcDbPoint
 10
105.8734549729
 20
73.1661518785
 30
0.0
  0
POINT
  5
7F
330
1F
100
AcDbEntity
  8
0
  6
CONTINUOUS
 62
     7
100
AcDbPoint
 10
105.8734549729
 20
173.1661518785
 30
0.0
  0
POINT
  5
80
330
1F
100
AcDbEntity
  8
0
  6
CONTINUOUS
 62
     7
100
AcDbPoint
 10
105.8734549729
 20
73.1661518785
 30
0.0
  0
LINE
  5
81
330
1F
100
AcDbEntity
  8
0
  6
CONTINUOUS
 62
     7
100
AcDbLine
 10
195.8734549729
 20
27.8732586597
 30
0.0
 11
15.8734549729
 21
27.8732586597
 31
0.0
  0
LINE
  5
82
330
1F
100
AcDbEntity
  8
0
  6
CONTINUOUS
 62
     7
100
AcDbLine
 10
15.8734549729
 20
27.8732586597
 30
0.0
 11
15.8734549729
 21
28.5803654409
 31
0.0
  0
LINE
  5
83
330
1F
100
AcDbEntity
  8
0
  6
CONTINUOUS
 62
     7
100
AcDbLine
 10
15.8734549729
 20
28.5803654409
 30
0.0
 11
195.8734549729
 21
28.5803654409
 31
0.0
  0
LINE
  5
84
330
1F
100
AcDbEntity
  8
0
  6
CONTINUOUS
 62
     7
100
AcDbLine
 10
195.8734549729
 20
27.8732586597
 30
0.0
 11
195.8734549729
 21
28.5803654409
 31
0.0
  0
ARC
  5
85
330
1F
100
AcDbEntity
  8
0
  6
CONTINUOUS
 62
     7
100
AcDbCircle
 10
15.8734549729
 20
33.1661518785
 30
0.0
 40
5.292893218813379
100
AcDbArc
 50
180.0
 51
270.0
  0
LINE
  5
86
330
1F
100
AcDbEntity
  8
0
  6
CONTINUOUS
 62
     7
100
AcDbLine
 10
10.5805617541
 20
33.1661518785
 30
0.0
 11
11.2876685353
 21
33.1661518785
 31
0.0
  0
ARC
  5
87
330
1F
100
AcDbEntity
  8
0
  6
CONTINUOUS
 62
     7
100
AcDbCircle
 10
15.8734549729
 20
33.1661518785
 30
0.0
 40
4.58578643762686
100
AcDbArc
 50
180.0
 51
270.0
  0
ARC
  5
88
330
1F
100
AcDbEntity
  8
0
  6
CONTINUOUS
 62
     7
100
AcDbCircle
 10
15.8734549729
 20
213.1661518785
 30
0.0
 40
4.585786437626837
100
AcDbArc
 50
90.0
 51
180.0
  0
LINE
  5
89
330
1F
100
AcDbEntity
  8
0
  6
CONTINUOUS
 62
     7
100
AcDbLine
 10
10.5805617541
 20
213.1661518785
 30
0.0
 11
11.2876685353
 21
213.1661518785
 31
0.0
  0
ARC
  5
8A
330
1F
100
AcDbEntity
  8
0
  6
CONTINUOUS
 62
     7
100
AcDbCircle
 10
15.8734549729
 20
213.1661518785
 30
0.0
 40
5.29289321881339
100
AcDbArc
 50
90.0
 51
180.0
  0
LINE
  5
8B
330
1F
100
AcDbEntity
  8
0
  6
CONTINUOUS
 62
     7
100
AcDbLine
 10
15.8734549729
 20
217.7519383161
 30
0.0
 11
15.8734549729
 21
218.4590450973
 31
0.0
  0
LINE
  5
8C
330
1F
100
AcDbEntity
  8
0
  6
CONTINUOUS
 62
     7
100
AcDbLine
 10
10.5805617541
 20
33.1661518785
 30
0.0
 11
10.5805617541
 21
213.1661518785
 31
0.0
  0
LINE
  5
8D
330
1F
100
AcDbEntity
  8
0
  6
CONTINUOUS
 62
     7
100
AcDbLine
 10
11.2876685353
 20
213.1661518785
 30
0.0
 11
11.2876685353
 21
33.1661518785
 31
0.0
  0
ARC
  5
8E
330
1F
100
AcDbEntity
  8
0
  6
CONTINUOUS
 62
     7
100
AcDbCircle
 10
195.8734549729
 20
213.1661518785
 30
0.0
 40
4.585786437626865
100
AcDbArc
 50
0.0
 51
90.0
  0
LINE
  5
8F
330
1F
100
AcDbEntity
  8
0
  6
CONTINUOUS
 62
     7
100
AcDbLine
 10
200.4592414105
 20
33.1661518785
 30
0.0
 11
200.4592414105
 21
213.1661518785
 31
0.0
  0
ARC
  5
90
330
1F
100
AcDbEntity
  8
0
  6
CONTINUOUS
 62
     7
100
AcDbCircle
 10
195.8734549729
 20
33.1661518785
 30
0.0
 40
4.585786437626858
100
AcDbArc
 50
270.0
 51
0.0
  0
LINE
  5
91
330
1F
100
AcDbEntity
  8
0
  6
CONTINUOUS
 62
     7
100
AcDbLine
 10
195.8734549729
 20
217.7519383161
 30
0.0
 11
15.8734549729
 21
217.7519383161
 31
0.0
  0
LINE
  5
92
330
1F
100
AcDbEntity
  8
0
  6
CONTINUOUS
 62
     7
100
AcDbLine
 10
200.4592414105
 20
33.1661518785
 30
0.0
 11
201.1663481917
 21
33.1661518785
 31
0.0
  0
ARC
  5
93
330
1F
100
AcDbEntity
  8
0
  6
CONTINUOUS
 62
     7
100
AcDbCircle
 10
195.8734549729
 20
33.1661518785
 30
0.0
 40
5.292893218813401
100
AcDbArc
 50
270.0
 51
0.0
  0
LINE
  5
94
330
1F
100
AcDbEntity
  8
0
  6
CONTINUOUS
 62
     7
100
AcDbLine
 10
200.4592414105
 20
213.1661518785
 30
0.0
 11
201.1663481917
 21
213.1661518785
 31
0.0
  0
LINE
  5
95
330
1F
100
AcDbEntity
  8
0
  6
CONTINUOUS
 62
     7
100
AcDbLine
 10
201.1663481917
 20
213.1661518785
 30
0.0
 11
201.1663481917
 21
33.1661518785
 31
0.0
  0
LINE
  5
96
330
1F
100
AcDbEntity
  8
0
  6
CONTINUOUS
 62
     7
100
AcDbLine
 10
195.8734549729
 20
217.7519383161
 30
0.0
 11
195.8734549729
 21
218.4590450973
 31
0.0
  0
ARC
  5
97
330
1F
100
AcDbEntity
  8
0
  6
CONTINUOUS
 62
     7
100
AcDbCircle
 10
195.8734549729
 20
213.1661518785
 30
0.0
 40
5.292893218813418
100
AcDbArc
 50
0.0
 51
90.0
  0
LINE
  5
98
330
1F
100
AcDbEntity
  8
0
  6
CONTINUOUS
 62
     7
100
AcDbLine
 10
15.8734549729
 20
218.4590450973
 30
0.0
 11
195.8734549729
 21
218.4590450973
 31
0.0
  0
LINE
  5
99
330
1F
100
AcDbEntity
  8
0
  6
CONTINUOUS
 62
     7
100
AcDbLine
 10
10.5805617541
 20
213.1661518785
 30
0.0
 11
6.1663481917
 21
213.1661518785
 31
0.0
  0
ARC
  5
9A
330
1F
100
AcDbEntity
  8
0
  6
CONTINUOUS
 62
     7
100
AcDbCircle
 10
15.8734549729
 20
213.1661518785
 30
0.0
 40
9.707106781186553
100
AcDbArc
 50
90.0
 51
180.0
  0
LINE
  5
9B
330
1F
100
AcDbEntity
  8
0
  6
CONTINUOUS
 62
     7
100
AcDbLine
 10
15.8734549729
 20
218.4590450973
 30
0.0
 11
15.8734549729
 21
222.8732586597
 31
0.0
  0
LINE
  5
9C
330
1F
100
AcDbEntity
  8
0
  6
CONTINUOUS
 62
     7
100
AcDbLine
 10
195.8734549729
 20
222.8732586597
 30
0.0
 11
15.8734549729
 21
222.8732586597
 31
0.0
  0
LINE
  5
9D
330
1F
100
AcDbEntity
  8
0
  6
CONTINUOUS
 62
     7
100
AcDbLine
 10
195.8734549729
 20
218.4590450973
 30
0.0
 11
195.8734549729
 21
222.8732586597
 31
0.0
  0
LINE
  5
9E
330
1F
100
AcDbEntity
  8
0
  6
CONTINUOUS
 62
     7
100
AcDbLine
 10
10.5805617541
 20
33.1661518785
 30
0.0
 11
6.1663481917
 21
33.1661518785
 31
0.0
  0
LINE
  5
9F
330
1F
100
AcDbEntity
  8
0
  6
CONTINUOUS
 62
     7
100
AcDbLine
 10
6.1663481917
 20
213.1661518785
 30
0.0
 11
6.1663481917
 21
33.1661518785
 31
0.0
  0
LINE
  5
A0
330
1F
100
AcDbEntity
  8
0
  6
CONTINUOUS
 62
     7
100
AcDbLine
 10
15.8734549729
 20
23.4590450973
 30
0.0
 11
15.8734549729
 21
27.8732586597
 31
0.0
  0
ARC
  5
A1
330
1F
100
AcDbEntity
  8
0
  6
CONTINUOUS
 62
     7
100
AcDbCircle
 10
15.8734549729
 20
33.1661518785
 30
0.0
 40
9.707106781186553
100
AcDbArc
 50
180.0
 51
270.0
  0
LINE
  5
A2
330
1F
100
AcDbEntity
  8
0
  6
CONTINUOUS
 62
     7
100
AcDbLine
 10
205.5805617541
 20
213.1661518785
 30
0.0
 11
201.1663481917
 21
213.1661518785
 31
0.0
  0
LINE
  5
A3
330
1F
100
AcDbEntity
  8
0
  6
CONTINUOUS
 62
     7
100
AcDbLine
 10
205.5805617541
 20
33.1661518785
 30
0.0
 11
205.5805617541
 21
213.1661518785
 31
0.0
  0
LINE
  5
A4
330
1F
100
AcDbEntity
  8
0
  6
CONTINUOUS
 62
     7
100
AcDbLine
 10
205.5805617541
 20
33.1661518785
 30
0.0
 11
201.1663481917
 21
33.1661518785
 31
0.0
  0
ARC
  5
A5
330
1F
100
AcDbEntity
  8
0
  6
CONTINUOUS
 62
     7
100
AcDbCircle
 10
195.8734549729
 20
33.1661518785
 30
0.0
 40
9.70710678118655
100
AcDbArc
 50
270.0
 51
0.0
  0
LINE
  5
A6
330
1F
100
AcDbEntity
  8
0
  6
CONTINUOUS
 62
     7
100
AcDbLine
 10
195.8734549729
 20
23.4590450973
 30
0.0
 11
195.8734549729
 21
27.8732586597
 31
0.0
  0
LINE
  5
A7
330
1F
100
AcDbEntity
  8
0
  6
CONTINUOUS
 62
     7
100
AcDbLine
 10
15.8734549729
 20
23.4590450973
 30
0.0
 11
195.8734549729
 21
23.4590450973
 31
0.0
  0
ARC
  5
A8
330
1F
100
AcDbEntity
  8
0
  6
CONTINUOUS
 62
     7
100
AcDbCircle
 10
195.8734549729
 20
213.1661518785
 30
0.0
 40
9.707106781186553
100
AcDbArc
 50
0.0
 51
90.0
  0
ARC
  5
A9
330
1F
100
AcDbEntity
  8
0
  6
CONTINUOUS
 62
     7
100
AcDbCircle
 10
15.8734549729
 20
33.1661518785
 30
0.0
 40
10.00000000000001
100
AcDbArc
 50
180.0
 51
270.0
  0
LINE
  5
AA
330
1F
100
AcDbEntity
  8
0
  6
CONTINUOUS
 62
     7
100
AcDbLine
 10
6.1663481917
 20
33.1661518785
 30
0.0
 11
5.8734549729
 21
33.1661518785
 31
0.0
  0
LINE
  5
AB
330
1F
100
AcDbEntity
  8
0
  6
CONTINUOUS
 62
     7
100
AcDbLine
 10
15.8734549729
 20
23.1661518785
 30
0.0
 11
15.8734549729
 21
23.4590450973
 31
0.0
  0
ARC
  5
AC
330
1F
100
AcDbEntity
  8
0
  6
CONTINUOUS
 62
     7
100
AcDbCircle
 10
195.8734549729
 20
33.1661518785
 30
0.0
 40
10.00000000000001
100
AcDbArc
 50
270.0
 51
0.0
  0
LINE
  5
AD
330
1F
100
AcDbEntity
  8
0
  6
CONTINUOUS
 62
     7
100
AcDbLine
 10
195.8734549729
 20
23.1661518785
 30
0.0
 11
195.8734549729
 21
23.4590450973
 31
0.0
  0
LINE
  5
AE
330
1F
100
AcDbEntity
  8
0
  6
CONTINUOUS
 62
     7
100
AcDbLine
 10
205.8734549729
 20
33.1661518785
 30
0.0
 11
205.5805617541
 21
33.1661518785
 31
0.0
  0
LINE
  5
AF
330
1F
100
AcDbEntity
  8
0
  6
CONTINUOUS
 62
     7
100
AcDbLine
 10
5.8734549729
 20
33.1661518785
 30
0.0
 11
5.8734549729
 21
213.1661518785
 31
0.0
  0
LINE
  5
B0
330
1F
100
AcDbEntity
  8
0
  6
CONTINUOUS
 62
     7
100
AcDbLine
 10
6.1663481917
 20
213.1661518785
 30
0.0
 11
5.8734549729
 21
213.1661518785
 31
0.0
  0
ARC
  5
B1
330
1F
100
AcDbEntity
  8
0
  6
CONTINUOUS
 62
     7
100
AcDbCircle
 10
15.8734549729
 20
213.1661518785
 30
0.0
 40
10.00000000000003
100
AcDbArc
 50
90.0
 51
180.0
  0
LINE
  5
B2
330
1F
100
AcDbEntity
  8
0
  6
CONTINUOUS
 62
     7
100
AcDbLine
 10
15.8734549729
 20
222.8732586597
 30
0.0
 11
15.8734549729
 21
223.1661518785
 31
0.0
  0
LINE
  5
B3
330
1F
100
AcDbEntity
  8
0
  6
CONTINUOUS
 62
     7
100
AcDbLine
 10
15.8734549729
 20
223.1661518785
 30
0.0
 11
195.8734549729
 21
223.1661518785
 31
0.0
  0
LINE
  5
B4
330
1F
100
AcDbEntity
  8
0
  6
CONTINUOUS
 62
     7
100
AcDbLine
 10
195.8734549729
 20
222.8732586597
 30
0.0
 11
195.8734549729
 21
223.1661518785
 31
0.0
  0
LINE
  5
B5
330
1F
100
AcDbEntity
  8
0
  6
CONTINUOUS
 62
     7
100
AcDbLine
 10
205.8734549729
 20
213.1661518785
 30
0.0
 11
205.8734549729
 21
33.1661518785
 31
0.0
  0
LINE
  5
B6
330
1F
100
AcDbEntity
  8
0
  6
CONTINUOUS
 62
     7
100
AcDbLine
 10
205.8734549729
 20
213.1661518785
 30
0.0
 11
205.5805617541
 21
213.1661518785
 31
0.0
  0
LINE
  5
B7
330
1F
100
AcDbEntity
  8
0
  6
CONTINUOUS
 62
     7
100
AcDbLine
 10
195.8734549729
 20
23.1661518785
 30
0.0
 11
15.8734549729
 21
23.1661518785
 31
0.0
  0
ARC
  5
B8
330
1F
100
AcDbEntity
  8
0
  6
CONTINUOUS
 62
     7
100
AcDbCircle
 10
195.8734549729
 20
213.1661518785
 30
0.0
 40
10.00000000000003
100
AcDbArc
 50
0.0
 51
90.0
  0
LINE
  5
B9
330
1F
100
AcDbEntity
  8
0
  6
CONTINUOUS
 62
     7
100
AcDbLine
 10
286.9821891503
 20
73.1661518785
 30
0.0
 11
286.9821891503
 21
73.2166273425
 31
0.0
  0
LINE
  5
BA
330
1F
100
AcDbEntity
  8
0
  6
CONTINUOUS
 62
     7
100
AcDbLine
 10
286.9821891503
 20
73.1661518785
 30
0.0
 11
286.8812382223
 21
73.1661518785
 31
0.0
  0
LINE
  5
BB
330
1F
100
AcDbEntity
  8
0
  6
CONTINUOUS
 62
     7
100
AcDbLine
 10
284.0821891503
 20
173.1661518785
 30
0.0
 11
284.0821891503
 21
173.1156764145
 31
0.0
  0
LINE
  5
BC
330
1F
100
AcDbEntity
  8
0
  6
CONTINUOUS
 62
     7
100
AcDbLine
 10
284.0821891503
 20
173.1661518785
 30
0.0
 11
284.1831400783
 21
173.1661518785
 31
0.0
  0
POINT
  5
BD
330
1F
100
AcDbEntity
  8
0
  6
CONTINUOUS
 62
     7
100
AcDbPoint
 10
286.9821891503
 20
73.1661518785
 30
0.0
  0
POINT
  5
BE
330
1F
100
AcDbEntity
  8
0
  6
CONTINUOUS
 62
     7
100
AcDbPoint
 10
284.0821891503
 20
173.1661518785
 30
0.0
  0
LINE
  5
BF
330
1F
100
AcDbEntity
  8
0
  6
CONTINUOUS
 62
     7
100
AcDbLine
 10
281.0821891503
 20
184.1661518785
 30
0.0
 11
279.5821891503
 21
184.1661518785
 31
0.0
  0
LINE
  5
C0
330
1F
100
AcDbEntity
  8
0
  6
CONTINUOUS
 62
     7
100
AcDbLine
 10
281.0821891503
 20
162.1661518785
 30
0.0
 11
281.0821891503
 21
184.1661518785
 31
0.0
  0
LINE
  5
C1
330
1F
100
AcDbEntity
  8
0
  6
CONTINUOUS
 62
     7
100
AcDbLine
 10
279.5821891503
 20
162.1661518785
 30
0.0
 11
281.0821891503
 21
162.1661518785
 31
0.0
  0
LINE
  5
C2
330
1F
100
AcDbEntity
  8
0
  6
CONTINUOUS
 62
     7
100
AcDbLine
 10
279.5821891503
 20
162.1661518785
 30
0.0
 11
279.5821891503
 21
184.1661518785
 31
0.0
  0
LINE
  5
C3
330
1F
100
AcDbEntity
  8
0
  6
CONTINUOUS
 62
     7
100
AcDbLine
 10
279.5821891503
 20
189.1661518785
 30
0.0
 11
281.0821891503
 21
189.1661518785
 31
0.0
  0
LINE
  5
C4
330
1F
100
AcDbEntity
  8
0
  6
CONTINUOUS
 62
     7
100
AcDbLine
 10
281.0821891503
 20
189.1661518785
 30
0.0
 11
281.0821891503
 21
184.1661518785
 31
0.0
  0
LINE
  5
C5
330
1F
100
AcDbEntity
  8
0
  6
CONTINUOUS
 62
     7
100
AcDbLine
 10
279.5821891503
 20
184.1661518785
 30
0.0
 11
279.5821891503
 21
189.1661518785
 31
0.0
  0
LINE
  5
C6
330
1F
100
AcDbEntity
  8
0
  6
CONTINUOUS
 62
     7
100
AcDbLine
 10
281.0821891503
 20
162.1661518785
 30
0.0
 11
281.0821891503
 21
157.1661518785
 31
0.0
  0
LINE
  5
C7
330
1F
100
AcDbEntity
  8
0
  6
CONTINUOUS
 62
     7
100
AcDbLine
 10
281.0821891503
 20
157.1661518785
 30
0.0
 11
279.5821891503
 21
157.1661518785
 31
0.0
  0
LINE
  5
C8
330
1F
100
AcDbEntity
  8
0
  6
CONTINUOUS
 62
     7
100
AcDbLine
 10
279.5821891503
 20
157.1661518785
 30
0.0
 11
279.5821891503
 21
162.1661518785
 31
0.0
  0
LINE
  5
C9
330
1F
100
AcDbEntity
  8
0
  6
CONTINUOUS
 62
     7
100
AcDbLine
 10
281.0821891503
 20
84.1661518785
 30
0.0
 11
279.5821891503
 21
84.1661518785
 31
0.0
  0
LINE
  5
CA
330
1F
100
AcDbEntity
  8
0
  6
CONTINUOUS
 62
     7
100
AcDbLine
 10
281.0821891503
 20
62.1661518785
 30
0.0
 11
281.0821891503
 21
84.1661518785
 31
0.0
  0
LINE
  5
CB
330
1F
100
AcDbEntity
  8
0
  6
CONTINUOUS
 62
     7
100
AcDbLine
 10
279.5821891503
 20
62.1661518785
 30
0.0
 11
281.0821891503
 21
62.1661518785
 31
0.0
  0
LINE
  5
CC
330
1F
100
AcDbEntity
  8
0
  6
CONTINUOUS
 62
     7
100
AcDbLine
 10
279.5821891503
 20
62.1661518785
 30
0.0
 11
279.5821891503
 21
84.1661518785
 31
0.0
  0
LINE
  5
CD
330
1F
100
AcDbEntity
  8
0
  6
CONTINUOUS
 62
     7
100
AcDbLine
 10
279.5821891503
 20
89.1661518785
 30
0.0
 11
281.0821891503
 21
89.1661518785
 31
0.0
  0
LINE
  5
CE
330
1F
100
AcDbEntity
  8
0
  6
CONTINUOUS
 62
     7
100
AcDbLine
 10
281.0821891503
 20
89.1661518785
 30
0.0
 11
281.0821891503
 21
84.1661518785
 31
0.0
  0
LINE
  5
CF
330
1F
100
AcDbEntity
  8
0
  6
CONTINUOUS
 62
     7
100
AcDbLine
 10
279.5821891503
 20
84.1661518785
 30
0.0
 11
279.5821891503
 21
89.1661518785
 31
0.0
  0
LINE
  5
D0
330
1F
100
AcDbEntity
  8
0
  6
CONTINUOUS
 62
     7
100
AcDbLine
 10
281.0821891503
 20
57.1661518785
 30
0.0
 11
279.5821891503
 21
57.1661518785
 31
0.0
  0
LINE
  5
D1
330
1F
100
AcDbEntity
  8
0
  6
CONTINUOUS
 62
     7
100
AcDbLine
 10
281.0821891503
 20
62.1661518785
 30
0.0
 11
281.0821891503
 21
57.1661518785
 31
0.0
  0
LINE
  5
D2
330
1F
100
AcDbEntity
  8
0
  6
CONTINUOUS
 62
     7
100
AcDbLine
 10
279.5821891503
 20
57.1661518785
 30
0.0
 11
279.5821891503
 21
62.1661518785
 31
0.0
  0
LINE
  5
D3
330
1F
100
AcDbEntity
  8
0
  6
CONTINUOUS
 62
     7
100
AcDbLine
 10
316.0821891503
 20
84.1661518785
 30
0.0
 11
281.0821891503
 21
84.1661518785
 31
0.0
  0
LINE
  5
D4
330
1F
100
AcDbEntity
  8
0
  6
CONTINUOUS
 62
     7
100
AcDbLine
 10
281.0821891503
 20
89.1661518785
 30
0.0
 11
316.0821891503
 21
89.1661518785
 31
0.0
  0
LINE
  5
D5
330
1F
100
AcDbEntity
  8
0
  6
CONTINUOUS
 62
     7
100
AcDbLine
 10
316.0821891503
 20
57.1661518785
 30
0.0
 11
281.0821891503
 21
57.1661518785
 31
0.0
  0
LINE
  5
D6
330
1F
100
AcDbEntity
  8
0
  6
CONTINUOUS
 62
     7
100
AcDbLine
 10
281.0821891503
 20
62.1661518785
 30
0.0
 11
316.0821891503
 21
62.1661518785
 31
0.0
  0
LINE
  5
D7
330
1F
100
AcDbEntity
  8
0
  6
CONTINUOUS
 62
     7
100
AcDbLine
 10
281.0821891503
 20
162.1661518785
 30
0.0
 11
316.0821891503
 21
162.1661518785
 31
0.0
  0
LINE
  5
D8
330
1F
100
AcDbEntity
  8
0
  6
CONTINUOUS
 62
     7
100
AcDbLine
 10
316.0821891503
 20
184.1661518785
 30
0.0
 11
281.0821891503
 21
184.1661518785
 31
0.0
  0
LINE
  5
D9
330
1F
100
AcDbEntity
  8
0
  6
CONTINUOUS
 62
     7
100
AcDbLine
 10
316.0821891503
 20
157.1661518785
 30
0.0
 11
281.0821891503
 21
157.1661518785
 31
0.0
  0
LINE
  5
DA
330
1F
100
AcDbEntity
  8
0
  6
CONTINUOUS
 62
     7
100
AcDbLine
 10
281.0821891503
 20
189.1661518785
 30
0.0
 11
316.0821891503
 21
189.1661518785
 31
0.0
  0
LINE
  5
DB
330
1F
100
AcDbEntity
  8
0
  6
CONTINUOUS
 62
     7
100
AcDbLine
 10
320.7892959315
 20
213.1661518785
 30
0.0
 11
320.7892959315
 21
222.8732586597
 31
0.0
  0
ARC
  5
DC
330
1F
100
AcDbEntity
  8
0
  6
CONTINUOUS
 62
     7
100
AcDbCircle
 10
321.4964027127
 20
222.1661518785
 30
0.0
 40
1.000000000000028
100
AcDbArc
 50
90.0
 51
135.0
  0
LINE
  5
DD
330
1F
100
AcDbEntity
  8
0
  6
CONTINUOUS
 62
     7
100
AcDbLine
 10
321.4964027127
 20
223.1661518785
 30
0.0
 11
321.4964027127
 21
213.1661518785
 31
0.0
  0
LINE
  5
DE
330
1F
100
AcDbEntity
  8
0
  6
CONTINUOUS
 62
     7
100
AcDbLine
 10
320.7892959315
 20
213.1661518785
 30
0.0
 11
321.4964027127
 21
213.1661518785
 31
0.0
  0
LINE
  5
DF
330
1F
100
AcDbEntity
  8
0
  6
CONTINUOUS
 62
     7
100
AcDbLine
 10
320.7892959315
 20
23.4590450973
 30
0.0
 11
320.7892959315
 21
33.1661518785
 31
0.0
  0
LINE
  5
E0
330
1F
100
AcDbEntity
  8
0
  6
CONTINUOUS
 62
     7
100
AcDbLine
 10
320.7892959315
 20
33.1661518785
 30
0.0
 11
321.4964027127
 21
33.1661518785
 31
0.0
  0
LINE
  5
E1
330
1F
100
AcDbEntity
  8
0
  6
CONTINUOUS
 62
     7
100
AcDbLine
 10
321.4964027127
 20
33.1661518785
 30
0.0
 11
321.4964027127
 21
23.1661518785
 31
0.0
  0
ARC
  5
E2
330
1F
100
AcDbEntity
  8
0
  6
CONTINUOUS
 62
     7
100
AcDbCircle
 10
321.4964027127
 20
24.1661518785
 30
0.0
 40
1.000000000000023
100
AcDbArc
 50
225.0
 51
270.0
  0
LINE
  5
E3
330
1F
100
AcDbEntity
  8
0
  6
CONTINUOUS
 62
     7
100
AcDbLine
 10
320.7892959315
 20
33.1661518785
 30
0.0
 11
320.7892959315
 21
213.1661518785
 31
0.0
  0
LINE
  5
E4
330
1F
100
AcDbEntity
  8
0
  6
CONTINUOUS
 62
     7
100
AcDbLine
 10
321.4964027127
 20
213.1661518785
 30
0.0
 11
321.4964027127
 21
33.1661518785
 31
0.0
  0
LINE
  5
E5
330
1F
100
AcDbEntity
  8
0
  6
CONTINUOUS
 62
     7
100
AcDbLine
 10
321.4964027127
 20
223.1661518785
 30
0.0
 11
335.6679755879
 21
223.1661518785
 31
0.0
  0
LINE
  5
E6
330
1F
100
AcDbEntity
  8
0
  6
CONTINUOUS
 62
     7
100
AcDbLine
 10
335.6679755879
 20
213.1661518785
 30
0.0
 11
335.6679755879
 21
223.1661518785
 31
0.0
  0
LINE
  5
E7
330
1F
100
AcDbEntity
  8
0
  6
CONTINUOUS
 62
     7
100
AcDbLine
 10
335.6679755879
 20
213.1661518785
 30
0.0
 11
321.4964027127
 21
213.1661518785
 31
0.0
  0
LINE
  5
E8
330
1F
100
AcDbEntity
  8
0
  6
CONTINUOUS
 62
     7
100
AcDbLine
 10
335.6679755879
 20
33.1661518785
 30
0.0
 11
335.6679755879
 21
213.1661518785
 31
0.0
  0
LINE
  5
E9
330
1F
100
AcDbEntity
  8
0
  6
CONTINUOUS
 62
     7
100
AcDbLine
 10
321.4964027127
 20
33.1661518785
 30
0.0
 11
335.6679755879
 21
33.1661518785
 31
0.0
  0
LINE
  5
EA
330
1F
100
AcDbEntity
  8
0
  6
CONTINUOUS
 62
     7
100
AcDbLine
 10
335.6679755879
 20
23.1661518785
 30
0.0
 11
335.6679755879
 21
33.1661518785
 31
0.0
  0
LINE
  5
EB
330
1F
100
AcDbEntity
  8
0
  6
CONTINUOUS
 62
     7
100
AcDbLine
 10
335.6679755879
 20
23.1661518785
 30
0.0
 11
321.4964027127
 21
23.1661518785
 31
0.0
  0
LINE
  5
EC
330
1F
100
AcDbEntity
  8
0
  6
CONTINUOUS
 62
     7
100
AcDbLine
 10
336.3750823691
 20
33.1661518785
 30
0.0
 11
335.6679755879
 21
33.1661518785
 31
0.0
  0
LINE
  5
ED
330
1F
100
AcDbEntity
  8
0
  6
CONTINUOUS
 62
     7
100
AcDbLine
 10
336.3750823691
 20
33.1661518785
 30
0.0
 11
336.3750823691
 21
23.4590450973
 31
0.0
  0
ARC
  5
EE
330
1F
100
AcDbEntity
  8
0
  6
CONTINUOUS
 62
     7
100
AcDbCircle
 10
335.6679755879
 20
24.1661518785
 30
0.0
 40
1.000000000000004
100
AcDbArc
 50
270.0
 51
315.0
  0
LINE
  5
EF
330
1F
100
AcDbEntity
  8
0
  6
CONTINUOUS
 62
     7
100
AcDbLine
 10
336.3750823691
 20
222.8732586597
 30
0.0
 11
336.3750823691
 21
213.1661518785
 31
0.0
  0
LINE
  5
F0
330
1F
100
AcDbEntity
  8
0
  6
CONTINUOUS
 62
     7
100
AcDbLine
 10
336.3750823691
 20
213.1661518785
 30
0.0
 11
335.6679755879
 21
213.1661518785
 31
0.0
  0
ARC
  5
F1
330
1F
100
AcDbEntity
  8
0
  6
CONTINUOUS
 62
     7
100
AcDbCircle
 10
335.6679755879
 20
222.1661518785
 30
0.0
 40
1.0
100
AcDbArc
 50
45.0
 51
90.0
  0
LINE
  5
F2
330
1F
100
AcDbEntity
  8
0
  6
CONTINUOUS
 62
     7
100
AcDbLine
 10
336.3750823691
 20
213.1661518785
 30
0.0
 11
336.3750823691
 21
33.1661518785
 31
0.0
  0
LINE
  5
F3
330
1F
100
AcDbEntity
  8
0
  6
CONTINUOUS
 62
     7
100
AcDbLine
 10
316.3750823691
 20
213.1661518785
 30
0.0
 11
320.7892959315
 21
213.1661518785
 31
0.0
  0
LINE
  5
F4
330
1F
100
AcDbEntity
  8
0
  6
CONTINUOUS
 62
     7
100
AcDbLine
 10
316.3750823691
 20
218.4590450973
 30
0.0
 11
316.3750823691
 21
213.1661518785
 31
0.0
  0
LINE
  5
F5
330
1F
100
AcDbEntity
  8
0
  6
CONTINUOUS
 62
     7
100
AcDbLine
 10
316.3750823691
 20
218.4590450973
 30
0.0
 11
320.7892959315
 21
222.8732586597
 31
0.0
  0
LINE
  5
F6
330
1F
100
AcDbEntity
  8
0
  6
CONTINUOUS
 62
     7
100
AcDbLine
 10
320.7892959315
 20
23.4590450973
 30
0.0
 11
316.3750823691
 21
27.8732586597
 31
0.0
  0
LINE
  5
F7
330
1F
100
AcDbEntity
  8
0
  6
CONTINUOUS
 62
     7
100
AcDbLine
 10
316.3750823691
 20
33.1661518785
 30
0.0
 11
316.3750823691
 21
27.8732586597
 31
0.0
  0
LINE
  5
F8
330
1F
100
AcDbEntity
  8
0
  6
CONTINUOUS
 62
     7
100
AcDbLine
 10
316.3750823691
 20
33.1661518785
 30
0.0
 11
320.7892959315
 21
33.1661518785
 31
0.0
  0
LINE
  5
F9
330
1F
100
AcDbEntity
  8
0
  6
CONTINUOUS
 62
     7
100
AcDbLine
 10
316.3750823691
 20
213.1661518785
 30
0.0
 11
316.3750823691
 21
33.1661518785
 31
0.0
  0
LINE
  5
FA
330
1F
100
AcDbEntity
  8
0
  6
CONTINUOUS
 62
     7
100
AcDbLine
 10
340.7892959315
 20
213.1661518785
 30
0.0
 11
340.7892959315
 21
218.4590450973
 31
0.0
  0
LINE
  5
FB
330
1F
100
AcDbEntity
  8
0
  6
CONTINUOUS
 62
     7
100
AcDbLine
 10
340.7892959315
 20
213.1661518785
 30
0.0
 11
336.3750823691
 21
213.1661518785
 31
0.0
  0
LINE
  5
FC
330
1F
100
AcDbEntity
  8
0
  6
CONTINUOUS
 62
     7
100
AcDbLine
 10
340.7892959315
 20
218.4590450973
 30
0.0
 11
336.3750823691
 21
222.8732586597
 31
0.0
  0
LINE
  5
FD
330
1F
100
AcDbEntity
  8
0
  6
CONTINUOUS
 62
     7
100
AcDbLine
 10
340.7892959315
 20
27.8732586597
 30
0.0
 11
340.7892959315
 21
33.1661518785
 31
0.0
  0
LINE
  5
FE
330
1F
100
AcDbEntity
  8
0
  6
CONTINUOUS
 62
     7
100
AcDbLine
 10
336.3750823691
 20
23.4590450973
 30
0.0
 11
340.7892959315
 21
27.8732586597
 31
0.0
  0
LINE
  5
FF
330
1F
100
AcDbEntity
  8
0
  6
CONTINUOUS
 62
     7
100
AcDbLine
 10
340.7892959315
 20
33.1661518785
 30
0.0
 11
336.3750823691
 21
33.1661518785
 31
0.0
  0
LINE
  5
100
330
1F
100
AcDbEntity
  8
0
  6
CONTINUOUS
 62
     7
100
AcDbLine
 10
340.7892959315
 20
33.1661518785
 30
0.0
 11
340.7892959315
 21
213.1661518785
 31
0.0
  0
LINE
  5
101
330
1F
100
AcDbEntity
  8
0
  6
CONTINUOUS
 62
     7
100
AcDbLine
 10
316.0821891503
 20
33.1661518785
 30
0.0
 11
316.0821891503
 21
213.1661518785
 31
0.0
  0
LINE
  5
102
330
1F
100
AcDbEntity
  8
0
  6
CONTINUOUS
 62
     7
100
AcDbLine
 10
316.3750823691
 20
213.1661518785
 30
0.0
 11
316.0821891503
 21
213.1661518785
 31
0.0
  0
LINE
  5
103
330
1F
100
AcDbEntity
  8
0
  6
CONTINUOUS
 62
     7
100
AcDbLine
 10
316.0821891503
 20
33.1661518785
 30
0.0
 11
316.3750823691
 21
33.1661518785
 31
0.0
  0
LINE
  5
104
330
1F
100
AcDbEntity
  8
0
  6
CONTINUOUS
 62
     7
100
AcDbLine
 10
316.0821891503
 20
213.1661518785
 30
0.0
 11
316.0821891503
 21
217.7519383161
 31
0.0
  0
ARC
  5
105
330
1F
100
AcDbEntity
  8
0
  6
CONTINUOUS
 62
     7
100
AcDbCircle
 10
317.0821891503
 20
217.7519383161
 30
0.0
 40
1.0
100
AcDbArc
 50
135.0
 51
180.0
  0
LINE
  5
106
330
1F
100
AcDbEntity
  8
0
  6
CONTINUOUS
 62
     7
100
AcDbLine
 10
316.0821891503
 20
28.5803654409
 30
0.0
 11
316.0821891503
 21
33.1661518785
 31
0.0
  0
ARC
  5
107
330
1F
100
AcDbEntity
  8
0
  6
CONTINUOUS
 62
     7
100
AcDbCircle
 10
317.0821891503
 20
28.5803654409
 30
0.0
 40
1.0
100
AcDbArc
 50
180.0
 51
225.0
  0
LINE
  5
108
330
1F
100
AcDbEntity
  8
0
  6
CONTINUOUS
 62
     7
100
AcDbLine
 10
340.7892959315
 20
33.1661518785
 30
0.0
 11
341.0821891503
 21
33.1661518785
 31
0.0
  0
LINE
  5
109
330
1F
100
AcDbEntity
  8
0
  6
CONTINUOUS
 62
     7
100
AcDbLine
 10
341.0821891503
 20
33.1661518785
 30
0.0
 11
341.0821891503
 21
28.5803654409
 31
0.0
  0
ARC
  5
10A
330
1F
100
AcDbEntity
  8
0
  6
CONTINUOUS
 62
     7
100
AcDbCircle
 10
340.0821891503
 20
28.5803654409
 30
0.0
 40
1.000000000000041
100
AcDbArc
 50
315.0
 51
0.0
  0
LINE
  5
10B
330
1F
100
AcDbEntity
  8
0
  6
CONTINUOUS
 62
     7
100
AcDbLine
 10
341.0821891503
 20
217.7519383161
 30
0.0
 11
341.0821891503
 21
213.1661518785
 31
0.0
  0
LINE
  5
10C
330
1F
100
AcDbEntity
  8
0
  6
CONTINUOUS
 62
     7
100
AcDbLine
 10
340.7892959315
 20
213.1661518785
 30
0.0
 11
341.0821891503
 21
213.1661518785
 31
0.0
  0
ARC
  5
10D
330
1F
100
AcDbEntity
  8
0
  6
CONTINUOUS
 62
     7
100
AcDbCircle
 10
340.0821891503
 20
217.7519383161
 30
0.0
 40
1.000000000000048
100
AcDbArc
 50
0.0
 51
45.0
  0
LINE
  5
10E
330
1F
100
AcDbEntity
  8
0
  6
CONTINUOUS
 62
     7
100
AcDbLine
 10
341.0821891503
 20
213.1661518785
 30
0.0
 11
341.0821891503
 21
33.1661518785
 31
0.0
  0
LINE
  5
10F
330
1F
100
AcDbEntity
  8
0
  6
CONTINUOUS
 62
     7
100
AcDbLine
 10
305.2575891503
 20
189.1671518785
 30
0.0
 11
305.2575891503
 21
189.1661518785
 31
0.0
  0
LINE
  5
110
330
1F
100
AcDbEntity
  8
0
  6
CONTINUOUS
 62
     7
100
AcDbLine
 10
307.7851891503
 20
189.1671518785
 30
0.0
 11
307.7851891503
 21
189.1661518785
 31
0.0
  0
SPLINE
  5
111
330
1F
100
AcDbEntity
  8
0
  6
CONTINUOUS
 62
     7
100
AcDbSpline
210
0.0
220
0.0
230
1.0
 70
    24
 71
     3
 72
    12
 73
     8
 74
     0
 42
0.00000001
 43
0.00000001
 40
0.0
 40
0.0
 40
0.0
 40
0.0
 40
0.3143673319851782
 40
0.587157530035886
 40
0.8110328976779898
 40
0.9077109548243035
 40
1.0
 40
1.0
 40
1.0
 40
1.0
 10
307.7851891503079
 20
189.1671518784926
 30
0.0
 10
307.7491379687744
 20
189.1671518784926
 30
0.0
 10
307.6818036100469
 20
189.1671518784926
 30
0.0
 10
307.1526491152458
 20
189.1671518784926
 30
0.0
 10
306.4647181785631
 20
189.1671518784926
 30
0.0
 10
305.7856388505862
 20
189.1671518784926
 30
0.0
 10
305.430858972417
 20
189.1671518784926
 30
0.0
 10
305.2575891503079
 20
189.1671518784926
 30
0.0
  0
LINE
  5
112
330
1F
100
AcDbEntity
  8
0
  6
CONTINUOUS
 62
     7
100
AcDbLine
 10
302.7299891503
 20
189.1671518785
 30
0.0
 11
302.7299891503
 21
189.1661518785
 31
0.0
  0
SPLINE
  5
113
330
1F
100
AcDbEntity
  8
0
  6
CONTINUOUS
 62
     7
100
AcDbSpline
210
0.0
220
0.0
230
1.0
 70
    24
 71
     3
 72
    12
 73
     8
 74
     0
 42
0.00000001
 43
0.00000001
 40
0.0
 40
0.0
 40
0.0
 40
0.0
 40
0.0922890451756974
 40
0.188967102322012
 40
0.4128424699641163
 40
0.6856326680148236
 40
1.0
 40
1.0
 40
1.0
 40
1.0
 10
305.2575891503079
 20
189.1671518784926
 30
0.0
 10
305.0843193281989
 20
189.1671518784926
 30
0.0
 10
304.7295394500296
 20
189.1671518784926
 30
0.0
 10
304.0504601220527
 20
189.1671518784926
 30
0.0
 10
303.3625291853701
 20
189.1671518784926
 30
0.0
 10
302.8333746905689
 20
189.1671518784926
 30
0.0
 10
302.7660403318414
 20
189.1671518784926
 30
0.0
 10
302.7299891503079
 20
189.1671518784926
 30
0.0
  0
LINE
  5
114
330
1F
100
AcDbEntity
  8
0
  6
CONTINUOUS
 62
     7
100
AcDbLine
 10
305.2575891503
 20
57.1651518785
 30
0.0
 11
305.2575891503
 21
57.1661518785
 31
0.0
  0
SPLINE
  5
115
330
1F
100
AcDbEntity
  8
0
  6
CONTINUOUS
 62
     7
100
AcDbSpline
210
0.0
220
0.0
230
1.0
 70
    24
 71
     3
 72
    12
 73
     8
 74
     0
 42
0.00000001
 43
0.00000001
 40
0.0
 40
0.0
 40
0.0
 40
0.0
 40
0.3143673319851774
 40
0.5871575300358852
 40
0.8110328976779899
 40
0.9077109548243034
 40
1.0
 40
1.0
 40
1.0
 40
1.0
 10
302.7299891503079
 20
57.16515187849264
 30
0.0
 10
302.7660403318414
 20
57.16515187849264
 30
0.0
 10
302.8333746905689
 20
57.16515187849262
 30
0.0
 10
303.3625291853701
 20
57.16515187849264
 30
0.0
 10
304.0504601220527
 20
57.16515187849261
 30
0.0
 10
304.7295394500296
 20
57.16515187849264
 30
0.0
 10
305.0843193281988
 20
57.16515187849264
 30
0.0
 10
305.2575891503079
 20
57.16515187849264
 30
0.0
  0
LINE
  5
116
330
1F
100
AcDbEntity
  8
0
  6
CONTINUOUS
 62
     7
100
AcDbLine
 10
302.7299891503
 20
57.1651518785
 30
0.0
 11
302.7299891503
 21
57.1661518785
 31
0.0
  0
LINE
  5
117
330
1F
100
AcDbEntity
  8
0
  6
CONTINUOUS
 62
     7
100
AcDbLine
 10
307.7851891503
 20
57.1651518785
 30
0.0
 11
307.7851891503
 21
57.1661518785
 31
0.0
  0
SPLINE
  5
118
330
1F
100
AcDbEntity
  8
0
  6
CONTINUOUS
 62
     7
100
AcDbSpline
210
0.0
220
0.0
230
1.0
 70
    24
 71
     3
 72
    12
 73
     8
 74
     0
 42
0.00000001
 43
0.00000001
 40
0.0
 40
0.0
 40
0.0
 40
0.0
 40
0.0922890451756974
 40
0.1889671023220121
 40
0.4128424699641176
 40
0.6856326680148244
 40
0.9999999999999999
 40
0.9999999999999999
 40
0.9999999999999999
 40
0.9999999999999999
 10
305.2575891503079
 20
57.16515187849264
 30
0.0
 10
305.430858972417
 20
57.16515187849264
 30
0.0
 10
305.7856388505862
 20
57.16515187849264
 30
0.0
 10
306.4647181785631
 20
57.16515187849265
 30
0.0
 10
307.1526491152458
 20
57.16515187849264
 30
0.0
 10
307.6818036100469
 20
57.16515187849264
 30
0.0
 10
307.7491379687744
 20
57.16515187849264
 30
0.0
 10
307.7851891503079
 20
57.16515187849264
 30
0.0
  0
LINE
  5
119
330
1F
100
AcDbEntity
  8
0
  6
CONTINUOUS
 62
     7
100
AcDbLine
 10
305.0905891503
 20
189.1671518785
 30
0.0
 11
305.4354891503
 21
189.1671518785
 31
0.0
  0
LINE
  5
11A
330
1F
100
AcDbEntity
  8
0
  6
CONTINUOUS
 62
     7
100
AcDbLine
 10
105.8734549729
 20
-67.5074595214
 30
0.0
 11
105.8229795089
 21
-67.5074595214
 31
0.0
  0
LINE
  5
11B
330
1F
100
AcDbEntity
  8
0
  6
CONTINUOUS
 62
     7
100
AcDbLine
 10
105.8734549729
 20
-67.5074595214
 30
0.0
 11
105.8734549729
 21
-67.6084104494
 31
0.0
  0
LINE
  5
11C
330
1F
100
AcDbEntity
  8
0
  6
CONTINUOUS
 62
     7
100
AcDbLine
 10
105.8734549729
 20
-67.5074595214
 30
0.0
 11
105.9239304369
 21
-67.5074595214
 31
0.0
  0
LINE
  5
11D
330
1F
100
AcDbEntity
  8
0
  6
CONTINUOUS
 62
     7
100
AcDbLine
 10
105.8734549729
 20
-67.5074595214
 30
0.0
 11
105.8734549729
 21
-67.6084104494
 31
0.0
  0
POINT
  5
11E
330
1F
100
AcDbEntity
  8
0
  6
CONTINUOUS
 62
     7
100
AcDbPoint
 10
105.8734549729
 20
-67.5074595214
 30
0.0
  0
POINT
  5
11F
330
1F
100
AcDbEntity
  8
0
  6
CONTINUOUS
 62
     7
100
AcDbPoint
 10
105.8734549729
 20
-67.5074595214
 30
0.0
  0
LINE
  5
120
330
1F
100
AcDbEntity
  8
0
  6
CONTINUOUS
 62
     7
100
AcDbLine
 10
94.8734549729
 20
-41.8320595214
 30
0.0
 11
94.8734549729
 21
-43.3320595214
 31
0.0
  0
LINE
  5
121
330
1F
100
AcDbEntity
  8
0
  6
CONTINUOUS
 62
     7
100
AcDbLine
 10
116.8734549729
 20
-43.3320595214
 30
0.0
 11
116.8734549729
 21
-41.8320595214
 31
0.0
  0
LINE
  5
122
330
1F
100
AcDbEntity
  8
0
  6
CONTINUOUS
 62
     7
100
AcDbLine
 10
94.8734549729
 20
-41.8320595214
 30
0.0
 11
116.8734549729
 21
-41.8320595214
 31
0.0
  0
LINE
  5
123
330
1F
100
AcDbEntity
  8
0
  6
CONTINUOUS
 62
     7
100
AcDbLine
 10
94.8734549729
 20
-43.3320595214
 30
0.0
 11
116.8734549729
 21
-43.3320595214
 31
0.0
  0
LINE
  5
124
330
1F
100
AcDbEntity
  8
0
  6
CONTINUOUS
 62
     7
100
AcDbLine
 10
121.8734549729
 20
-41.8320595214
 30
0.0
 11
121.8734549729
 21
-43.3320595214
 31
0.0
  0
LINE
  5
125
330
1F
100
AcDbEntity
  8
0
  6
CONTINUOUS
 62
     7
100
AcDbLine
 10
116.8734549729
 20
-41.8320595214
 30
0.0
 11
121.8734549729
 21
-41.8320595214
 31
0.0
  0
LINE
  5
126
330
1F
100
AcDbEntity
  8
0
  6
CONTINUOUS
 62
     7
100
AcDbLine
 10
121.8734549729
 20
-43.3320595214
 30
0.0
 11
116.8734549729
 21
-43.3320595214
 31
0.0
  0
LINE
  5
127
330
1F
100
AcDbEntity
  8
0
  6
CONTINUOUS
 62
     7
100
AcDbLine
 10
89.8734549729
 20
-43.3320595214
 30
0.0
 11
89.8734549729
 21
-41.8320595214
 31
0.0
  0
LINE
  5
128
330
1F
100
AcDbEntity
  8
0
  6
CONTINUOUS
 62
     7
100
AcDbLine
 10
89.8734549729
 20
-41.8320595214
 30
0.0
 11
94.8734549729
 21
-41.8320595214
 31
0.0
  0
LINE
  5
129
330
1F
100
AcDbEntity
  8
0
  6
CONTINUOUS
 62
     7
100
AcDbLine
 10
94.8734549729
 20
-43.3320595214
 30
0.0
 11
89.8734549729
 21
-43.3320595214
 31
0.0
  0
LINE
  5
12A
330
1F
100
AcDbEntity
  8
0
  6
CONTINUOUS
 62
     7
100
AcDbLine
 10
116.8734549729
 20
-78.3320595214
 30
0.0
 11
116.8734549729
 21
-43.3320595214
 31
0.0
  0
LINE
  5
12B
330
1F
100
AcDbEntity
  8
0
  6
CONTINUOUS
 62
     7
100
AcDbLine
 10
121.8734549729
 20
-43.3320595214
 30
0.0
 11
121.8734549729
 21
-78.3320595214
 31
0.0
  0
LINE
  5
12C
330
1F
100
AcDbEntity
  8
0
  6
CONTINUOUS
 62
     7
100
AcDbLine
 10
94.8734549729
 20
-43.3320595214
 30
0.0
 11
94.8734549729
 21
-78.3320595214
 31
0.0
  0
LINE
  5
12D
330
1F
100
AcDbEntity
  8
0
  6
CONTINUOUS
 62
     7
100
AcDbLine
 10
89.8734549729
 20
-78.3320595214
 30
0.0
 11
89.8734549729
 21
-43.3320595214
 31
0.0
  0
LINE
  5
12E
330
1F
100
AcDbEntity
  8
0
  6
CONTINUOUS
 62
     7
100
AcDbLine
 10
195.8734549729
 20
-83.7462730838
 30
0.0
 11
15.8734549729
 21
-83.7462730838
 31
0.0
  0
LINE
  5
12F
330
1F
100
AcDbEntity
  8
0
  6
CONTINUOUS
 62
     7
100
AcDbLine
 10
15.8734549729
 20
-83.0391663026
 30
0.0
 11
15.8734549729
 21
-83.7462730838
 31
0.0
  0
LINE
  5
130
330
1F
100
AcDbEntity
  8
0
  6
CONTINUOUS
 62
     7
100
AcDbLine
 10
15.8734549729
 20
-83.0391663026
 30
0.0
 11
195.8734549729
 21
-83.0391663026
 31
0.0
  0
LINE
  5
131
330
1F
100
AcDbEntity
  8
0
  6
CONTINUOUS
 62
     7
100
AcDbLine
 10
195.8734549729
 20
-83.7462730838
 30
0.0
 11
195.8734549729
 21
-83.0391663026
 31
0.0
  0
LINE
  5
132
330
1F
100
AcDbEntity
  8
0
  6
CONTINUOUS
 62
     7
100
AcDbLine
 10
6.1663481917
 20
-83.0391663026
 30
0.0
 11
15.8734549729
 21
-83.0391663026
 31
0.0
  0
LINE
  5
133
330
1F
100
AcDbEntity
  8
0
  6
CONTINUOUS
 62
     7
100
AcDbLine
 10
15.8734549729
 20
-83.7462730838
 30
0.0
 11
5.8734549729
 21
-83.7462730838
 31
0.0
  0
ARC
  5
134
330
1F
100
AcDbEntity
  8
0
  6
CONTINUOUS
 62
     7
100
AcDbCircle
 10
6.8734549729
 20
-83.7462730838
 30
0.0
 40
1.000000000000001
100
AcDbArc
 50
135.0
 51
180.0
  0
LINE
  5
135
330
1F
100
AcDbEntity
  8
0
  6
CONTINUOUS
 62
     7
100
AcDbLine
 10
205.8734549729
 20
-83.7462730838
 30
0.0
 11
195.8734549729
 21
-83.7462730838
 31
0.0
  0
LINE
  5
136
330
1F
100
AcDbEntity
  8
0
  6
CONTINUOUS
 62
     7
100
AcDbLine
 10
195.8734549729
 20
-83.0391663026
 30
0.0
 11
205.5805617541
 21
-83.0391663026
 31
0.0
  0
ARC
  5
137
330
1F
100
AcDbEntity
  8
0
  6
CONTINUOUS
 62
     7
100
AcDbCircle
 10
204.8734549729
 20
-83.7462730838
 30
0.0
 40
1.0
100
AcDbArc
 50
0.0
 51
45.0
  0
LINE
  5
138
330
1F
100
AcDbEntity
  8
0
  6
CONTINUOUS
 62
     7
100
AcDbLine
 10
195.8734549729
 20
-97.917845959
 30
0.0
 11
205.8734549729
 21
-97.917845959
 31
0.0
  0
LINE
  5
139
330
1F
100
AcDbEntity
  8
0
  6
CONTINUOUS
 62
     7
100
AcDbLine
 10
195.8734549729
 20
-97.917845959
 30
0.0
 11
195.8734549729
 21
-83.7462730838
 31
0.0
  0
LINE
  5
13A
330
1F
100
AcDbEntity
  8
0
  6
CONTINUOUS
 62
     7
100
AcDbLine
 10
205.8734549729
 20
-83.7462730838
 30
0.0
 11
205.8734549729
 21
-97.917845959
 31
0.0
  0
LINE
  5
13B
330
1F
100
AcDbEntity
  8
0
  6
CONTINUOUS
 62
     7
100
AcDbLine
 10
15.8734549729
 20
-83.7462730838
 30
0.0
 11
15.8734549729
 21
-97.917845959
 31
0.0
  0
LINE
  5
13C
330
1F
100
AcDbEntity
  8
0
  6
CONTINUOUS
 62
     7
100
AcDbLine
 10
5.8734549729
 20
-97.917845959
 30
0.0
 11
15.8734549729
 21
-97.917845959
 31
0.0
  0
LINE
  5
13D
330
1F
100
AcDbEntity
  8
0
  6
CONTINUOUS
 62
     7
100
AcDbLine
 10
5.8734549729
 20
-97.917845959
 30
0.0
 11
5.8734549729
 21
-83.7462730838
 31
0.0
  0
LINE
  5
13E
330
1F
100
AcDbEntity
  8
0
  6
CONTINUOUS
 62
     7
100
AcDbLine
 10
15.8734549729
 20
-97.917845959
 30
0.0
 11
195.8734549729
 21
-97.917845959
 31
0.0
  0
ARC
  5
13F
330
1F
100
AcDbEntity
  8
0
  6
CONTINUOUS
 62
     7
100
AcDbCircle
 10
204.8734549729
 20
-97.917845959
 30
0.0
 40
1.000000000000028
100
AcDbArc
 50
315.0
 51
0.0
  0
LINE
  5
140
330
1F
100
AcDbEntity
  8
0
  6
CONTINUOUS
 62
     7
100
AcDbLine
 10
205.5805617541
 20
-98.6249527402
 30
0.0
 11
195.8734549729
 21
-98.6249527402
 31
0.0
  0
LINE
  5
141
330
1F
100
AcDbEntity
  8
0
  6
CONTINUOUS
 62
     7
100
AcDbLine
 10
195.8734549729
 20
-98.6249527402
 30
0.0
 11
195.8734549729
 21
-97.917845959
 31
0.0
  0
LINE
  5
142
330
1F
100
AcDbEntity
  8
0
  6
CONTINUOUS
 62
     7
100
AcDbLine
 10
15.8734549729
 20
-98.6249527402
 30
0.0
 11
6.1663481917
 21
-98.6249527402
 31
0.0
  0
ARC
  5
143
330
1F
100
AcDbEntity
  8
0
  6
CONTINUOUS
 62
     7
100
AcDbCircle
 10
6.8734549729
 20
-97.917845959
 30
0.0
 40
1.000000000000001
100
AcDbArc
 50
180.0
 51
225.0
  0
LINE
  5
144
330
1F
100
AcDbEntity
  8
0
  6
CONTINUOUS
 62
     7
100
AcDbLine
 10
15.8734549729
 20
-98.6249527402
 30
0.0
 11
15.8734549729
 21
-97.917845959
 31
0.0
  0
LINE
  5
145
330
1F
100
AcDbEntity
  8
0
  6
CONTINUOUS
 62
     7
100
AcDbLine
 10
195.8734549729
 20
-98.6249527402
 30
0.0
 11
15.8734549729
 21
-98.6249527402
 31
0.0
  0
LINE
  5
146
330
1F
100
AcDbEntity
  8
0
  6
CONTINUOUS
 62
     7
100
AcDbLine
 10
195.8734549729
 20
-78.6249527402
 30
0.0
 11
195.8734549729
 21
-83.0391663026
 31
0.0
  0
LINE
  5
147
330
1F
100
AcDbEntity
  8
0
  6
CONTINUOUS
 62
     7
100
AcDbLine
 10
201.1663481917
 20
-78.6249527402
 30
0.0
 11
195.8734549729
 21
-78.6249527402
 31
0.0
  0
LINE
  5
148
330
1F
100
AcDbEntity
  8
0
  6
CONTINUOUS
 62
     7
100
AcDbLine
 10
205.5805617541
 20
-83.0391663026
 30
0.0
 11
201.1663481917
 21
-78.6249527402
 31
0.0
  0
LINE
  5
149
330
1F
100
AcDbEntity
  8
0
  6
CONTINUOUS
 62
     7
100
AcDbLine
 10
15.8734549729
 20
-78.6249527402
 30
0.0
 11
15.8734549729
 21
-83.0391663026
 31
0.0
  0
LINE
  5
14A
330
1F
100
AcDbEntity
  8
0
  6
CONTINUOUS
 62
     7
100
AcDbLine
 10
195.8734549729
 20
-78.6249527402
 30
0.0
 11
15.8734549729
 21
-78.6249527402
 31
0.0
  0
LINE
  5
14B
330
1F
100
AcDbEntity
  8
0
  6
CONTINUOUS
 62
     7
100
AcDbLine
 10
10.5805617541
 20
-78.6249527402
 30
0.0
 11
6.1663481917
 21
-83.0391663026
 31
0.0
  0
LINE
  5
14C
330
1F
100
AcDbEntity
  8
0
  6
CONTINUOUS
 62
     7
100
AcDbLine
 10
15.8734549729
 20
-78.6249527402
 30
0.0
 11
10.5805617541
 21
-78.6249527402
 31
0.0
  0
LINE
  5
14D
330
1F
100
AcDbEntity
  8
0
  6
CONTINUOUS
 62
     7
100
AcDbLine
 10
15.8734549729
 20
-103.0391663026
 30
0.0
 11
195.8734549729
 21
-103.0391663026
 31
0.0
  0
LINE
  5
14E
330
1F
100
AcDbEntity
  8
0
  6
CONTINUOUS
 62
     7
100
AcDbLine
 10
15.8734549729
 20
-103.0391663026
 30
0.0
 11
15.8734549729
 21
-98.6249527402
 31
0.0
  0
LINE
  5
14F
330
1F
100
AcDbEntity
  8
0
  6
CONTINUOUS
 62
     7
100
AcDbLine
 10
195.8734549729
 20
-103.0391663026
 30
0.0
 11
195.8734549729
 21
-98.6249527402
 31
0.0
  0
LINE
  5
150
330
1F
100
AcDbEntity
  8
0
  6
CONTINUOUS
 62
     7
100
AcDbLine
 10
195.8734549729
 20
-103.0391663026
 30
0.0
 11
201.1663481917
 21
-103.0391663026
 31
0.0
  0
LINE
  5
151
330
1F
100
AcDbEntity
  8
0
  6
CONTINUOUS
 62
     7
100
AcDbLine
 10
205.5805617541
 20
-98.6249527402
 30
0.0
 11
201.1663481917
 21
-103.0391663026
 31
0.0
  0
LINE
  5
152
330
1F
100
AcDbEntity
  8
0
  6
CONTINUOUS
 62
     7
100
AcDbLine
 10
10.5805617541
 20
-103.0391663026
 30
0.0
 11
15.8734549729
 21
-103.0391663026
 31
0.0
  0
LINE
  5
153
330
1F
100
AcDbEntity
  8
0
  6
CONTINUOUS
 62
     7
100
AcDbLine
 10
10.5805617541
 20
-103.0391663026
 30
0.0
 11
6.1663481917
 21
-98.6249527402
 31
0.0
  0
LINE
  5
154
330
1F
100
AcDbEntity
  8
0
  6
CONTINUOUS
 62
     7
100
AcDbLine
 10
15.8734549729
 20
-78.6249527402
 30
0.0
 11
15.8734549729
 21
-78.3320595214
 31
0.0
  0
LINE
  5
155
330
1F
100
AcDbEntity
  8
0
  6
CONTINUOUS
 62
     7
100
AcDbLine
 10
15.8734549729
 20
-78.3320595214
 30
0.0
 11
195.8734549729
 21
-78.3320595214
 31
0.0
  0
LINE
  5
156
330
1F
100
AcDbEntity
  8
0
  6
CONTINUOUS
 62
     7
100
AcDbLine
 10
195.8734549729
 20
-78.6249527402
 30
0.0
 11
195.8734549729
 21
-78.3320595214
 31
0.0
  0
ARC
  5
157
330
1F
100
AcDbEntity
  8
0
  6
CONTINUOUS
 62
     7
100
AcDbCircle
 10
11.2876685353
 20
-79.3320595214
 30
0.0
 40
1.000000000000014
100
AcDbArc
 50
90.0
 51
135.0
  0
LINE
  5
158
330
1F
100
AcDbEntity
  8
0
  6
CONTINUOUS
 62
     7
100
AcDbLine
 10
11.2876685353
 20
-78.3320595214
 30
0.0
 11
15.8734549729
 21
-78.3320595214
 31
0.0
  0
LINE
  5
159
330
1F
100
AcDbEntity
  8
0
  6
CONTINUOUS
 62
     7
100
AcDbLine
 10
195.8734549729
 20
-78.3320595214
 30
0.0
 11
200.4592414105
 21
-78.3320595214
 31
0.0
  0
ARC
  5
15A
330
1F
100
AcDbEntity
  8
0
  6
CONTINUOUS
 62
     7
100
AcDbCircle
 10
200.4592414105
 20
-79.3320595214
 30
0.0
 40
1.000000000000014
100
AcDbArc
 50
45.0
 51
90.0
  0
LINE
  5
15B
330
1F
100
AcDbEntity
  8
0
  6
CONTINUOUS
 62
     7
100
AcDbLine
 10
195.8734549729
 20
-103.3320595214
 30
0.0
 11
15.8734549729
 21
-103.3320595214
 31
0.0
  0
LINE
  5
15C
330
1F
100
AcDbEntity
  8
0
  6
CONTINUOUS
 62
     7
100
AcDbLine
 10
15.8734549729
 20
-103.3320595214
 30
0.0
 11
15.8734549729
 21
-103.0391663026
 31
0.0
  0
LINE
  5
15D
330
1F
100
AcDbEntity
  8
0
  6
CONTINUOUS
 62
     7
100
AcDbLine
 10
195.8734549729
 20
-103.3320595214
 30
0.0
 11
195.8734549729
 21
-103.0391663026
 31
0.0
  0
LINE
  5
15E
330
1F
100
AcDbEntity
  8
0
  6
CONTINUOUS
 62
     7
100
AcDbLine
 10
200.4592414105
 20
-103.3320595214
 30
0.0
 11
195.8734549729
 21
-103.3320595214
 31
0.0
  0
ARC
  5
15F
330
1F
100
AcDbEntity
  8
0
  6
CONTINUOUS
 62
     7
100
AcDbCircle
 10
200.4592414105
 20
-102.3320595214
 30
0.0
 40
1.0
100
AcDbArc
 50
270.0
 51
315.0
  0
LINE
  5
160
330
1F
100
AcDbEntity
  8
0
  6
CONTINUOUS
 62
     7
100
AcDbLine
 10
15.8734549729
 20
-103.3320595214
 30
0.0
 11
11.2876685353
 21
-103.3320595214
 31
0.0
  0
ARC
  5
161
330
1F
100
AcDbEntity
  8
0
  6
CONTINUOUS
 62
     7
100
AcDbCircle
 10
11.2876685353
 20
-102.3320595214
 30
0.0
 40
1.000000000000002
100
AcDbArc
 50
225.0
 51
270.0
  0
SPLINE
  5
162
330
1F
100
AcDbEntity
  8
0
  6
CONTINUOUS
 62
     7
100
AcDbSpline
210
0.0
220
0.0
230
1.0
 70
     8
 71
     3
 72
    12
 73
     8
 74
     0
 42
0.00000001
 43
0.00000001
 40
0.0
 40
0.0
 40
0.0
 40
0.0
 40
0.090469052482276
 40
0.1858192837529802
 40
0.4089514465726154
 40
0.6830777780257488
 40
1.0
 40
1.0
 40
1.0
 40
1.0
 10
110.2009549729187
 20
-67.50745952142121
 30
0.0
 10
110.1828063978424
 20
-67.6694495527096
 30
0.0
 10
110.1455300571571
 20
-68.00216964608106
 30
0.0
 10
109.7525458992329
 20
-68.63856663885772
 30
0.0
 10
108.8816924746312
 20
-69.2793327669377
 30
0.0
 10
107.4955650223345
 20
-69.77171461068102
 30
0.0
 10
106.4396435938247
 20
-69.83436576290843
 30
0.0
 10
105.8734549729187
 20
-69.86795952142121
 30
0.0
  0
SPLINE
  5
163
330
1F
100
AcDbEntity
  8
0
  6
CONTINUOUS
 62
     7
100
AcDbSpline
210
0.0
220
0.0
230
1.0
 70
     8
 71
     3
 72
    12
 73
     8
 74
     0
 42
0.00000001
 43
0.00000001
 40
0.0
 40
0.0
 40
0.0
 40
0.0
 40
0.0904690524822759
 40
0.1858192837529797
 40
0.4089514465726142
 40
0.683077778025748
 40
1.0
 40
1.0
 40
1.0
 40
1.0
 10
101.5459549729187
 20
-67.50745952142121
 30
0.0
 10
101.564103547995
 20
-67.34546949013284
 30
0.0
 10
101.6013798886803
 20
-67.01274939676136
 30
0.0
 10
101.9943640466044
 20
-66.37635240398471
 30
0.0
 10
102.8652174712062
 20
-65.73558627590472
 30
0.0
 10
104.2513449235029
 20
-65.24320443216143
 30
0.0
 10
105.3072663520126
 20
-65.18055327993399
 30
0.0
 10
105.8734549729187
 20
-65.14695952142121
 30
0.0
  0
SPLINE
  5
164
330
1F
100
AcDbEntity
  8
0
  6
CONTINUOUS
 62
     7
100
AcDbSpline
210
0.0
220
0.0
230
1.0
 70
     8
 71
     3
 72
    12
 73
     8
 74
     0
 42
0.00000001
 43
0.00000001
 40
0.0
 40
0.0
 40
0.0
 40
0.0
 40
0.3169222219742538
 40
0.5910485534273873
 40
0.8141807162470216
 40
0.9095309475177245
 40
0.9999999999999999
 40
0.9999999999999999
 40
0.9999999999999999
 40
0.9999999999999999
 10
105.8734549729187
 20
-69.86795952142121
 30
0.0
 10
105.3072663520127
 20
-69.83436576290843
 30
0.0
 10
104.2513449235029
 20
-69.77171461068102
 30
0.0
 10
102.8652174712062
 20
-69.27933276693771
 30
0.0
 10
101.9943640466045
 20
-68.63856663885772
 30
0.0
 10
101.6013798886803
 20
-68.00216964608106
 30
0.0
 10
101.5641035479949
 20
-67.6694495527096
 30
0.0
 10
101.5459549729187
 20
-67.50745952142121
 30
0.0
  0
SPLINE
  5
165
330
1F
100
AcDbEntity
  8
0
  6
CONTINUOUS
 62
     7
100
AcDbSpline
210
0.0
220
0.0
230
1.0
 70
     8
 71
     3
 72
    12
 73
     8
 74
     0
 42
0.00000001
 43
0.00000001
 40
0.0
 40
0.0
 40
0.0
 40
0.0
 40
0.3143673319851782
 40
0.587157530035886
 40
0.8110328976779898
 40
0.9077109548243035
 40
1.0
 40
1.0
 40
1.0
 40
1.0
 10
105.8734549729187
 20
-70.03505952142122
 30
0.0
 10
105.2844125007376
 20
-69.99900833988771
 30
0.0
 10
104.1842322725057
 20
-69.93167398116022
 30
0.0
 10
102.740148329786
 20
-69.40251948635904
 30
0.0
 10
101.8363920753549
 20
-68.7145885496764
 30
0.0
 10
101.4306575439379
 20
-68.03550922169954
 30
0.0
 10
101.3922249472212
 20
-67.68072934353026
 30
0.0
 10
101.3734549729187
 20
-67.50745952142121
 30
0.0
  0
SPLINE
  5
166
330
1F
100
AcDbEntity
  8
0
  6
CONTINUOUS
 62
     7
100
AcDbSpline
210
0.0
220
0.0
230
1.0
 70
     8
 71
     3
 72
    12
 73
     8
 74
     0
 42
0.00000001
 43
0.00000001
 40
0.0
 40
0.0
 40
0.0
 40
0.0
 40
0.0922890451756974
 40
0.188967102322012
 40
0.4128424699641163
 40
0.6856326680148236
 40
1.0
 40
1.0
 40
1.0
 40
1.0
 10
101.3734549729187
 20
-67.50745952142121
 30
0.0
 10
101.3922249472212
 20
-67.33418969931218
 30
0.0
 10
101.4306575439379
 20
-66.97940982114287
 30
0.0
 10
101.8363920753549
 20
-66.30033049316604
 30
0.0
 10
102.740148329786
 20
-65.61239955648338
 30
0.0
 10
104.1842322725057
 20
-65.0832450616822
 30
0.0
 10
105.2844125007376
 20
-65.01591070295473
 30
0.0
 10
105.8734549729187
 20
-64.97985952142122
 30
0.0
  0
SPLINE
  5
167
330
1F
100
AcDbEntity
  8
0
  6
CONTINUOUS
 62
     7
100
AcDbSpline
210
0.0
220
0.0
230
1.0
 70
     8
 71
     3
 72
    12
 73
     8
 74
     0
 42
0.00000001
 43
0.00000001
 40
0.0
 40
0.0
 40
0.0
 40
0.0
 40
0.3143673319851774
 40
0.5871575300358851
 40
0.8110328976779894
 40
0.9077109548243034
 40
1.0
 40
1.0
 40
1.0
 40
1.0
 10
105.8734549729187
 20
-64.97985952142122
 30
0.0
 10
106.4624974450998
 20
-65.01591070295473
 30
0.0
 10
107.5626776733317
 20
-65.08324506168222
 30
0.0
 10
109.0067616160514
 20
-65.61239955648338
 30
0.0
 10
109.9105178704825
 20
-66.30033049316603
 30
0.0
 10
110.3162524018995
 20
-66.97940982114287
 30
0.0
 10
110.3546849986162
 20
-67.33418969931218
 30
0.0
 10
110.3734549729187
 20
-67.50745952142121
 30
0.0
  0
SPLINE
  5
168
330
1F
100
AcDbEntity
  8
0
  6
CONTINUOUS
 62
     7
100
AcDbSpline
210
0.0
220
0.0
230
1.0
 70
     8
 71
     3
 72
    12
 73
     8
 74
     0
 42
0.00000001
 43
0.00000001
 40
0.0
 40
0.0
 40
0.0
 40
0.0
 40
0.0922890451756974
 40
0.1889671023220122
 40
0.4128424699641173
 40
0.6856326680148244
 40
0.9999999999999999
 40
0.9999999999999999
 40
0.9999999999999999
 40
0.9999999999999999
 10
110.3734549729187
 20
-67.50745952142121
 30
0.0
 10
110.3546849986162
 20
-67.68072934353026
 30
0.0
 10
110.3162524018995
 20
-68.03550922169956
 30
0.0
 10
109.9105178704825
 20
-68.7145885496764
 30
0.0
 10
109.0067616160514
 20
-69.40251948635904
 30
0.0
 10
107.5626776733317
 20
-69.9316739811602
 30
0.0
 10
106.4624974450998
 20
-69.99900833988771
 30
0.0
 10
105.8734549729187
 20
-70.03505952142122
 30
0.0
  0
SPLINE
  5
169
330
1F
100
AcDbEntity
  8
0
  6
CONTINUOUS
 62
     7
100
AcDbSpline
210
0.0
220
0.0
230
1.0
 70
     8
 71
     3
 72
    12
 73
     8
 74
     0
 42
0.00000001
 43
0.00000001
 40
0.0
 40
0.0
 40
0.0
 40
0.0
 40
0.3169222219742528
 40
0.5910485534273862
 40
0.8141807162470205
 40
0.9095309475177245
 40
1.0
 40
1.0
 40
1.0
 40
1.0
 10
105.8734549729187
 20
-65.14695952142121
 30
0.0
 10
106.4396435938247
 20
-65.18055327993399
 30
0.0
 10
107.4955650223345
 20
-65.24320443216142
 30
0.0
 10
108.8816924746312
 20
-65.73558627590472
 30
0.0
 10
109.7525458992329
 20
-66.37635240398471
 30
0.0
 10
110.1455300571571
 20
-67.01274939676136
 30
0.0
 10
110.1828063978424
 20
-67.34546949013284
 30
0.0
 10
110.2009549729187
 20
-67.50745952142121
 30
0.0
  0
LINE
  5
16A
330
1F
100
AcDbEntity
  8
0
  6
CONTINUOUS
 62
     7
100
AcDbLine
 10
109.5650549729
 20
-67.1446595214
 30
0.0
 11
109.5650549729
 21
-67.4158595214
 31
0.0
  0
LINE
  5
16B
330
1F
100
AcDbEntity
  8
0
  6
CONTINUOUS
 62
     7
100
AcDbLine
 10
108.9399549729
 20
-67.1032595214
 30
0.0
 11
107.8082549729
 21
-67.1032595214
 31
0.0
  0
LINE
  5
16C
330
1F
100
AcDbEntity
  8
0
  6
CONTINUOUS
 62
     7
100
AcDbLine
 10
107.8082549729
 20
-67.1032595214
 30
0.0
 11
107.8082549729
 21
-67.9224595214
 31
0.0
  0
LINE
  5
16D
330
1F
100
AcDbEntity
  8
0
  6
CONTINUOUS
 62
     7
100
AcDbLine
 10
107.8082549729
 20
-67.9224595214
 30
0.0
 11
108.4980549729
 21
-67.9224595214
 31
0.0
  0
LINE
  5
16E
330
1F
100
AcDbEntity
  8
0
  6
CONTINUOUS
 62
     7
100
AcDbLine
 10
108.4980549729
 20
-67.9224595214
 30
0.0
 11
108.4980549729
 21
-68.3320595214
 31
0.0
  0
LINE
  5
16F
330
1F
100
AcDbEntity
  8
0
  6
CONTINUOUS
 62
     7
100
AcDbLine
 10
108.4980549729
 20
-68.3320595214
 30
0.0
 11
107.1830549729
 21
-68.3320595214
 31
0.0
  0
LINE
  5
170
330
1F
100
AcDbEntity
  8
0
  6
CONTINUOUS
 62
     7
100
AcDbLine
 10
107.1830549729
 20
-68.3320595214
 30
0.0
 11
107.1830549729
 21
-67.1440595214
 31
0.0
  0
SPLINE
  5
171
330
1F
100
AcDbEntity
  8
0
  6
CONTINUOUS
 62
     7
100
AcDbSpline
210
0.0
220
0.0
230
1.0
 70
     8
 71
     3
 72
    11
 73
     7
 74
     0
 42
0.00000001
 43
0.00000001
 40
0.0
 40
0.0
 40
0.0
 40
0.0
 40
0.2833448308640375
 40
0.5580866109706034
 40
0.7754665892499427
 40
1.0
 40
1.0
 40
1.0
 40
1.0
 10
107.1830549729187
 20
-67.14405952142121
 30
0.0
 10
107.1920420107267
 20
-67.075484505697
 30
0.0
 10
107.2097432176187
 20
-66.94041658154931
 30
0.0
 10
107.3330887326093
 20
-66.79060252516905
 30
0.0
 10
107.4833968947472
 20
-66.69940942142823
 30
0.0
 10
107.5900600800173
 20
-66.68843536858168
 30
0.0
 10
107.6442549729187
 20
-66.68285952142122
 30
0.0
  0
LINE
  5
172
330
1F
100
AcDbEntity
  8
0
  6
CONTINUOUS
 62
     7
100
AcDbLine
 10
107.6442549729
 20
-66.6828595214
 30
0.0
 11
109.1033549729
 21
-66.6828595214
 31
0.0
  0
SPLINE
  5
173
330
1F
100
AcDbEntity
  8
0
  6
CONTINUOUS
 62
     7
100
AcDbSpline
210
0.0
220
0.0
230
1.0
 70
     8
 71
     3
 72
    11
 73
     7
 74
     0
 42
0.00000001
 43
0.00000001
 40
0.0
 40
0.0
 40
0.0
 40
0.0
 40
0.2832327603404952
 40
0.5580114153644161
 40
0.7754417085638463
 40
1.0
 40
1.0
 40
1.0
 40
1.0
 10
109.1033549729187
 20
-66.68285952142122
 30
0.0
 10
109.1719786089826
 20
-66.69186584627253
 30
0.0
 10
109.3071775606907
 20
-66.70960966966172
 30
0.0
 10
109.4571333557241
 20
-66.8331115827686
 30
0.0
 10
109.5484696540725
 20
-66.98359531650172
 30
0.0
 10
109.5594674126184
 20
-67.09039731726627
 30
0.0
 10
109.5650549729187
 20
-67.14465952142122
 30
0.0
  0
LINE
  5
174
330
1F
100
AcDbEntity
  8
0
  6
CONTINUOUS
 62
     7
100
AcDbLine
 10
108.9399549729
 20
-67.4158595214
 30
0.0
 11
108.9399549729
 21
-67.1032595214
 31
0.0
  0
LINE
  5
175
330
1F
100
AcDbEntity
  8
0
  6
CONTINUOUS
 62
     7
100
AcDbLine
 10
109.5650549729
 20
-67.4158595214
 30
0.0
 11
108.9399549729
 21
-67.4158595214
 31
0.0
  0
LINE
  5
176
330
1F
100
AcDbEntity
  8
0
  6
CONTINUOUS
 62
     7
100
AcDbLine
 10
104.5854549729
 20
-67.8702595214
 30
0.0
 11
104.5854549729
 21
-66.6828595214
 31
0.0
  0
LINE
  5
177
330
1F
100
AcDbEntity
  8
0
  6
CONTINUOUS
 62
     7
100
AcDbLine
 10
104.5854549729
 20
-66.6828595214
 30
0.0
 11
105.2107549729
 21
-66.6828595214
 31
0.0
  0
LINE
  5
178
330
1F
100
AcDbEntity
  8
0
  6
CONTINUOUS
 62
     7
100
AcDbLine
 10
105.2107549729
 20
-66.6828595214
 30
0.0
 11
105.2107549729
 21
-67.9224595214
 31
0.0
  0
LINE
  5
179
330
1F
100
AcDbEntity
  8
0
  6
CONTINUOUS
 62
     7
100
AcDbLine
 10
105.2107549729
 20
-67.9224595214
 30
0.0
 11
106.3961549729
 21
-67.9224595214
 31
0.0
  0
LINE
  5
17A
330
1F
100
AcDbEntity
  8
0
  6
CONTINUOUS
 62
     7
100
AcDbLine
 10
106.3961549729
 20
-67.9224595214
 30
0.0
 11
106.3961549729
 21
-66.6828595214
 31
0.0
  0
LINE
  5
17B
330
1F
100
AcDbEntity
  8
0
  6
CONTINUOUS
 62
     7
100
AcDbLine
 10
107.0106549729
 20
-66.6828595214
 30
0.0
 11
107.0106549729
 21
-68.3320595214
 31
0.0
  0
LINE
  5
17C
330
1F
100
AcDbEntity
  8
0
  6
CONTINUOUS
 62
     7
100
AcDbLine
 10
107.0106549729
 20
-68.3320595214
 30
0.0
 11
105.0471549729
 21
-68.3320595214
 31
0.0
  0
SPLINE
  5
17D
330
1F
100
AcDbEntity
  8
0
  6
CONTINUOUS
 62
     7
100
AcDbSpline
210
0.0
220
0.0
230
1.0
 70
     8
 71
     3
 72
    11
 73
     7
 74
     0
 42
0.00000001
 43
0.00000001
 40
0.0
 40
0.0
 40
0.0
 40
0.0
 40
0.2832834002916858
 40
0.5580419236669923
 40
0.7754510728848745
 40
0.9999999999999999
 40
0.9999999999999999
 40
0.9999999999999999
 40
0.9999999999999999
 10
105.0471549729187
 20
-68.33205952142121
 30
0.0
 10
104.9785159834467
 20
-68.32305628167123
 30
0.0
 10
104.8433035647731
 20
-68.30532073760423
 30
0.0
 10
104.6933395917729
 20
-68.18181021199833
 30
0.0
 10
104.6020308422497
 20
-68.03131860720602
 30
0.0
 10
104.5910394508837
 20
-67.92452098413357
 30
0.0
 10
104.5854549729187
 20
-67.87025952142122
 30
0.0
  0
LINE
  5
17E
330
1F
100
AcDbEntity
  8
0
  6
CONTINUOUS
 62
     7
100
AcDbLine
 10
106.3961549729
 20
-66.6828595214
 30
0.0
 11
107.0106549729
 21
-66.6828595214
 31
0.0
  0
LINE
  5
17F
330
1F
100
AcDbEntity
  8
0
  6
CONTINUOUS
 62
     7
100
AcDbLine
 10
102.1818549729
 20
-67.9224595214
 30
0.0
 11
102.1818549729
 21
-68.3320595214
 31
0.0
  0
LINE
  5
180
330
1F
100
AcDbEntity
  8
0
  6
CONTINUOUS
 62
     7
100
AcDbLine
 10
103.8094549729
 20
-67.9224595214
 30
0.0
 11
102.1818549729
 21
-67.9224595214
 31
0.0
  0
LINE
  5
181
330
1F
100
AcDbEntity
  8
0
  6
CONTINUOUS
 62
     7
100
AcDbLine
 10
103.8094549729
 20
-66.6828595214
 30
0.0
 11
103.8094549729
 21
-67.9224595214
 31
0.0
  0
LINE
  5
182
330
1F
100
AcDbEntity
  8
0
  6
CONTINUOUS
 62
     7
100
AcDbLine
 10
104.4345549729
 20
-67.8702595214
 30
0.0
 11
104.4345549729
 21
-66.6828595214
 31
0.0
  0
SPLINE
  5
183
330
1F
100
AcDbEntity
  8
0
  6
CONTINUOUS
 62
     7
100
AcDbSpline
210
0.0
220
0.0
230
1.0
 70
     8
 71
     3
 72
    11
 73
     7
 74
     0
 42
0.00000001
 43
0.00000001
 40
0.0
 40
0.0
 40
0.0
 40
0.0
 40
0.2832831090848541
 40
0.5580598110863123
 40
0.7754688048580621
 40
1.0
 40
1.0
 40
1.0
 40
1.0
 10
103.9727549729187
 20
-68.33205952142121
 30
0.0
 10
104.0413995559398
 20
-68.32305518896104
 30
0.0
 10
104.176627466833
 20
-68.30531690555996
 30
0.0
 10
104.3266217475617
 20
-68.18181484463064
 30
0.0
 10
104.4179693834656
 20
-68.03132518683014
 30
0.0
 10
104.428967362841
 20
-67.92452181567087
 30
0.0
 10
104.4345549729187
 20
-67.87025952142122
 30
0.0
  0
LINE
  5
184
330
1F
100
AcDbEntity
  8
0
  6
CONTINUOUS
 62
     7
100
AcDbLine
 10
102.1818549729
 20
-68.3320595214
 30
0.0
 11
103.9727549729
 21
-68.3320595214
 31
0.0
  0
LINE
  5
185
330
1F
100
AcDbEntity
  8
0
  6
CONTINUOUS
 62
     7
100
AcDbLine
 10
104.4345549729
 20
-66.6828595214
 30
0.0
 11
103.8094549729
 21
-66.6828595214
 31
0.0
  0
LINE
  5
186
330
1F
100
AcDbEntity
  8
0
  6
CONTINUOUS
 62
     7
100
AcDbLine
 10
102.5374549729
 20
-67.6853595214
 30
0.0
 11
103.5830549729
 21
-67.6853595214
 31
0.0
  0
LINE
  5
187
330
1F
100
AcDbEntity
  8
0
  6
CONTINUOUS
 62
     7
100
AcDbLine
 10
103.5830549729
 20
-67.3404595214
 30
0.0
 11
102.5374549729
 21
-67.3404595214
 31
0.0
  0
LINE
  5
188
330
1F
100
AcDbEntity
  8
0
  6
CONTINUOUS
 62
     7
100
AcDbLine
 10
102.5374549729
 20
-67.3404595214
 30
0.0
 11
102.5374549729
 21
-67.6853595214
 31
0.0
  0
LINE
  5
189
330
1F
100
AcDbEntity
  8
0
  6
CONTINUOUS
 62
     7
100
AcDbLine
 10
103.5830549729
 20
-67.6853595214
 30
0.0
 11
103.5830549729
 21
-67.3404595214
 31
0.0
  0
ENDSEC
  0
SECTION
  2
OBJECTS
  0
DICTIONARY
  5
C
330
0
100
AcDbDictionary
  3
ACAD_GROUP
350
D
  3
ACAD_MLINESTYLE
350
17
  3
ACAD_SCALELIST
350
47
  3
DWGPROPS
350
18A
  0
DICTIONARY
  5
D
102
{ACAD_REACTORS
330
C
102
}
330
C
100
AcDbDictionary
  0
DICTIONARY
  5
17
102
{ACAD_REACTORS
330
C
102
}
330
C
100
AcDbDictionary
  3
STANDARD
350
18
  0
DICTIONARY
  5
47
102
{ACAD_REACTORS
330
C
102
}
330
C
100
AcDbDictionary
  0
XRECORD
  5
18A
102
{ACAD_REACTORS
330
C
102
}
330
C
100
AcDbXrecord
  1
DWGPROPS COOKIE
  2

  3

  4

  6

  7

  8
Pedro.Queiros
  9

300
=
301
=
302
=
303
=
304
=
305
=
306
=
307
=
308
=
309
=
 40
0.0
 41
2459716.698764803
 42
2459716.698765463
  1

 90
        0
  0
MLINESTYLE
  5
18
102
{ACAD_REACTORS
330
17
102
}
330
17
100
AcDbMlineStyle
  2
Standard
 70
     0
  3

 62
   256
 51
90.0
 52
90.0
 71
     2
 49
0.5
 62
   256
  6
BYLAYER
 49
-0.5
 62
   256
  6
BYLAYER
  0
ENDSEC
  0
EOF
