  0
SECTION
  2
HEADER
  9
$ACADVER
  1
AC1015
  9
$ACADMAINTVER
 70
     6
  9
$DWGCODEPAGE
  3
ANSI_1252
  9
$INSBASE
 10
0.0
 20
0.0
 30
0.0
  9
$EXTMIN
 10
0.0
 20
0.0
 30
0.0
  9
$EXTMAX
 10
279.4
 20
215.9
 30
0.0
  9
$LIMMIN
 10
0.0
 20
0.0
  9
$LIMMAX
 10
279.4
 20
215.9
  9
$ORTHOMODE
 70
     0
  9
$REGENMODE
 70
     1
  9
$FILLMODE
 70
     1
  9
$QTEXTMODE
 70
     0
  9
$MIRRTEXT
 70
     1
  9
$LTSCALE
 40
1.0
  9
$ATTMODE
 70
     1
  9
$TEXTSIZE
 40
3.5
  9
$TRACEWID
 40
1.0
  9
$TEXTSTYLE
  7
Standard
  9
$CLAYER
  8
0
  9
$CELTYPE
  6
ByLayer
  9
$CECOLOR
 62
   256
  9
$CELTSCALE
 40
1.0
  9
$DISPSILH
 70
     0
  9
$DIMSCALE
 40
1.0
  9
$DIMASZ
 40
3.302
  9
$DIMEXO
 40
1.0
  9
$DIMDLI
 40
3.75
  9
$DIMRND
 40
0.0
  9
$DIMDLE
 40
0.0
  9
$DIMEXE
 40
1.0
  9
$DIMTP
 40
0.0
  9
$DIMTM
 40
0.0
  9
$DIMTXT
 40
3.5
  9
$DIMCEN
 40
2.5
  9
$DIMTSZ
 40
0.0
  9
$DIMTOL
 70
     0
  9
$DIMLIM
 70
     0
  9
$DIMTIH
 70
     1
  9
$DIMTOH
 70
     1
  9
$DIMSE1
 70
     0
  9
$DIMSE2
 70
     0
  9
$DIMTAD
 70
     1
  9
$DIMZIN
 70
     0
  9
$DIMBLK
  1

  9
$DIMASO
 70
     1
  9
$DIMSHO
 70
     1
  9
$DIMPOST
  1

  9
$DIMAPOST
  1

  9
$DIMALT
 70
     0
  9
$DIMALTD
 70
     3
  9
$DIMALTF
 40
0.0393700787
  9
$DIMLFAC
 40
1.0
  9
$DIMTOFL
 70
     1
  9
$DIMTVP
 40
0.0
  9
$DIMTIX
 70
     0
  9
$DIMSOXD
 70
     0
  9
$DIMSAH
 70
     0
  9
$DIMBLK1
  1

  9
$DIMBLK2
  1

  9
$DIMSTYLE
  2
ISO-25
  9
$DIMCLRD
 70
     0
  9
$DIMCLRE
 70
     0
  9
$DIMCLRT
 70
     0
  9
$DIMTFAC
 40
1.0
  9
$DIMGAP
 40
1.524
  9
$DIMJUST
 70
     0
  9
$DIMSD1
 70
     0
  9
$DIMSD2
 70
     0
  9
$DIMTOLJ
 70
     0
  9
$DIMTZIN
 70
     0
  9
$DIMALTZ
 70
     0
  9
$DIMALTTZ
 70
     0
  9
$DIMUPT
 70
     0
  9
$DIMDEC
 70
     2
  9
$DIMTDEC
 70
     2
  9
$DIMALTU
 70
     2
  9
$DIMALTTD
 70
     3
  9
$DIMTXSTY
  7
Standard
  9
$DIMAUNIT
 70
     0
  9
$DIMADEC
 70
     2
  9
$DIMALTRND
 40
0.0
  9
$DIMAZIN
 70
     0
  9
$DIMDSEP
 70
    44
  9
$DIMATFIT
 70
     3
  9
$DIMFRAC
 70
     0
  9
$DIMLDRBLK
  1

  9
$DIMLUNIT
 70
     2
  9
$DIMLWD
 70
    -2
  9
$DIMLWE
 70
    -2
  9
$DIMTMOVE
 70
     0
  9
$LUNITS
 70
     2
  9
$LUPREC
 70
     2
  9
$SKETCHINC
 40
1.0
  9
$FILLETRAD
 40
10.0
  9
$AUNITS
 70
     0
  9
$AUPREC
 70
     2
  9
$MENU
  1
.
  9
$ELEVATION
 40
0.0
  9
$PELEVATION
 40
0.0
  9
$THICKNESS
 40
0.0
  9
$LIMCHECK
 70
     0
  9
$CHAMFERA
 40
0.0
  9
$CHAMFERB
 40
0.0
  9
$CHAMFERC
 40
0.0
  9
$CHAMFERD
 40
0.0
  9
$SKPOLY
 70
     0
  9
$TDCREATE
 40
2458204.646975209
  9
$TDUCREATE
 40
2458204.605308542
  9
$TDUPDATE
 40
2458204.646975452
  9
$TDUUPDATE
 40
2458204.605308785
  9
$TDINDWG
 40
0.0000000116
  9
$TDUSRTIMER
 40
0.0000000116
  9
$USRTIMER
 70
     1
  9
$ANGBASE
 50
0.0
  9
$ANGDIR
 70
     0
  9
$PDMODE
 70
     0
  9
$PDSIZE
 40
-1.0
  9
$PLINEWID
 40
0.0
  9
$SPLFRAME
 70
     0
  9
$SPLINETYPE
 70
     6
  9
$SPLINESEGS
 70
     8
  9
$HANDSEED
  5
216
  9
$SURFTAB1
 70
     6
  9
$SURFTAB2
 70
     6
  9
$SURFTYPE
 70
     6
  9
$SURFU
 70
     6
  9
$SURFV
 70
     6
  9
$UCSBASE
  2

  9
$UCSNAME
  2

  9
$UCSORG
 10
0.0
 20
0.0
 30
0.0
  9
$UCSXDIR
 10
1.0
 20
0.0
 30
0.0
  9
$UCSYDIR
 10
0.0
 20
1.0
 30
0.0
  9
$UCSORTHOREF
  2

  9
$UCSORTHOVIEW
 70
     0
  9
$UCSORGTOP
 10
0.0
 20
0.0
 30
0.0
  9
$UCSORGBOTTOM
 10
0.0
 20
0.0
 30
0.0
  9
$UCSORGLEFT
 10
0.0
 20
0.0
 30
0.0
  9
$UCSORGRIGHT
 10
0.0
 20
0.0
 30
0.0
  9
$UCSORGFRONT
 10
0.0
 20
0.0
 30
0.0
  9
$UCSORGBACK
 10
0.0
 20
0.0
 30
0.0
  9
$PUCSBASE
  2

  9
$PUCSNAME
  2

  9
$PUCSORG
 10
0.0
 20
0.0
 30
0.0
  9
$PUCSXDIR
 10
1.0
 20
0.0
 30
0.0
  9
$PUCSYDIR
 10
0.0
 20
1.0
 30
0.0
  9
$PUCSORTHOREF
  2

  9
$PUCSORTHOVIEW
 70
     0
  9
$PUCSORGTOP
 10
0.0
 20
0.0
 30
0.0
  9
$PUCSORGBOTTOM
 10
0.0
 20
0.0
 30
0.0
  9
$PUCSORGLEFT
 10
0.0
 20
0.0
 30
0.0
  9
$PUCSORGRIGHT
 10
0.0
 20
0.0
 30
0.0
  9
$PUCSORGFRONT
 10
0.0
 20
0.0
 30
0.0
  9
$PUCSORGBACK
 10
0.0
 20
0.0
 30
0.0
  9
$USERI1
 70
     0
  9
$USERI2
 70
     0
  9
$USERI3
 70
     0
  9
$USERI4
 70
     0
  9
$USERI5
 70
     0
  9
$USERR1
 40
0.0
  9
$USERR2
 40
0.0
  9
$USERR3
 40
0.0
  9
$USERR4
 40
0.0
  9
$USERR5
 40
0.0
  9
$WORLDVIEW
 70
     1
  9
$SHADEDGE
 70
     3
  9
$SHADEDIF
 70
    70
  9
$TILEMODE
 70
     1
  9
$MAXACTVP
 70
    64
  9
$PINSBASE
 10
0.0
 20
0.0
 30
0.0
  9
$PLIMCHECK
 70
     0
  9
$PEXTMIN
 10
1.0000000000E+20
 20
1.0000000000E+20
 30
1.0000000000E+20
  9
$PEXTMAX
 10
-1.0000000000E+20
 20
-1.0000000000E+20
 30
-1.0000000000E+20
  9
$PLIMMIN
 10
0.0
 20
0.0
  9
$PLIMMAX
 10
420.0
 20
297.0
  9
$UNITMODE
 70
     0
  9
$VISRETAIN
 70
     1
  9
$PLINEGEN
 70
     0
  9
$PSLTSCALE
 70
     1
  9
$TREEDEPTH
 70
  3020
  9
$CMLSTYLE
  2
Standard
  9
$CMLJUST
 70
     0
  9
$CMLSCALE
 40
20.0
  9
$PROXYGRAPHICS
 70
     1
  9
$MEASUREMENT
 70
     1
  9
$CELWEIGHT
370
    -1
  9
$ENDCAPS
280
     0
  9
$JOINSTYLE
280
     0
  9
$LWDISPLAY
290
     1
  9
$INSUNITS
 70
     4
  9
$HYPERLINKBASE
  1

  9
$STYLESHEET
  1

  9
$XEDIT
290
     1
  9
$CEPSNTYPE
380
     0
  9
$PSTYLEMODE
290
     1
  9
$FINGERPRINTGUID
  2
{3FFE870B-0AAF-4F86-8030-FB2A8B48F2CA}
  9
$VERSIONGUID
  2
{FAEB1C32-E019-11D5-929B-00C0DF256EC4}
  9
$EXTNAMES
290
     1
  9
$PSVPSCALE
 40
0.0
  9
$OLESTARTUP
290
     0
  0
ENDSEC
  0
SECTION
  2
CLASSES
  0
CLASS
  1
ACDBDICTIONARYWDFLT
  2
AcDbDictionaryWithDefault
  3
ObjectDBX Classes
 90
        0
280
     0
281
     0
  0
CLASS
  1
VISUALSTYLE
  2
AcDbVisualStyle
  3
ObjectDBX Classes
 90
     4095
280
     0
281
     0
  0
CLASS
  1
MATERIAL
  2
AcDbMaterial
  3
ObjectDBX Classes
 90
     1153
280
     0
281
     0
  0
CLASS
  1
SCALE
  2
AcDbScale
  3
ObjectDBX Classes
 90
     1153
280
     0
281
     0
  0
CLASS
  1
TABLESTYLE
  2
AcDbTableStyle
  3
ObjectDBX Classes
 90
     4095
280
     0
281
     0
  0
CLASS
  1
MLEADERSTYLE
  2
AcDbMLeaderStyle
  3
ACDB_MLEADERSTYLE_CLASS
 90
     4095
280
     0
281
     0
  0
CLASS
  1
SUN
  2
AcDbSun
  3
SCENEOE
 90
     1153
280
     0
281
     0
  0
CLASS
  1
ACDBPLACEHOLDER
  2
AcDbPlaceHolder
  3
ObjectDBX Classes
 90
        0
280
     0
281
     0
  0
CLASS
  1
LAYOUT
  2
AcDbLayout
  3
ObjectDBX Classes
 90
        0
280
     0
281
     0
  0
ENDSEC
  0
SECTION
  2
TABLES
  0
TABLE
  2
VPORT
  5
8
330
0
100
AcDbSymbolTable
 70
     1
  0
VPORT
  5
29
330
8
100
AcDbSymbolTableRecord
100
AcDbViewportTableRecord
  2
*Active
 70
     0
 10
0.0
 20
0.0
 11
1.0
 21
1.0
 12
139.7
 22
107.95
 13
0.0
 23
0.0
 14
10.0
 24
10.0
 15
10.0
 25
10.0
 16
0.0
 26
0.0
 36
1.0
 17
0.0
 27
0.0
 37
0.0
 40
215.9
 41
1.2941176471
 42
50.0
 43
0.0
 44
0.0
 50
0.0
 51
0.0
 71
     0
 72
  2000
 73
     1
 74
     3
 75
     0
 76
     0
 77
     0
 78
     0
281
     0
 65
     1
110
0.0
120
0.0
130
0.0
111
1.0
121
0.0
131
0.0
112
0.0
122
1.0
132
0.0
 79
     0
146
0.0
  0
ENDTAB
  0
TABLE
  2
LTYPE
  5
5
330
0
100
AcDbSymbolTable
 70
     6
  0
LTYPE
  5
14
330
5
100
AcDbSymbolTableRecord
100
AcDbLinetypeTableRecord
  2
ByBlock
 70
     0
  3

 72
    65
 73
     0
 40
0.0
  0
LTYPE
  5
15
330
5
100
AcDbSymbolTableRecord
100
AcDbLinetypeTableRecord
  2
ByLayer
 70
     0
  3

 72
    65
 73
     0
 40
0.0
  0
LTYPE
  5
16
330
5
100
AcDbSymbolTableRecord
100
AcDbLinetypeTableRecord
  2
Continuous
 70
     0
  3
Solid line
 72
    65
 73
     0
 40
0.0
  0
LTYPE
  5
6E
330
5
100
AcDbSymbolTableRecord
100
AcDbLinetypeTableRecord
  2
HIDDEN
 70
     0
  3
Hidden __ __ __ __ __ __ __ __ __ __ __ __ __ __
 72
    65
 73
     2
 40
1.905
 49
1.27
 74
     0
 49
-0.635
 74
     0
  0
LTYPE
  5
6F
330
5
100
AcDbSymbolTableRecord
100
AcDbLinetypeTableRecord
  2
PHANTOM
 70
     0
  3
Phantom ______  __  __  ______  __  __  ______
 72
    65
 73
     6
 40
12.7
 49
6.35
 74
     0
 49
-1.27
 74
     0
 49
1.27
 74
     0
 49
-1.27
 74
     0
 49
1.27
 74
     0
 49
-1.27
 74
     0
  0
LTYPE
  5
70
330
5
100
AcDbSymbolTableRecord
100
AcDbLinetypeTableRecord
  2
CENTER
 70
     0
  3
Center ____ _ ____ _ ____ _ ____ _ ____ _ ____
 72
    65
 73
     4
 40
10.16
 49
6.35
 74
     0
 49
-1.27
 74
     0
 49
1.27
 74
     0
 49
-1.27
 74
     0
  0
LTYPE
  5
71
330
5
100
AcDbSymbolTableRecord
100
AcDbLinetypeTableRecord
  2
CENTERX2
 70
     0
  3
Center (2x) ________  __  ________  __  _____
 72
    65
 73
     4
 40
20.32
 49
12.7
 74
     0
 49
-2.54
 74
     0
 49
2.54
 74
     0
 49
-2.54
 74
     0
  0
LTYPE
  5
72
330
5
100
AcDbSymbolTableRecord
100
AcDbLinetypeTableRecord
  2
DOT2
 70
     0
  3
Dot (.5x) ........................................
 72
    65
 73
     2
 40
0.635
 49
0.0
 74
     0
 49
-0.635
 74
     0
  0
ENDTAB
  0
TABLE
  2
LAYER
  5
2
330
0
100
AcDbSymbolTable
 70
     1
  0
LAYER
  5
10
330
2
100
AcDbSymbolTableRecord
100
AcDbLayerTableRecord
  2
0
 70
     0
 62
     7
  6
Continuous
370
    -3
390
F
  0
ENDTAB
  0
TABLE
  2
STYLE
  5
3
330
0
100
AcDbSymbolTable
 70
     1
  0
STYLE
  5
11
330
3
100
AcDbSymbolTableRecord
100
AcDbTextStyleTableRecord
  2
Standard
 70
     0
 40
0.0
 41
1.0
 50
0.0
 71
     0
 42
3.5
  3
txt
  4

  0
ENDTAB
  0
TABLE
  2
VIEW
  5
6
330
0
100
AcDbSymbolTable
 70
     0
  0
ENDTAB
  0
TABLE
  2
UCS
  5
7
330
0
100
AcDbSymbolTable
 70
     0
  0
ENDTAB
  0
TABLE
  2
APPID
  5
9
330
0
100
AcDbSymbolTable
 70
     1
  0
APPID
  5
12
330
9
100
AcDbSymbolTableRecord
100
AcDbRegAppTableRecord
  2
ACAD
 70
     0
  0
ENDTAB
  0
TABLE
  2
DIMSTYLE
  5
A
330
0
100
AcDbSymbolTable
 70
     1
100
AcDbDimStyleTable
  0
DIMSTYLE
105
27
330
A
100
AcDbSymbolTableRecord
100
AcDbDimStyleTableRecord
  2
ISO-25
 70
     0
 41
2.5
 42
0.625
 43
3.75
 44
1.25
 73
     0
 74
     0
 77
     1
 78
     8
140
2.5
141
2.5
143
0.0393700787
147
0.625
171
     3
172
     1
178
     0
271
     2
272
     2
274
     3
278
    44
283
     0
284
     8
340
11
  0
ENDTAB
  0
TABLE
  2
BLOCK_RECORD
  5
1
330
0
100
AcDbSymbolTable
 70
     3
  0
BLOCK_RECORD
  5
1F
330
1
100
AcDbSymbolTableRecord
100
AcDbBlockTableRecord
  2
*Model_Space
340
22
  0
BLOCK_RECORD
  5
1B
330
1
100
AcDbSymbolTableRecord
100
AcDbBlockTableRecord
  2
*Paper_Space
340
1E
  0
BLOCK_RECORD
  5
23
330
1
100
AcDbSymbolTableRecord
100
AcDbBlockTableRecord
  2
*Paper_Space0
340
26
  0
BLOCK_RECORD
  5
189
330
1
100
AcDbSymbolTableRecord
100
AcDbBlockTableRecord
  2
SW_CENTERMARKSYMBOL_0
340
0
102
{BLKREFS
331
194
102
}
  0
BLOCK_RECORD
  5
209
330
1
100
AcDbSymbolTableRecord
100
AcDbBlockTableRecord
  2
SW_CENTERMARKSYMBOL_1
340
0
102
{BLKREFS
331
214
102
}
  0
ENDTAB
  0
ENDSEC
  0
SECTION
  2
BLOCKS
  0
BLOCK
  5
20
330
1F
100
AcDbEntity
  8
0
100
AcDbBlockBegin
  2
*Model_Space
 70
     0
 10
0.0
 20
0.0
 30
0.0
  3
*Model_Space
  1

  0
ENDBLK
  5
21
330
1F
100
AcDbEntity
  8
0
100
AcDbBlockEnd
  0
BLOCK
  5
1C
330
1B
100
AcDbEntity
 67
     1
  8
0
100
AcDbBlockBegin
  2
*Paper_Space
 70
     0
 10
0.0
 20
0.0
 30
0.0
  3
*Paper_Space
  1

  0
ENDBLK
  5
1D
330
1B
100
AcDbEntity
 67
     1
  8
0
100
AcDbBlockEnd
  0
BLOCK
  5
24
330
23
100
AcDbEntity
  8
0
100
AcDbBlockBegin
  2
*Paper_Space0
 70
     0
 10
0.0
 20
0.0
 30
0.0
  3
*Paper_Space0
  1

  0
ENDBLK
  5
25
330
23
100
AcDbEntity
  8
0
100
AcDbBlockEnd
  0
BLOCK
  5
18A
330
189
100
AcDbEntity
  8
0
100
AcDbBlockBegin
  2
SW_CENTERMARKSYMBOL_0
 70
     0
 10
0.0
 20
0.0
 30
0.0
  3
SW_CENTERMARKSYMBOL_0
  1

  0
LINE
  5
18C
330
189
100
AcDbEntity
  8
0
  6
Continuous
 62
     0
370
     0
100
AcDbLine
 10
0.0
 20
0.0
 30
0.0
 11
0.0
 21
2.5
 31
0.0
  0
LINE
  5
18D
330
189
100
AcDbEntity
  8
0
  6
Continuous
 62
     0
370
     0
100
AcDbLine
 10
0.0
 20
0.0
 30
0.0
 11
-2.5
 21
0.0
 31
0.0
  0
LINE
  5
18E
330
189
100
AcDbEntity
  8
0
  6
Continuous
 62
     0
370
     0
100
AcDbLine
 10
0.0
 20
0.0
 30
0.0
 11
0.0
 21
-2.5
 31
0.0
  0
LINE
  5
18F
330
189
100
AcDbEntity
  8
0
  6
Continuous
 62
     0
370
     0
100
AcDbLine
 10
0.0
 20
0.0
 30
0.0
 11
2.5
 21
0.0
 31
0.0
  0
LINE
  5
190
330
189
100
AcDbEntity
  8
0
  6
Continuous
 62
     0
370
     0
100
AcDbLine
 10
0.0
 20
5.0
 30
0.0
 11
0.0
 21
5.9
 31
0.0
  0
LINE
  5
191
330
189
100
AcDbEntity
  8
0
  6
Continuous
 62
     0
370
     0
100
AcDbLine
 10
-5.0
 20
0.0
 30
0.0
 11
-5.9
 21
0.0
 31
0.0
  0
LINE
  5
192
330
189
100
AcDbEntity
  8
0
  6
Continuous
 62
     0
370
     0
100
AcDbLine
 10
0.0
 20
-5.0
 30
0.0
 11
0.0
 21
-5.9
 31
0.0
  0
LINE
  5
193
330
189
100
AcDbEntity
  8
0
  6
Continuous
 62
     0
370
     0
100
AcDbLine
 10
5.0
 20
0.0
 30
0.0
 11
5.9
 21
0.0
 31
0.0
  0
ENDBLK
  5
18B
330
189
100
AcDbEntity
  8
0
100
AcDbBlockEnd
  0
BLOCK
  5
20A
330
209
100
AcDbEntity
  8
0
100
AcDbBlockBegin
  2
SW_CENTERMARKSYMBOL_1
 70
     0
 10
0.0
 20
0.0
 30
0.0
  3
SW_CENTERMARKSYMBOL_1
  1

  0
LINE
  5
20C
330
209
100
AcDbEntity
  8
0
  6
Continuous
 62
     0
370
     0
100
AcDbLine
 10
0.0
 20
0.0
 30
0.0
 11
0.0
 21
2.5
 31
0.0
  0
LINE
  5
20D
330
209
100
AcDbEntity
  8
0
  6
Continuous
 62
     0
370
     0
100
AcDbLine
 10
0.0
 20
0.0
 30
0.0
 11
-2.5
 21
0.0
 31
0.0
  0
LINE
  5
20E
330
209
100
AcDbEntity
  8
0
  6
Continuous
 62
     0
370
     0
100
AcDbLine
 10
0.0
 20
0.0
 30
0.0
 11
0.0
 21
-2.5
 31
0.0
  0
LINE
  5
20F
330
209
100
AcDbEntity
  8
0
  6
Continuous
 62
     0
370
     0
100
AcDbLine
 10
0.0
 20
0.0
 30
0.0
 11
2.5
 21
0.0
 31
0.0
  0
LINE
  5
210
330
209
100
AcDbEntity
  8
0
  6
Continuous
 62
     0
370
     0
100
AcDbLine
 10
0.0
 20
5.0
 30
0.0
 11
0.0
 21
5.9
 31
0.0
  0
LINE
  5
211
330
209
100
AcDbEntity
  8
0
  6
Continuous
 62
     0
370
     0
100
AcDbLine
 10
-5.0
 20
0.0
 30
0.0
 11
-5.9
 21
0.0
 31
0.0
  0
LINE
  5
212
330
209
100
AcDbEntity
  8
0
  6
Continuous
 62
     0
370
     0
100
AcDbLine
 10
0.0
 20
-5.0
 30
0.0
 11
0.0
 21
-5.9
 31
0.0
  0
LINE
  5
213
330
209
100
AcDbEntity
  8
0
  6
Continuous
 62
     0
370
     0
100
AcDbLine
 10
5.0
 20
0.0
 30
0.0
 11
5.9
 21
0.0
 31
0.0
  0
ENDBLK
  5
20B
330
209
100
AcDbEntity
  8
0
100
AcDbBlockEnd
  0
ENDSEC
  0
SECTION
  2
ENTITIES
  0
ARC
  5
73
330
1F
100
AcDbEntity
  8
0
  6
Continuous
 62
     7
370
    15
100
AcDbCircle
 10
137.8639321291
 20
140.3236259318
 30
0.0
 40
42.50000000000001
100
AcDbArc
 50
90.6659614306
 51
179.3338451335
  0
SPLINE
  5
74
330
1F
100
AcDbEntity
  8
0
  6
Continuous
 62
     7
370
    15
100
AcDbSpline
210
0.0
220
0.0
230
1.0
 70
     8
 71
     3
 72
    16
 73
    12
 74
     0
 42
0.000000001
 43
0.00000001
 40
0.0
 40
0.0
 40
0.0
 40
0.0
 40
0.2500000000000001
 40
0.2500000000000001
 40
0.3749999999999994
 40
0.3749999999999994
 40
0.4999999999999988
 40
0.4999999999999988
 40
0.7499999999999993
 40
0.7499999999999993
 40
1.0
 40
1.0
 40
1.0
 40
1.0
 10
130.5718726222978
 20
116.3236259317528
 30
0.0
 10
130.5718726222979
 20
116.1549989988975
 30
0.0
 10
130.5431067835512
 20
115.9927570049372
 30
0.0
 10
130.4766294902679
 20
115.7961482172497
 30
0.0
 10
130.4502531851494
 20
115.7364601126318
 30
0.0
 10
130.3935093538187
 20
115.6323123226972
 30
0.0
 10
130.3629336424692
 20
115.5870739052829
 30
0.0
 10
130.2657208473968
 20
115.4680030533337
 30
0.0
 10
130.1949217526239
 20
115.4125250942513
 30
0.0
 10
130.0501212061359
 20
115.3405043155093
 30
0.0
 10
129.9756589686255
 20
115.3236259317528
 30
0.0
 10
129.9006571665274
 20
115.3236259317528
 30
0.0
  0
LINE
  5
75
330
1F
100
AcDbEntity
  8
0
  6
Continuous
 62
     7
370
    15
100
AcDbLine
 10
129.9006569648
 20
115.3236259318
 30
0.0
 11
95.8272072935
 21
115.3236259318
 31
0.0
  0
SPLINE
  5
76
330
1F
100
AcDbEntity
  8
0
  6
Continuous
 62
     7
370
    15
100
AcDbSpline
210
0.0
220
0.0
230
1.0
 70
     8
 71
     3
 72
    16
 73
    12
 74
     0
 42
0.000000001
 43
0.00000001
 40
0.0
 40
0.0
 40
0.0
 40
0.0
 40
0.2499999999999994
 40
0.2499999999999994
 40
0.3749999999999992
 40
0.3749999999999992
 40
0.4999999999999989
 40
0.4999999999999989
 40
0.7499999999999994
 40
0.7499999999999994
 40
1.0
 40
1.0
 40
1.0
 40
1.0
 10
95.15599163595529
 20
116.3236259317528
 30
0.0
 10
95.15599163595527
 20
116.1549989988975
 30
0.0
 10
95.18475747470191
 20
115.9927570049372
 30
0.0
 10
95.25123476798525
 20
115.7961482172497
 30
0.0
 10
95.27761107310371
 20
115.7364601126318
 30
0.0
 10
95.33435490443443
 20
115.6323123226972
 30
0.0
 10
95.36493061578386
 20
115.5870739052829
 30
0.0
 10
95.46214341085631
 20
115.4680030533337
 30
0.0
 10
95.53294250562928
 20
115.4125250942513
 30
0.0
 10
95.67774305211718
 20
115.3405043155093
 30
0.0
 10
95.75220528963055
 20
115.3236259317528
 30
0.0
 10
95.82720709172574
 20
115.3236259317528
 30
0.0
  0
LINE
  5
77
330
1F
100
AcDbEntity
  8
0
  6
Continuous
 62
     7
370
    15
100
AcDbLine
 10
95.1559919381
 20
116.3236259793
 30
0.0
 11
130.5718723202
 21
116.3236259793
 31
0.0
  0
SPLINE
  5
78
330
1F
100
AcDbEntity
  8
0
  6
Continuous
 62
     7
370
    15
100
AcDbSpline
210
0.0
220
0.0
230
1.0
 70
     8
 71
     3
 72
    12
 73
     8
 74
     0
 42
0.000000001
 43
0.00000001
 40
0.0
 40
0.0
 40
0.0
 40
0.0
 40
0.2500000000000001
 40
0.2500000000000001
 40
0.5000000000000001
 40
0.5000000000000001
 40
1.0
 40
1.0
 40
1.0
 40
1.0
 10
130.1998755812378
 20
120.2931224179987
 30
0.0
 10
130.1594974236148
 20
120.3060880833974
 30
0.0
 10
130.1227473015364
 20
120.3121531679389
 30
0.0
 10
130.0588398205441
 20
120.3198642515091
 30
0.0
 10
130.0307723712938
 20
120.3214163749882
 30
0.0
 10
129.9565030998883
 20
120.3241502052981
 30
0.0
 10
129.9189341607095
 20
120.3236259317528
 30
0.0
 10
129.8909591561506
 20
120.3236259317528
 30
0.0
  0
SPLINE
  5
79
330
1F
100
AcDbEntity
  8
0
  6
Continuous
 62
     7
370
    15
100
AcDbSpline
210
0.0
220
0.0
230
1.0
 70
     8
 71
     3
 72
    10
 73
     6
 74
     0
 42
0.000000001
 43
0.00000001
 40
0.0
 40
0.0
 40
0.0
 40
0.0
 40
0.5
 40
0.5
 40
1.0
 40
1.0
 40
1.0
 40
1.0
 10
130.5718726222978
 20
119.8236259317528
 30
0.0
 10
130.5718726222978
 20
119.9330627123365
 30
0.0
 10
130.5295417949376
 20
120.0391981726615
 30
0.0
 10
130.3929946887503
 20
120.2024747999444
 30
0.0
 10
130.3006419784499
 20
120.2607657314487
 30
0.0
 10
130.1998755812378
 20
120.2931224179987
 30
0.0
  0
LINE
  5
7A
330
1F
100
AcDbEntity
  8
0
  6
Continuous
 62
     7
370
    15
100
AcDbLine
 10
130.5718723202
 20
119.823625738
 30
0.0
 11
95.1559919381
 21
119.823625738
 31
0.0
  0
SPLINE
  5
7B
330
1F
100
AcDbEntity
  8
0
  6
Continuous
 62
     7
370
    15
100
AcDbSpline
210
0.0
220
0.0
230
1.0
 70
     8
 71
     3
 72
    10
 73
     6
 74
     0
 42
0.000000001
 43
0.00000001
 40
0.0
 40
0.0
 40
0.0
 40
0.0
 40
0.5
 40
0.5
 40
1.0
 40
1.0
 40
1.0
 40
1.0
 10
95.72479562812394
 20
120.3236259317528
 30
0.0
 10
95.5860487864208
 20
120.3236259317528
 30
0.0
 10
95.44658347030379
 20
120.2793146973834
 30
0.0
 10
95.23016873834192
 20
120.1035509285147
 30
0.0
 10
95.15599163595527
 20
119.967822171953
 30
0.0
 10
95.15599163595527
 20
119.8236259317528
 30
0.0
  0
LINE
  5
7C
330
1F
100
AcDbEntity
  8
0
  6
Continuous
 62
     7
370
    15
100
AcDbLine
 10
95.7247953379
 20
120.32362582
 30
0.0
 11
129.8909600341
 21
120.32362582
 31
0.0
  0
SPLINE
  5
7D
330
1F
100
AcDbEntity
  8
0
  6
Continuous
 62
     7
370
    15
100
AcDbSpline
210
0.0
220
0.0
230
1.0
 70
     8
 71
     3
 72
    16
 73
    12
 74
     0
 42
0.000000001
 43
0.00000001
 40
0.0
 40
0.0
 40
0.0
 40
0.0
 40
0.2500000000000022
 40
0.2500000000000022
 40
0.3750000000000018
 40
0.3750000000000018
 40
0.5000000000000014
 40
0.5000000000000014
 40
0.7500000000000007
 40
0.7500000000000007
 40
1.0
 40
1.0
 40
1.0
 40
1.0
 10
161.8639321291265
 20
147.6156854385815
 30
0.0
 10
162.0325590619819
 20
147.6156854385815
 30
0.0
 10
162.1948010559422
 20
147.6444512773282
 30
0.0
 10
162.3914098436296
 20
147.7109285706115
 30
0.0
 10
162.4510979482475
 20
147.7373048757299
 30
0.0
 10
162.5552457381822
 20
147.7940487070607
 30
0.0
 10
162.6004841555964
 20
147.8246244184101
 30
0.0
 10
162.7195550075456
 20
147.9218372134826
 30
0.0
 10
162.7750329666281
 20
147.9926363082556
 30
0.0
 10
162.8470537453701
 20
148.1374368547434
 30
0.0
 10
162.8639321291265
 20
148.2118990922615
 30
0.0
 10
162.8639321291265
 20
148.286900894352
 30
0.0
  0
LINE
  5
7E
330
1F
100
AcDbEntity
  8
0
  6
Continuous
 62
     7
370
    15
100
AcDbLine
 10
161.8639308476
 20
147.6156864858
 30
0.0
 11
161.8639308476
 21
183.0315668678
 31
0.0
  0
SPLINE
  5
7F
330
1F
100
AcDbEntity
  8
0
  6
Continuous
 62
     7
370
    15
100
AcDbSpline
210
0.0
220
0.0
230
1.0
 70
     8
 71
     3
 72
    16
 73
    12
 74
     0
 42
0.000000001
 43
0.00000001
 40
0.0
 40
0.0
 40
0.0
 40
0.0
 40
0.2500000000000026
 40
0.2500000000000026
 40
0.3750000000000011
 40
0.3750000000000011
 40
0.4999999999999997
 40
0.4999999999999997
 40
0.7499999999999998
 40
0.7499999999999998
 40
1.0
 40
1.0
 40
1.0
 40
1.0
 10
161.8639321291265
 20
183.0315664249241
 30
0.0
 10
162.0325590619819
 20
183.0315664249241
 30
0.0
 10
162.1948010559422
 20
183.0028005861774
 30
0.0
 10
162.3914098436296
 20
182.9363232928941
 30
0.0
 10
162.4510979482475
 20
182.9099469877756
 30
0.0
 10
162.5552457381822
 20
182.8532031564449
 30
0.0
 10
162.6004841555964
 20
182.8226274450955
 30
0.0
 10
162.7195550075456
 20
182.725414650023
 30
0.0
 10
162.7750329666281
 20
182.65461555525
 30
0.0
 10
162.8470537453701
 20
182.5098150087622
 30
0.0
 10
162.8639321291265
 20
182.4353527712411
 30
0.0
 10
162.8639321291265
 20
182.3603509691536
 30
0.0
  0
LINE
  5
80
330
1F
100
AcDbEntity
  8
0
  6
Continuous
 62
     7
370
    15
100
AcDbLine
 10
162.8639328742
 20
182.3603515124
 30
0.0
 11
162.8639328742
 21
148.2869018412
 31
0.0
  0
SPLINE
  5
81
330
1F
100
AcDbEntity
  8
0
  6
Continuous
 62
     7
370
    15
100
AcDbSpline
210
0.0
220
0.0
230
1.0
 70
     8
 71
     3
 72
    10
 73
     6
 74
     0
 42
0.000000001
 43
0.00000001
 40
0.0
 40
0.0
 40
0.0
 40
0.0
 40
0.5
 40
0.5
 40
1.0
 40
1.0
 40
1.0
 40
1.0
 10
157.8944356428806
 20
147.9876824796415
 30
0.0
 10
157.9267923294306
 20
147.8869160824295
 30
0.0
 10
157.985083260935
 20
147.7945633721291
 30
0.0
 10
158.1483598882178
 20
147.6580162659417
 30
0.0
 10
158.2544953485429
 20
147.6156854385815
 30
0.0
 10
158.3639321291266
 20
147.6156854385815
 30
0.0
  0
SPLINE
  5
82
330
1F
100
AcDbEntity
  8
0
  6
Continuous
 62
     7
370
    15
100
AcDbSpline
210
0.0
220
0.0
230
1.0
 70
     8
 71
     3
 72
    12
 73
     8
 74
     0
 42
0.000000001
 43
0.00000001
 40
0.0
 40
0.0
 40
0.0
 40
0.0
 40
0.500000000000002
 40
0.500000000000002
 40
0.750000000000001
 40
0.750000000000001
 40
1.0
 40
1.0
 40
1.0
 40
1.0
 10
157.8639321291266
 20
148.2965989045586
 30
0.0
 10
157.8639321291265
 20
148.2686415706256
 30
0.0
 10
157.8634064846897
 20
148.2311360267871
 30
0.0
 10
157.866139801465
 20
148.1568150026162
 30
0.0
 10
157.8676747021071
 20
148.1289152067348
 30
0.0
 10
157.8753970041771
 20
148.0648376637552
 30
0.0
 10
157.8815124870038
 20
148.0279282525296
 30
0.0
 10
157.8944356428805
 20
147.9876824796415
 30
0.0
  0
LINE
  5
83
330
1F
100
AcDbEntity
  8
0
  6
Continuous
 62
     7
370
    15
100
AcDbLine
 10
157.8639339173
 20
148.2965987718
 30
0.0
 11
157.8639339173
 21
182.4627597427
 31
0.0
  0
SPLINE
  5
84
330
1F
100
AcDbEntity
  8
0
  6
Continuous
 62
     7
370
    15
100
AcDbSpline
210
0.0
220
0.0
230
1.0
 70
     8
 71
     3
 72
    10
 73
     6
 74
     0
 42
0.000000001
 43
0.00000001
 40
0.0
 40
0.0
 40
0.0
 40
0.0
 40
0.5
 40
0.5
 40
1.0
 40
1.0
 40
1.0
 40
1.0
 10
158.3639321291266
 20
183.0315664249241
 30
0.0
 10
158.2197358889264
 20
183.0315664249241
 30
0.0
 10
158.0840071323646
 20
182.9573893225374
 30
0.0
 10
157.908243363496
 20
182.7409745905755
 30
0.0
 10
157.8639321291266
 20
182.6015092744585
 30
0.0
 10
157.8639321291266
 20
182.4627624327554
 30
0.0
  0
LINE
  5
85
330
1F
100
AcDbEntity
  8
0
  6
Continuous
 62
     7
370
    15
100
AcDbLine
 10
158.3639312053
 20
183.0315668678
 30
0.0
 11
158.3639312053
 21
147.6156864858
 31
0.0
  0
LINE
  5
86
330
1F
100
AcDbEntity
  8
0
  6
Continuous
 62
     7
370
    15
100
AcDbLine
 10
161.8639308476
 20
183.0315668678
 30
0.0
 11
158.3639312053
 21
183.0315668678
 31
0.0
  0
LINE
  5
87
330
1F
100
AcDbEntity
  8
0
  6
Continuous
 62
     7
370
    15
100
AcDbLine
 10
158.3639312053
 20
147.6156864858
 30
0.0
 11
161.8639308476
 21
147.6156864858
 31
0.0
  0
LINE
  5
88
330
1F
100
AcDbEntity
  8
0
  6
Continuous
 62
     7
370
    15
100
AcDbLine
 10
95.1559919381
 20
119.823625738
 30
0.0
 11
95.1559919381
 21
116.3236259793
 31
0.0
  0
LINE
  5
89
330
1F
100
AcDbEntity
  8
0
  6
Continuous
 62
     7
370
    15
100
AcDbLine
 10
130.5718723202
 20
116.3236259793
 30
0.0
 11
130.5718723202
 21
119.823625738
 31
0.0
  0
ARC
  5
8A
330
1F
100
AcDbEntity
  8
0
  6
Continuous
 62
     7
370
    15
100
AcDbCircle
 10
95.7125392371
 20
120.8119541176
 30
0.0
 40
0.488482075658598
100
AcDbArc
 50
271.4377120113
 51
1.3691549116
  0
LINE
  5
8B
330
1F
100
AcDbEntity
  8
0
  6
Continuous
 62
     7
370
    15
100
AcDbLine
 10
96.2008818501
 20
120.823625902
 30
0.0
 11
129.417986002
 21
120.823625902
 31
0.0
  0
ARC
  5
8C
330
1F
100
AcDbEntity
  8
0
  6
Continuous
 62
     7
370
    15
100
AcDbCircle
 10
129.9048586331
 20
120.8104776101
 30
0.0
 40
0.4870501375987375
100
AcDbArc
 50
178.4530685697
 51
268.3647696229
  0
LINE
  5
8D
330
1F
100
AcDbEntity
  8
0
  6
Continuous
 62
     7
370
    15
100
AcDbLine
 10
157.363932904
 20
148.769572804
 30
0.0
 11
157.363932904
 21
181.9866750932
 31
0.0
  0
ARC
  5
8E
330
1F
100
AcDbEntity
  8
0
  6
Continuous
 62
     7
370
    15
100
AcDbCircle
 10
157.3756013483
 20
182.4750222173
 30
0.0
 40
0.4884865056357613
100
AcDbArc
 50
268.6312493808
 51
358.5615532068
  0
ARC
  5
8F
330
1F
100
AcDbEntity
  8
0
  6
Continuous
 62
     7
370
    15
100
AcDbCircle
 10
157.3770770825
 20
148.2826948658
 30
0.0
 40
0.48705533170799
100
AcDbArc
 50
1.6358374964
 51
91.5464308681
  0
SPLINE
  5
90
330
1F
100
AcDbEntity
  8
0
  6
Continuous
 62
     7
370
    15
100
AcDbSpline
210
0.0
220
0.0
230
1.0
 70
     8
 71
     3
 72
    10
 73
     6
 74
     0
 42
0.000000001
 43
0.00000001
 40
0.0
 40
0.0
 40
0.0
 40
0.0
 40
0.5
 40
0.5
 40
1.0
 40
1.0
 40
1.0
 40
1.0
 10
137.8639321291266
 20
182.68126447335
 30
0.0
 10
137.7015066923839
 20
182.7260069245189
 30
0.0
 10
137.5770996652623
 20
182.7613208278683
 30
0.0
 10
137.4120143331884
 20
182.8084702229795
 30
0.0
 10
137.3697460826149
 20
182.820752659938
 30
0.0
 10
137.3697460826149
 20
182.820752659938
 30
0.0
  0
LINE
  5
91
330
1F
100
AcDbEntity
  8
0
  6
Continuous
 62
     7
370
    15
100
AcDbLine
 10
137.8639325017
 20
182.6812629199
 30
0.0
 11
137.8639325017
 21
148.769572804
 31
0.0
  0
ARC
  5
92
330
1F
100
AcDbEntity
  8
0
  6
Continuous
 62
     7
370
    15
100
AcDbCircle
 10
137.8639321291
 20
140.3236259318
 30
0.0
 40
8.445945945945937
100
AcDbArc
 50
90.0
 51
180.0
  0
LINE
  5
93
330
1F
100
AcDbEntity
  8
0
  6
Continuous
 62
     7
370
    15
100
AcDbLine
 10
95.5062940234
 20
140.3236263043
 30
0.0
 11
129.417986002
 21
140.3236263043
 31
0.0
  0
SPLINE
  5
94
330
1F
100
AcDbEntity
  8
0
  6
Continuous
 62
     7
370
    15
100
AcDbSpline
210
0.0
220
0.0
230
1.0
 70
     8
 71
     3
 72
    10
 73
     6
 74
     0
 42
0.000000001
 43
0.00000001
 40
0.0
 40
0.0
 40
0.0
 40
0.0
 40
0.5000000000000001
 40
0.5000000000000001
 40
1.0
 40
1.0
 40
1.0
 40
1.0
 10
95.36680540094135
 20
140.8178119782644
 30
0.0
 10
95.36680540094135
 20
140.8178119782644
 30
0.0
 10
95.37939757901233
 20
140.774471605748
 30
0.0
 10
95.42683378156566
 20
140.6083570645218
 30
0.0
 10
95.46156134199423
 20
140.4860143196866
 30
0.0
 10
95.50629358752936
 20
140.3236259317528
 30
0.0
  0
LINE
  5
95
330
1F
100
AcDbEntity
  8
0
  6
Continuous
 62
     7
370
    15
100
AcDbLine
 10
129.417986002
 20
120.823625902
 30
0.0
 11
129.417986002
 21
140.3236263043
 31
0.0
  0
LINE
  5
96
330
1F
100
AcDbEntity
  8
0
  6
Continuous
 62
     7
370
    15
100
AcDbLine
 10
96.2008818501
 20
135.3236254847
 30
0.0
 11
96.2008818501
 21
120.823625902
 31
0.0
  0
SPLINE
  5
97
330
1F
100
AcDbEntity
  8
0
  6
Continuous
 62
     7
370
    15
100
AcDbSpline
210
0.0
220
0.0
230
1.0
 70
     8
 71
     3
 72
    18
 73
    14
 74
     0
 42
0.000000001
 43
0.00000001
 40
0.0
 40
0.0
 40
0.0
 40
0.0
 40
0.2499999999999996
 40
0.2499999999999996
 40
0.3749999999999999
 40
0.3749999999999999
 40
0.5000000000000002
 40
0.5000000000000002
 40
0.6250000000000006
 40
0.6250000000000006
 40
0.7500000000000008
 40
0.7500000000000008
 40
1.0
 40
1.0
 40
1.0
 40
1.0
 10
95.50629358752936
 20
140.3236259317528
 30
0.0
 10
95.56703587320433
 20
140.1005356362325
 30
0.0
 10
95.64129328347347
 20
139.815103539184
 30
0.0
 10
95.75951782267092
 20
139.2980004061581
 30
0.0
 10
95.80013850245132
 20
139.1099842427239
 30
0.0
 10
95.87878153694774
 20
138.7153215173814
 30
0.0
 10
95.91712710057192
 20
138.5073581963798
 30
0.0
 10
95.98959536696005
 20
138.0701029492072
 30
0.0
 10
96.02394685997874
 20
137.8389860636027
 30
0.0
 10
96.08485863956368
 20
137.3633688741479
 30
0.0
 10
96.11132126760022
 20
137.1201491830952
 30
0.0
 10
96.1765328630706
 20
136.3744707843138
 30
0.0
 10
96.2008827531518
 20
135.8502386813926
 30
0.0
 10
96.20088275315179
 20
135.3236259317528
 30
0.0
  0
LINE
  5
98
330
1F
100
AcDbEntity
  8
0
  6
Continuous
 62
     7
370
    15
100
AcDbLine
 10
137.8639325017
 20
148.769572804
 30
0.0
 11
157.363932904
 21
148.769572804
 31
0.0
  0
SPLINE
  5
99
330
1F
100
AcDbEntity
  8
0
  6
Continuous
 62
     7
370
    15
100
AcDbSpline
210
0.0
220
0.0
230
1.0
 70
     8
 71
     3
 72
    18
 73
    14
 74
     0
 42
0.000000001
 43
0.00000001
 40
0.0
 40
0.0
 40
0.0
 40
0.0
 40
0.1250000000000009
 40
0.1250000000000009
 40
0.2500000000000017
 40
0.2500000000000017
 40
0.5000000000000011
 40
0.5000000000000011
 40
0.7500000000000004
 40
0.7500000000000004
 40
0.8750000000000002
 40
0.8750000000000002
 40
1.0
 40
1.0
 40
1.0
 40
1.0
 10
142.8639321291265
 20
181.9866753077276
 30
0.0
 10
142.6009710169606
 20
181.9866753077276
 30
0.0
 10
142.3403678167907
 20
181.9925605430644
 30
0.0
 10
141.8237560436265
 20
182.0154494014092
 30
0.0
 10
141.5659804527101
 20
182.0326319246704
 30
0.0
 10
140.8152091406299
 20
182.098299216596
 30
0.0
 10
140.3445580421948
 20
182.1604320471854
 30
0.0
 10
139.4620822240017
 20
182.3064735302065
 30
0.0
 10
139.0670006093517
 20
182.387566879668
 30
0.0
 10
138.5501779331511
 20
182.505585630057
 30
0.0
 10
138.3898418713878
 20
182.5445414629116
 30
0.0
 10
138.1029793032068
 20
182.6170925279366
 30
0.0
 10
137.9753069718453
 20
182.6509397006043
 30
0.0
 10
137.8639321291266
 20
182.68126447335
 30
0.0
  0
LINE
  5
9A
330
1F
100
AcDbEntity
  8
0
  6
Continuous
 62
     7
370
    15
100
AcDbLine
 10
157.363932904
 20
181.9866750932
 30
0.0
 11
142.8639314586
 21
181.9866750932
 31
0.0
  0
SPLINE
  5
9B
330
1F
100
AcDbEntity
  8
0
  6
Continuous
 62
     7
370
    15
100
AcDbSpline
210
0.0
220
0.0
230
1.0
 70
     8
 71
     3
 72
    10
 73
     6
 74
     0
 42
0.000000001
 43
0.00000001
 40
0.0
 40
0.0
 40
0.0
 40
0.0
 40
0.5
 40
0.5
 40
1.0
 40
1.0
 40
1.0
 40
1.0
 10
157.4249391566347
 20
147.8236259317528
 30
0.0
 10
157.3889652404469
 20
148.0295260005286
 30
0.0
 10
157.3745409875628
 20
148.2334107429295
 30
0.0
 10
157.3625522402886
 20
148.5736377065928
 30
0.0
 10
157.3639321291266
 20
148.7017939487474
 30
0.0
 10
157.3639321291266
 20
148.7695718773644
 30
0.0
  0
LWPOLYLINE
  5
9C
330
1F
100
AcDbEntity
  8
0
  6
Continuous
 62
     7
370
    15
100
AcDbPolyline
 90
        9
 70
   128
 43
0.0
 10
157.4249382579
 20
147.8236247397
 10
157.5110371673
 20
147.8537101841
 10
157.5942489767
 20
147.8827898002
 10
157.6717797184
 20
147.9098801112
 10
157.7410254144
 20
147.9340758717
 10
157.799665209
 20
147.9545686937
 10
157.8457321489
 20
147.970665673
 10
157.8776802385
 20
147.9818266428
 10
157.8944365942
 20
147.9876827991
  0
SPLINE
  5
9D
330
1F
100
AcDbEntity
  8
0
  6
Continuous
 62
     7
370
    15
100
AcDbSpline
210
0.0
220
0.0
230
1.0
 70
     8
 71
     3
 72
    10
 73
     6
 74
     0
 42
0.000000001
 43
0.00000001
 40
0.0
 40
0.0
 40
0.0
 40
0.0
 40
0.5
 40
0.5
 40
1.0
 40
1.0
 40
1.0
 40
1.0
 10
129.4179861831747
 20
120.8236259317528
 30
0.0
 10
129.4857884913263
 20
120.8236259317528
 30
0.0
 10
129.6143658453221
 20
120.8249677003829
 30
0.0
 10
129.9520884677365
 20
120.8131119373844
 30
0.0
 10
130.1579525114841
 20
120.7986067188458
 30
0.0
 10
130.3639321291266
 20
120.7626189042447
 30
0.0
  0
LWPOLYLINE
  5
9E
330
1F
100
AcDbEntity
  8
0
  6
Continuous
 62
     7
370
    15
100
AcDbPolyline
 90
        9
 70
   128
 43
0.0
 10
130.1998760068
 20
120.2931222117
 10
130.2057303005
 20
120.3098781018
 10
130.2168931329
 20
120.3418252601
 10
130.2329901123
 20
120.3878917343
 10
130.2534810716
 20
120.4465324602
 10
130.2776786947
 20
120.5157795532
 10
130.3047708684
 20
120.5933088979
 10
130.3338467592
 20
120.6765193103
 10
130.3639322036
 20
120.7626186854
  0
LINE
  5
9F
330
1F
100
AcDbEntity
  8
0
  6
Continuous
 62
     7
370
    15
100
AcDbLine
 10
130.3639322036
 20
140.3236263043
 30
0.0
 11
129.417986002
 21
140.3236263043
 31
0.0
  0
LINE
  5
A0
330
1F
100
AcDbEntity
  8
0
  6
Continuous
 62
     7
370
    15
100
AcDbLine
 10
130.3639322036
 20
140.3236263043
 30
0.0
 11
130.3639322036
 21
120.7626186854
 31
0.0
  0
LINE
  5
A1
330
1F
100
AcDbEntity
  8
0
  6
Continuous
 62
     7
370
    15
100
AcDbLine
 10
137.8639325017
 20
147.8236247397
 30
0.0
 11
137.8639325017
 21
148.769572804
 31
0.0
  0
LINE
  5
A2
330
1F
100
AcDbEntity
  8
0
  6
Continuous
 62
     7
370
    15
100
AcDbLine
 10
157.4249382579
 20
147.8236247397
 30
0.0
 11
137.8639325017
 21
147.8236247397
 31
0.0
  0
ARC
  5
A3
330
1F
100
AcDbEntity
  8
0
  6
Continuous
 62
     7
370
    15
100
AcDbCircle
 10
137.8639321291
 20
140.3236259318
 30
0.0
 40
7.5
100
AcDbArc
 50
90.0
 51
180.0
  0
LINE
  5
A4
330
1F
100
AcDbEntity
  8
0
  6
Continuous
 62
     7
370
    15
100
AcDbLine
 10
96.2008818501
 20
135.3236254847
 30
0.0
 11
95.7247953379
 21
135.3236254847
 31
0.0
  0
SPLINE
  5
A5
330
1F
100
AcDbEntity
  8
0
  6
Continuous
 62
     7
370
    15
100
AcDbSpline
210
0.0
220
0.0
230
1.0
 70
     8
 71
     3
 72
    20
 73
    16
 74
     0
 42
0.000000001
 43
0.00000001
 40
0.0
 40
0.0
 40
0.0
 40
0.0
 40
0.1249999999999998
 40
0.1249999999999998
 40
0.2499999999999996
 40
0.2499999999999996
 40
0.3749999999999994
 40
0.3749999999999994
 40
0.4999999999999992
 40
0.4999999999999992
 40
0.624999999999999
 40
0.624999999999999
 40
0.7499999999999989
 40
0.7499999999999989
 40
1.0
 40
1.0
 40
1.0
 40
1.0
 10
95.72479562812394
 20
135.3236259317528
 30
0.0
 10
95.72479562812394
 20
135.565791801084
 30
0.0
 10
95.71851717020178
 20
135.8079200855078
 30
0.0
 10
95.69423566187935
 20
136.2844352775637
 30
0.0
 10
95.67639221632233
 20
136.5171360317881
 30
0.0
 10
95.63094840647051
 20
136.972017089632
 30
0.0
 10
95.6033438222627
 20
137.1941960609632
 30
0.0
 10
95.53998016165075
 20
137.6279934214564
 30
0.0
 10
95.50439354238635
 20
137.8380049249071
 30
0.0
 10
95.42958112428475
 20
138.2345285065819
 30
0.0
 10
95.39011760633126
 20
138.4226779289951
 30
0.0
 10
95.30942404448501
 20
138.7790742931167
 30
0.0
 10
95.26787654041394
 20
138.9484492866224
 30
0.0
 10
95.14733476384906
 20
139.4132782389543
 30
0.0
 10
95.07198213884377
 20
139.669052049852
 30
0.0
 10
95.01036105776943
 20
139.8690804772074
 30
0.0
  0
ARC
  5
A6
330
1F
100
AcDbEntity
  8
0
  6
Continuous
 62
     7
370
    15
100
AcDbCircle
 10
95.0006447775
 20
140.3774994917
 30
0.0
 40
0.508511042379028
100
AcDbArc
 50
271.094831637
 51
353.9185002326
  0
SPLINE
  5
A7
330
1F
100
AcDbEntity
  8
0
  6
Continuous
 62
     7
370
    15
100
AcDbSpline
210
0.0
220
0.0
230
1.0
 70
     8
 71
     3
 72
    18
 73
    14
 74
     0
 42
0.000000001
 43
0.00000001
 40
0.0
 40
0.0
 40
0.0
 40
0.0
 40
0.125
 40
0.125
 40
0.25
 40
0.25
 40
0.5
 40
0.5
 40
0.75
 40
0.75
 40
0.875
 40
0.875
 40
1.0
 40
1.0
 40
1.0
 40
1.0
 10
138.318477583672
 20
183.1771970031099
 30
0.0
 10
138.4183464420083
 20
183.1464312409745
 30
0.0
 10
138.5327714045643
 20
183.112096069847
 30
0.0
 10
138.7900380532508
 20
183.0384005031218
 30
0.0
 10
138.9339128789188
 20
182.998779941744
 30
0.0
 10
139.3987810025907
 20
182.8783696866675
 30
0.0
 10
139.7546808380111
 20
182.7952934227137
 30
0.0
 10
140.5557895470515
 20
182.6443609047856
 30
0.0
 10
140.9845295611599
 20
182.5797007045272
 30
0.0
 10
141.6716251359253
 20
182.5110394565108
 30
0.0
 10
141.9082479701571
 20
182.4929942121948
 30
0.0
 10
142.3826132025162
 20
182.4689574637854
 30
0.0
 10
142.6220897996758
 20
182.4627624327554
 30
0.0
 10
142.8639321291265
 20
182.4627624327554
 30
0.0
  0
LINE
  5
A8
330
1F
100
AcDbEntity
  8
0
  6
Continuous
 62
     7
370
    15
100
AcDbLine
 10
142.8639314586
 20
182.4627597427
 30
0.0
 11
142.8639314586
 21
181.9866750932
 31
0.0
  0
ARC
  5
A9
330
1F
100
AcDbEntity
  8
0
  6
Continuous
 62
     7
370
    15
100
AcDbCircle
 10
137.8100564059
 20
183.1869148314
 30
0.0
 40
0.5085140011048609
100
AcDbArc
 50
276.0817937929
 51
358.9048743375
  0
SPLINE
  5
AA
330
1F
100
AcDbEntity
  8
0
  6
Continuous
 62
     7
370
    15
100
AcDbSpline
210
0.0
220
0.0
230
1.0
 70
     8
 71
     3
 72
    14
 73
    10
 74
     0
 42
0.000000001
 43
0.00000001
 40
0.0
 40
0.0
 40
0.0
 40
0.0
 40
0.25
 40
0.25
 40
0.5
 40
0.5
 40
0.75
 40
0.75
 40
1.0
 40
1.0
 40
1.0
 40
1.0
 10
94.67739864965336
 20
119.8236259317528
 30
0.0
 10
94.67739864965336
 20
119.9588944403933
 30
0.0
 10
94.70610688204086
 20
120.0917580074513
 30
0.0
 10
94.81466076952196
 20
120.3365877932427
 30
0.0
 10
94.89476523224425
 20
120.4478691811265
 30
0.0
 10
95.08981457247944
 20
120.6299921040051
 30
0.0
 10
95.20634364414934
 20
120.702321223611
 30
0.0
 10
95.45540311895034
 20
120.798594194776
 30
0.0
 10
95.58969431966759
 20
120.8236259317528
 30
0.0
 10
95.72479562812394
 20
120.8236259317528
 30
0.0
  0
LINE
  5
AB
330
1F
100
AcDbEntity
  8
0
  6
Continuous
 62
     7
370
    15
100
AcDbLine
 10
95.7247953379
 20
120.823625902
 30
0.0
 11
95.7247953379
 21
120.32362582
 31
0.0
  0
LINE
  5
AC
330
1F
100
AcDbEntity
  8
0
  6
Continuous
 62
     7
370
    15
100
AcDbLine
 10
94.6773983055
 20
119.823625738
 30
0.0
 11
95.1559919381
 21
119.823625738
 31
0.0
  0
LINE
  5
AD
330
1F
100
AcDbEntity
  8
0
  6
Continuous
 62
     7
370
    15
100
AcDbLine
 10
157.8639339173
 20
182.4627597427
 30
0.0
 11
157.363932904
 21
182.4627597427
 31
0.0
  0
SPLINE
  5
AE
330
1F
100
AcDbEntity
  8
0
  6
Continuous
 62
     7
370
    15
100
AcDbSpline
210
0.0
220
0.0
230
1.0
 70
     8
 71
     3
 72
    14
 73
    10
 74
     0
 42
0.000000001
 43
0.00000001
 40
0.0
 40
0.0
 40
0.0
 40
0.0
 40
0.25
 40
0.25
 40
0.5
 40
0.5
 40
0.75
 40
0.75
 40
1.0
 40
1.0
 40
1.0
 40
1.0
 10
157.3639321291266
 20
182.4627624327554
 30
0.0
 10
157.3639321291266
 20
182.5978637412118
 30
0.0
 10
157.3889638661034
 20
182.732154941929
 30
0.0
 10
157.4852368372683
 20
182.98121441673
 30
0.0
 10
157.5575659568743
 20
183.0977434883999
 30
0.0
 10
157.7396888797529
 20
183.2927928286351
 30
0.0
 10
157.8509702676367
 20
183.3728972913574
 30
0.0
 10
158.095800053428
 20
183.4814511788385
 30
0.0
 10
158.228663620486
 20
183.510159411226
 30
0.0
 10
158.3639321291266
 20
183.510159411226
 30
0.0
  0
LINE
  5
AF
330
1F
100
AcDbEntity
  8
0
  6
Continuous
 62
     7
370
    15
100
AcDbLine
 10
158.3639312053
 20
183.0315668678
 30
0.0
 11
158.3639312053
 21
183.5101623631
 31
0.0
  0
LINE
  5
B0
330
1F
100
AcDbEntity
  8
0
  6
Continuous
 62
     7
370
    15
100
AcDbLine
 10
96.2008818501
 20
120.823625902
 30
0.0
 11
95.7247953379
 21
120.823625902
 31
0.0
  0
LINE
  5
B1
330
1F
100
AcDbEntity
  8
0
  6
Continuous
 62
     7
370
    15
100
AcDbLine
 10
157.363932904
 20
182.4627597427
 30
0.0
 11
157.363932904
 21
181.9866750932
 31
0.0
  0
SPLINE
  5
B2
330
1F
100
AcDbEntity
  8
0
  6
Continuous
 62
     7
370
    15
100
AcDbSpline
210
0.0
220
0.0
230
1.0
 70
     8
 71
     3
 72
    12
 73
     8
 74
     0
 42
0.000000001
 43
0.00000001
 40
0.0
 40
0.0
 40
0.0
 40
0.0
 40
0.4999999999999932
 40
0.4999999999999932
 40
0.7499999999999966
 40
0.7499999999999966
 40
1.0
 40
1.0
 40
1.0
 40
1.0
 10
158.3639321291266
 20
147.1370924522796
 30
0.0
 10
158.1551625423769
 20
147.1370924522796
 30
0.0
 10
157.9499845181561
 20
147.2073951146766
 30
0.0
 10
157.7016906255191
 20
147.3920016583856
 30
0.0
 10
157.6286486299087
 20
147.4662183679198
 30
0.0
 10
157.5068554583693
 20
147.6339803172719
 30
0.0
 10
157.4593321164879
 20
147.7252002729755
 30
0.0
 10
157.4249391566347
 20
147.8236259317528
 30
0.0
  0
LINE
  5
B3
330
1F
100
AcDbEntity
  8
0
  6
Continuous
 62
     7
370
    15
100
AcDbLine
 10
158.3639312053
 20
147.1370909906
 30
0.0
 11
158.3639312053
 21
147.6156864858
 31
0.0
  0
SPLINE
  5
B4
330
1F
100
AcDbEntity
  8
0
  6
Continuous
 62
     7
370
    15
100
AcDbSpline
210
0.0
220
0.0
230
1.0
 70
     8
 71
     3
 72
    12
 73
     8
 74
     0
 42
0.000000001
 43
0.00000001
 40
0.0
 40
0.0
 40
0.0
 40
0.0
 40
0.2499999999999996
 40
0.2499999999999996
 40
0.4999999999999991
 40
0.4999999999999991
 40
1.0
 40
1.0
 40
1.0
 40
1.0
 10
130.3639321291266
 20
120.7626189042447
 30
0.0
 10
130.4623577879038
 20
120.7282259443915
 30
0.0
 10
130.5535777436075
 20
120.68070260251
 30
0.0
 10
130.7213396929595
 20
120.5589094309707
 30
0.0
 10
130.7955564024938
 20
120.4858674353602
 30
0.0
 10
130.9801629462028
 20
120.2375735427233
 30
0.0
 10
131.0504656085998
 20
120.0323955185025
 30
0.0
 10
131.0504656085998
 20
119.8236259317528
 30
0.0
  0
LINE
  5
B5
330
1F
100
AcDbEntity
  8
0
  6
Continuous
 62
     7
370
    15
100
AcDbLine
 10
130.5718723202
 20
119.823625738
 30
0.0
 11
131.0504659527
 21
119.823625738
 31
0.0
  0
LINE
  5
B6
330
1F
100
AcDbEntity
  8
0
  6
Continuous
 62
     7
370
    15
100
AcDbLine
 10
161.8639308476
 20
183.0315668678
 30
0.0
 11
161.8639308476
 21
183.5101623631
 31
0.0
  0
SPLINE
  5
B7
330
1F
100
AcDbEntity
  8
0
  6
Continuous
 62
     7
370
    15
100
AcDbSpline
210
0.0
220
0.0
230
1.0
 70
     8
 71
     3
 72
    16
 73
    12
 74
     0
 42
0.000000001
 43
0.00000001
 40
0.0
 40
0.0
 40
0.0
 40
0.0
 40
0.2499999999999927
 40
0.2499999999999927
 40
0.3749999999999893
 40
0.3749999999999893
 40
0.499999999999986
 40
0.499999999999986
 40
0.749999999999993
 40
0.749999999999993
 40
1.0
 40
1.0
 40
1.0
 40
1.0
 10
161.8639321291265
 20
183.510159411226
 30
0.0
 10
162.03333272928
 20
183.510159411226
 30
0.0
 10
162.1959892316457
 20
183.4598599827173
 30
0.0
 10
162.3922889234445
 20
183.3449078704748
 30
0.0
 10
162.451782832462
 20
183.2994309963603
 30
0.0
 10
162.5555744076203
 20
183.2018433852924
 30
0.0
 10
162.6006510722525
 20
183.149361468951
 30
0.0
 10
162.7193402542629
 20
182.9828069101158
 30
0.0
 10
162.7747646081418
 20
182.8618448914535
 30
0.0
 10
162.8469047797397
 20
182.6147960910313
 30
0.0
 10
162.8639321291266
 20
182.4879432693666
 30
0.0
 10
162.8639321291265
 20
182.3603509691536
 30
0.0
  0
LINE
  5
B8
330
1F
100
AcDbEntity
  8
0
  6
Continuous
 62
     7
370
    15
100
AcDbLine
 10
161.8639308476
 20
147.1370909906
 30
0.0
 11
161.8639308476
 21
147.6156864858
 31
0.0
  0
SPLINE
  5
B9
330
1F
100
AcDbEntity
  8
0
  6
Continuous
 62
     7
370
    15
100
AcDbSpline
210
0.0
220
0.0
230
1.0
 70
     8
 71
     3
 72
    16
 73
    12
 74
     0
 42
0.000000001
 43
0.00000001
 40
0.0
 40
0.0
 40
0.0
 40
0.0
 40
0.2500000000000004
 40
0.2500000000000004
 40
0.3750000000000004
 40
0.3750000000000004
 40
0.5000000000000003
 40
0.5000000000000003
 40
0.7500000000000002
 40
0.7500000000000002
 40
1.0
 40
1.0
 40
1.0
 40
1.0
 10
161.8639321291265
 20
147.1370924522796
 30
0.0
 10
162.03333272928
 20
147.1370924522796
 30
0.0
 10
162.1959892316457
 20
147.1873918807883
 30
0.0
 10
162.3922889234445
 20
147.3023439930308
 30
0.0
 10
162.451782832462
 20
147.3478208671453
 30
0.0
 10
162.5555744076203
 20
147.4454084782132
 30
0.0
 10
162.6006510722525
 20
147.4978903945546
 30
0.0
 10
162.7193402542629
 20
147.6644449533898
 30
0.0
 10
162.7747646081417
 20
147.7854069720521
 30
0.0
 10
162.8469047797397
 20
148.0324557724743
 30
0.0
 10
162.8639321291265
 20
148.1593085941485
 30
0.0
 10
162.8639321291265
 20
148.286900894352
 30
0.0
  0
LINE
  5
BA
330
1F
100
AcDbEntity
  8
0
  6
Continuous
 62
     7
370
    15
100
AcDbLine
 10
94.6773983055
 20
116.3236259793
 30
0.0
 11
95.1559919381
 21
116.3236259793
 31
0.0
  0
SPLINE
  5
BB
330
1F
100
AcDbEntity
  8
0
  6
Continuous
 62
     7
370
    15
100
AcDbSpline
210
0.0
220
0.0
230
1.0
 70
     8
 71
     3
 72
    16
 73
    12
 74
     0
 42
0.000000001
 43
0.00000001
 40
0.0
 40
0.0
 40
0.0
 40
0.0
 40
0.2500000000000013
 40
0.2500000000000013
 40
0.3750000000000022
 40
0.3750000000000022
 40
0.5000000000000031
 40
0.5000000000000031
 40
0.7500000000000016
 40
0.7500000000000016
 40
1.0
 40
1.0
 40
1.0
 40
1.0
 10
94.67739864965336
 20
116.3236259317528
 30
0.0
 10
94.67739864965336
 20
116.1542253315994
 30
0.0
 10
94.72769807816204
 20
115.9915688292336
 30
0.0
 10
94.84265019040457
 20
115.7952691374349
 30
0.0
 10
94.8881270645191
 20
115.7357752284174
 30
0.0
 10
94.98571467558692
 20
115.6319836532591
 30
0.0
 10
95.03819659192835
 20
115.5869069886269
 30
0.0
 10
95.20475115076353
 20
115.4682178066164
 30
0.0
 10
95.32571316942582
 20
115.4127934527376
 30
0.0
 10
95.57276196984805
 20
115.3406532811396
 30
0.0
 10
95.69961479151651
 20
115.3236259317528
 30
0.0
 10
95.82720709172574
 20
115.3236259317528
 30
0.0
  0
LINE
  5
BC
330
1F
100
AcDbEntity
  8
0
  6
Continuous
 62
     7
370
    15
100
AcDbLine
 10
130.5718723202
 20
116.3236259793
 30
0.0
 11
131.0504659527
 21
116.3236259793
 31
0.0
  0
SPLINE
  5
BD
330
1F
100
AcDbEntity
  8
0
  6
Continuous
 62
     7
370
    15
100
AcDbSpline
210
0.0
220
0.0
230
1.0
 70
     8
 71
     3
 72
    16
 73
    12
 74
     0
 42
0.000000001
 43
0.00000001
 40
0.0
 40
0.0
 40
0.0
 40
0.0
 40
0.2499999999999996
 40
0.2499999999999996
 40
0.3749999999999996
 40
0.3749999999999996
 40
0.4999999999999997
 40
0.4999999999999997
 40
0.7499999999999998
 40
0.7499999999999998
 40
1.0
 40
1.0
 40
1.0
 40
1.0
 10
131.0504656085998
 20
116.3236259317528
 30
0.0
 10
131.0504656085998
 20
116.1542253315994
 30
0.0
 10
131.0001661800911
 20
115.9915688292336
 30
0.0
 10
130.8852140678485
 20
115.7952691374349
 30
0.0
 10
130.839737193734
 20
115.7357752284174
 30
0.0
 10
130.7421495826662
 20
115.6319836532591
 30
0.0
 10
130.6896676663248
 20
115.5869069886269
 30
0.0
 10
130.5231131074896
 20
115.4682178066164
 30
0.0
 10
130.4021510888273
 20
115.4127934527376
 30
0.0
 10
130.1551022884051
 20
115.3406532811396
 30
0.0
 10
130.0282494667383
 20
115.3236259317528
 30
0.0
 10
129.9006571665274
 20
115.3236259317528
 30
0.0
  0
LINE
  5
BE
330
1F
100
AcDbEntity
  8
0
  6
Continuous
 62
     7
370
    15
100
AcDbLine
 10
94.6773983055
 20
116.3236259793
 30
0.0
 11
94.6773983055
 21
119.823625738
 31
0.0
  0
LINE
  5
BF
330
1F
100
AcDbEntity
  8
0
  6
Continuous
 62
     7
370
    15
100
AcDbLine
 10
158.3639312053
 20
183.5101623631
 30
0.0
 11
161.8639308476
 21
183.5101623631
 31
0.0
  0
LINE
  5
C0
330
1F
100
AcDbEntity
  8
0
  6
Continuous
 62
     7
370
    15
100
AcDbLine
 10
131.0504659527
 20
119.823625738
 30
0.0
 11
131.0504659527
 21
116.3236259793
 31
0.0
  0
LINE
  5
C1
330
1F
100
AcDbEntity
  8
0
  6
Continuous
 62
     7
370
    15
100
AcDbLine
 10
161.8639308476
 20
147.1370909906
 30
0.0
 11
158.3639312053
 21
147.1370909906
 31
0.0
  0
LINE
  5
C2
330
1F
100
AcDbEntity
  8
0
  6
Continuous
 62
     7
370
    15
100
AcDbLine
 10
142.8639314586
 20
182.4627597427
 30
0.0
 11
157.363932904
 21
182.4627597427
 31
0.0
  0
LINE
  5
C3
330
1F
100
AcDbEntity
  8
0
  6
Continuous
 62
     7
370
    15
100
AcDbLine
 10
95.7247953379
 20
120.823625902
 30
0.0
 11
95.7247953379
 21
135.3236254847
 31
0.0
  0
LINE
  5
C4
330
1F
100
AcDbEntity
  8
0
  6
Continuous
 62
     7
370
    15
100
AcDbLine
 10
93.8639327401
 20
116.3236259793
 30
0.0
 11
94.6773983055
 21
116.3236259793
 31
0.0
  0
LINE
  5
C5
330
1F
100
AcDbEntity
  8
0
  6
Continuous
 62
     7
370
    15
100
AcDbLine
 10
93.8639327401
 20
135.3236254847
 30
0.0
 11
93.8639327401
 21
116.3236259793
 31
0.0
  0
LINE
  5
C6
330
1F
100
AcDbEntity
  8
0
  6
Continuous
 62
     7
370
    15
100
AcDbLine
 10
95.7247953379
 20
135.3236254847
 30
0.0
 11
93.8639327401
 21
135.3236254847
 31
0.0
  0
LINE
  5
C7
330
1F
100
AcDbEntity
  8
0
  6
Continuous
 62
     7
370
    15
100
AcDbLine
 10
93.8639327401
 20
116.3236259793
 30
0.0
 11
92.8639325762
 21
116.3236259793
 31
0.0
  0
LINE
  5
C8
330
1F
100
AcDbEntity
  8
0
  6
Continuous
 62
     7
370
    15
100
AcDbLine
 10
92.8639325762
 20
116.3236259793
 30
0.0
 11
92.8639325762
 21
135.3236254847
 31
0.0
  0
LINE
  5
C9
330
1F
100
AcDbEntity
  8
0
  6
Continuous
 62
     7
370
    15
100
AcDbLine
 10
93.8639327401
 20
135.3236254847
 30
0.0
 11
92.8639325762
 21
135.3236254847
 31
0.0
  0
LINE
  5
CA
330
1F
100
AcDbEntity
  8
0
  6
Continuous
 62
     7
370
    15
100
AcDbLine
 10
93.8639327401
 20
116.3236259793
 30
0.0
 11
93.8639327401
 21
115.3236259318
 31
0.0
  0
ARC
  5
CB
330
1F
100
AcDbEntity
  8
0
  6
Continuous
 62
     7
370
    15
100
AcDbCircle
 10
93.8639321291
 20
116.3236259318
 30
0.0
 40
1.0
100
AcDbArc
 50
180.0
 51
270.0
  0
LINE
  5
CC
330
1F
100
AcDbEntity
  8
0
  6
Continuous
 62
     7
370
    15
100
AcDbLine
 10
95.8272072935
 20
115.3236259318
 30
0.0
 11
93.8639327401
 21
115.3236259318
 31
0.0
  0
LINE
  5
CD
330
1F
100
AcDbEntity
  8
0
  6
Continuous
 62
     7
370
    15
100
AcDbLine
 10
138.8639326656
 20
185.3236262298
 30
0.0
 11
142.8639314586
 21
185.3236262298
 31
0.0
  0
LINE
  5
CE
330
1F
100
AcDbEntity
  8
0
  6
Continuous
 62
     7
370
    15
100
AcDbLine
 10
142.8639314586
 20
185.3236262298
 30
0.0
 11
142.8639314586
 21
184.3236242032
 31
0.0
  0
LINE
  5
CF
330
1F
100
AcDbEntity
  8
0
  6
Continuous
 62
     7
370
    15
100
AcDbLine
 10
142.8639314586
 20
184.3236242032
 30
0.0
 11
137.8639325017
 21
184.3236242032
 31
0.0
  0
ARC
  5
D0
330
1F
100
AcDbEntity
  8
0
  6
Continuous
 62
     7
370
    15
100
AcDbCircle
 10
138.8639321291
 20
184.3236259318
 30
0.0
 40
1.0
100
AcDbArc
 50
90.0
 51
180.0
  0
LINE
  5
D1
330
1F
100
AcDbEntity
  8
0
  6
Continuous
 62
     7
370
    15
100
AcDbLine
 10
132.8639316821
 20
124.8757144979
 30
0.0
 11
132.8639316821
 21
116.3236259793
 31
0.0
  0
LINE
  5
D2
330
1F
100
AcDbEntity
  8
0
  6
Continuous
 62
     7
370
    15
100
AcDbLine
 10
131.8639315182
 20
116.3236259793
 30
0.0
 11
132.8639316821
 21
116.3236259793
 31
0.0
  0
LINE
  5
D3
330
1F
100
AcDbEntity
  8
0
  6
Continuous
 62
     7
370
    15
100
AcDbLine
 10
131.8639315182
 20
116.3236259793
 30
0.0
 11
131.8639315182
 21
140.3236263043
 31
0.0
  0
LINE
  5
D4
330
1F
100
AcDbEntity
  8
0
  6
Continuous
 62
     7
370
    15
100
AcDbLine
 10
132.8639316821
 20
140.3236263043
 30
0.0
 11
131.8639315182
 21
140.3236263043
 31
0.0
  0
LINE
  5
D5
330
1F
100
AcDbEntity
  8
0
  6
Continuous
 62
     7
370
    15
100
AcDbLine
 10
132.8639316821
 20
140.3236263043
 30
0.0
 11
132.8639316821
 21
125.7715378499
 31
0.0
  0
SPLINE
  5
D6
330
1F
100
AcDbEntity
  8
0
  6
Continuous
 62
     7
370
    15
100
AcDbSpline
210
0.0
220
0.0
230
1.0
 70
     8
 71
     3
 72
    13
 73
     9
 74
     0
 42
0.000000001
 43
0.00000001
 40
0.0
 40
0.0
 40
0.0
 40
0.0
 40
0.1666735606456635
 40
0.3333443833119396
 40
0.5000097300271182
 40
0.7496103248698632
 40
0.9069821843492049
 40
1.0
 40
1.0
 40
1.0
 40
1.0
 10
132.8639321291266
 20
125.771537753432
 30
0.0
 10
132.8639240465305
 20
125.7219161392216
 30
0.0
 10
132.8639078814711
 20
125.6226737259448
 30
0.0
 10
132.8638258101606
 20
125.4732278216696
 30
0.0
 10
132.8635257220447
 20
125.2988149293945
 30
0.0
 10
132.8637354123013
 20
125.1271587307835
 30
0.0
 10
132.863886064066
 20
124.9779000350433
 30
0.0
 10
132.8639196516139
 20
124.9033929225227
 30
0.0
 10
132.8639321291266
 20
124.8757141100736
 30
0.0
  0
LINE
  5
D7
330
1F
100
AcDbEntity
  8
0
  6
Continuous
 62
     7
370
    15
100
AcDbLine
 10
162.8639328742
 20
184.3236242032
 30
0.0
 11
161.8639308476
 21
184.3236242032
 31
0.0
  0
LINE
  5
D8
330
1F
100
AcDbEntity
  8
0
  6
Continuous
 62
     7
370
    15
100
AcDbLine
 10
161.8639308476
 20
185.3236262298
 30
0.0
 11
161.8639308476
 21
184.3236242032
 31
0.0
  0
ARC
  5
D9
330
1F
100
AcDbEntity
  8
0
  6
Continuous
 62
     7
370
    15
100
AcDbCircle
 10
161.8639321291
 20
184.3236259318
 30
0.0
 40
1.0
100
AcDbArc
 50
0.0
 51
90.0
  0
LINE
  5
DA
330
1F
100
AcDbEntity
  8
0
  6
Continuous
 62
     7
370
    15
100
AcDbLine
 10
137.8639325017
 20
184.3236242032
 30
0.0
 11
137.8639325017
 21
183.3207164502
 31
0.0
  0
LINE
  5
DB
330
1F
100
AcDbEntity
  8
0
  6
Continuous
 62
     7
370
    15
100
AcDbLine
 10
142.8639314586
 20
184.3236242032
 30
0.0
 11
142.8639314586
 21
182.4627597427
 31
0.0
  0
SPLINE
  5
DC
330
1F
100
AcDbEntity
  8
0
  6
Continuous
 62
     7
370
    15
100
AcDbSpline
210
0.0
220
0.0
230
1.0
 70
     8
 71
     3
 72
    10
 73
     6
 74
     0
 42
0.000000001
 43
0.00000001
 40
0.0
 40
0.0
 40
0.0
 40
0.0
 40
0.5
 40
0.5
 40
1.0
 40
1.0
 40
1.0
 40
1.0
 10
137.8639321291265
 20
183.3207188567402
 30
0.0
 10
137.8639321291265
 20
183.3207188567402
 30
0.0
 10
137.9027674825922
 20
183.308090903477
 30
0.0
 10
138.0545592882622
 20
183.2595876987495
 30
0.0
 10
138.1689573477198
 20
183.2232584489938
 30
0.0
 10
138.318477583672
 20
183.1771970031099
 30
0.0
  0
ARC
  5
DD
330
1F
100
AcDbEntity
  8
0
  6
Continuous
 62
     7
370
    15
100
AcDbCircle
 10
131.8639321291
 20
116.3236259318
 30
0.0
 40
1.0
100
AcDbArc
 50
270.0
 51
0.0
  0
LINE
  5
DE
330
1F
100
AcDbEntity
  8
0
  6
Continuous
 62
     7
370
    15
100
AcDbLine
 10
131.8639315182
 20
116.3236259793
 30
0.0
 11
131.8639315182
 21
115.3236259318
 31
0.0
  0
LINE
  5
DF
330
1F
100
AcDbEntity
  8
0
  6
Continuous
 62
     7
370
    15
100
AcDbLine
 10
161.8639308476
 20
184.3236242032
 30
0.0
 11
142.8639314586
 21
184.3236242032
 31
0.0
  0
LINE
  5
E0
330
1F
100
AcDbEntity
  8
0
  6
Continuous
 62
     7
370
    15
100
AcDbLine
 10
161.8639308476
 20
183.5101623631
 30
0.0
 11
161.8639308476
 21
184.3236242032
 31
0.0
  0
LINE
  5
E1
330
1F
100
AcDbEntity
  8
0
  6
Continuous
 62
     7
370
    15
100
AcDbLine
 10
162.8639328742
 20
184.3236242032
 30
0.0
 11
162.8639328742
 21
182.3603515124
 31
0.0
  0
LINE
  5
E2
330
1F
100
AcDbEntity
  8
0
  6
Continuous
 62
     7
370
    15
100
AcDbLine
 10
142.8639314586
 20
185.3236262298
 30
0.0
 11
161.8639308476
 21
185.3236262298
 31
0.0
  0
LINE
  5
E3
330
1F
100
AcDbEntity
  8
0
  6
Continuous
 62
     7
370
    15
100
AcDbLine
 10
131.0504659527
 20
116.3236259793
 30
0.0
 11
131.8639315182
 21
116.3236259793
 31
0.0
  0
LINE
  5
E4
330
1F
100
AcDbEntity
  8
0
  6
Continuous
 62
     7
370
    15
100
AcDbLine
 10
131.8639315182
 20
115.3236259318
 30
0.0
 11
129.9006569648
 21
115.3236259318
 31
0.0
  0
LINE
  5
E5
330
1F
100
AcDbEntity
  8
0
  6
Continuous
 62
     7
370
    15
100
AcDbLine
 10
93.8639327401
 20
140.3236263043
 30
0.0
 11
93.8639327401
 21
135.3236254847
 31
0.0
  0
LINE
  5
E6
330
1F
100
AcDbEntity
  8
0
  6
Continuous
 62
     7
370
    15
100
AcDbLine
 10
92.8639325762
 20
135.3236254847
 30
0.0
 11
92.8639325762
 21
139.3236261404
 31
0.0
  0
ARC
  5
E7
330
1F
100
AcDbEntity
  8
0
  6
Continuous
 62
     7
370
    15
100
AcDbCircle
 10
93.8639321291
 20
139.3236259318
 30
0.0
 40
1.0
100
AcDbArc
 50
90.0
 51
180.0
  0
LINE
  5
E8
330
1F
100
AcDbEntity
  8
0
  6
Continuous
 62
     7
370
    15
100
AcDbLine
 10
94.8668386304
 20
140.3236263043
 30
0.0
 11
93.8639327401
 21
140.3236263043
 31
0.0
  0
SPLINE
  5
E9
330
1F
100
AcDbEntity
  8
0
  6
Continuous
 62
     7
370
    15
100
AcDbSpline
210
0.0
220
0.0
230
1.0
 70
     8
 71
     3
 72
    10
 73
     6
 74
     0
 42
0.000000001
 43
0.00000001
 40
0.0
 40
0.0
 40
0.0
 40
0.0
 40
0.5
 40
0.5
 40
1.0
 40
1.0
 40
1.0
 40
1.0
 10
95.01036105776943
 20
139.8690804772074
 30
0.0
 10
94.96430977052455
 20
140.0185677371626
 30
0.0
 10
94.92857578645973
 20
140.1310925204637
 30
0.0
 10
94.8797811349297
 20
140.2838193270349
 30
0.0
 10
94.86683920413917
 20
140.3236259317528
 30
0.0
 10
94.86683920413917
 20
140.3236259317528
 30
0.0
  0
ARC
  5
EA
330
1F
100
AcDbEntity
  8
0
  6
Continuous
 62
     7
370
    15
100
AcDbCircle
 10
137.8639321291
 20
140.3236259318
 30
0.0
 40
6.0
100
AcDbArc
 50
90.0
 51
180.0
  0
LINE
  5
EB
330
1F
100
AcDbEntity
  8
0
  6
Continuous
 62
     7
370
    15
100
AcDbLine
 10
130.3639322036
 20
140.3236263043
 30
0.0
 11
131.8639315182
 21
140.3236263043
 31
0.0
  0
LINE
  5
EC
330
1F
100
AcDbEntity
  8
0
  6
Continuous
 62
     7
370
    15
100
AcDbLine
 10
137.8639325017
 20
147.8236247397
 30
0.0
 11
137.8639325017
 21
146.3236254251
 31
0.0
  0
LINE
  5
ED
330
1F
100
AcDbEntity
  8
0
  6
Continuous
 62
     7
370
    15
100
AcDbLine
 10
137.8639325017
 20
146.3236254251
 30
0.0
 11
161.8639308476
 21
146.3236254251
 31
0.0
  0
LINE
  5
EE
330
1F
100
AcDbEntity
  8
0
  6
Continuous
 62
     7
370
    15
100
AcDbLine
 10
161.8639308476
 20
146.3236254251
 30
0.0
 11
161.8639308476
 21
147.1370909906
 31
0.0
  0
LINE
  5
EF
330
1F
100
AcDbEntity
  8
0
  6
Continuous
 62
     7
370
    15
100
AcDbLine
 10
161.8639308476
 20
145.3236252612
 30
0.0
 11
161.8639308476
 21
146.3236254251
 31
0.0
  0
LINE
  5
F0
330
1F
100
AcDbEntity
  8
0
  6
Continuous
 62
     7
370
    15
100
AcDbLine
 10
162.8639328742
 20
146.3236254251
 30
0.0
 11
161.8639308476
 21
146.3236254251
 31
0.0
  0
ARC
  5
F1
330
1F
100
AcDbEntity
  8
0
  6
Continuous
 62
     7
370
    15
100
AcDbCircle
 10
161.8639321291
 20
146.3236259318
 30
0.0
 40
1.0
100
AcDbArc
 50
270.0
 51
0.0
  0
LINE
  5
F2
330
1F
100
AcDbEntity
  8
0
  6
Continuous
 62
     7
370
    15
100
AcDbLine
 10
162.8639328742
 20
148.2869018412
 30
0.0
 11
162.8639328742
 21
146.3236254251
 31
0.0
  0
ARC
  5
F3
330
1F
100
AcDbEntity
  8
0
  6
Continuous
 62
     7
370
    15
100
AcDbCircle
 10
137.8639321291
 20
140.3236259318
 30
0.0
 40
5.0
100
AcDbArc
 50
90.0
 51
180.0
  0
LINE
  5
F4
330
1F
100
AcDbEntity
  8
0
  6
Continuous
 62
     7
370
    15
100
AcDbLine
 10
137.8639325017
 20
145.3236252612
 30
0.0
 11
137.8639325017
 21
146.3236254251
 31
0.0
  0
LINE
  5
F5
330
1F
100
AcDbEntity
  8
0
  6
Continuous
 62
     7
370
    15
100
AcDbLine
 10
152.416020956
 20
145.3236252612
 30
0.0
 11
137.8639325017
 21
145.3236252612
 31
0.0
  0
LINE
  5
F6
330
1F
100
AcDbEntity
  8
0
  6
Continuous
 62
     7
370
    15
100
AcDbLine
 10
161.8639308476
 20
145.3236252612
 30
0.0
 11
153.3118452394
 21
145.3236252612
 31
0.0
  0
SPLINE
  5
F7
330
1F
100
AcDbEntity
  8
0
  6
Continuous
 62
     7
370
    15
100
AcDbSpline
210
0.0
220
0.0
230
1.0
 70
     8
 71
     3
 72
    13
 73
     9
 74
     0
 42
0.000000001
 43
0.00000001
 40
0.0
 40
0.0
 40
0.0
 40
0.0
 40
0.1666735606456612
 40
0.3333443833119352
 40
0.5000097300271173
 40
0.7496103248698618
 40
0.906982184349151
 40
1.0
 40
1.0
 40
1.0
 40
1.0
 10
153.3118439508058
 20
145.3236259317528
 30
0.0
 10
153.2622223365954
 20
145.3236340143489
 30
0.0
 10
153.1629799233186
 20
145.3236501794082
 30
0.0
 10
153.0135340190433
 20
145.3237322507187
 30
0.0
 10
152.8391211267682
 20
145.3240323388347
 30
0.0
 10
152.6674649281572
 20
145.323822648578
 30
0.0
 10
152.518206232417
 20
145.3236719968134
 30
0.0
 10
152.4436991198964
 20
145.3236384092655
 30
0.0
 10
152.4160203074473
 20
145.3236259317528
 30
0.0
  0
ARC
  5
F8
330
1F
100
AcDbEntity
  8
0
  6
Continuous
 62
     7
370
    15
100
AcDbCircle
 10
137.3639321291
 20
183.3207188567
 30
0.0
 40
0.5
100
AcDbArc
 50
270.6662450086
 51
0.0
  0
ARC
  5
F9
330
1F
100
AcDbEntity
  8
0
  6
Continuous
 62
     7
370
    15
100
AcDbCircle
 10
94.8668392041
 20
140.8236259318
 30
0.0
 40
0.5
100
AcDbArc
 50
270.0
 51
359.3337549915
  0
LINE
  5
FA
330
1F
100
AcDbEntity
  8
0
  6
Continuous
 62
     7
370
    15
100
AcDbLine
 10
214.9234329945
 20
140.3236263043
 30
0.0
 11
214.9234329945
 21
165.3236266768
 31
0.0
  0
LINE
  5
FB
330
1F
100
AcDbEntity
  8
0
  6
Continuous
 62
     7
370
    15
100
AcDbLine
 10
179.9234328454
 20
165.3236266768
 30
0.0
 11
179.9234328454
 21
140.3236263043
 31
0.0
  0
ARC
  5
FC
330
1F
100
AcDbEntity
  8
0
  6
Continuous
 62
     7
370
    15
100
AcDbCircle
 10
179.92343292
 20
116.3236259318
 30
0.0
 40
1.0
100
AcDbArc
 50
180.0
 51
270.0
  0
ARC
  5
FD
330
1F
100
AcDbEntity
  8
0
  6
Continuous
 62
     7
370
    15
100
AcDbCircle
 10
214.92343292
 20
116.3236259318
 30
0.0
 40
1.0
100
AcDbArc
 50
270.0
 51
0.0
  0
ARC
  5
FE
330
1F
100
AcDbEntity
  8
0
  6
Continuous
 62
     7
370
    15
100
AcDbCircle
 10
179.42343292
 20
119.8236259318
 30
0.0
 40
0.5
100
AcDbArc
 50
90.0
 51
180.0
  0
ARC
  5
FF
330
1F
100
AcDbEntity
  8
0
  6
Continuous
 62
     7
370
    15
100
AcDbCircle
 10
215.42343292
 20
119.8236259318
 30
0.0
 40
0.5
100
AcDbArc
 50
0.0
 51
90.0
  0
LINE
  5
100
330
1F
100
AcDbEntity
  8
0
  6
Continuous
 62
     7
370
    15
100
AcDbLine
 10
178.9234326815
 20
119.823625738
 30
0.0
 11
178.9234326815
 21
116.3236259793
 31
0.0
  0
LINE
  5
101
330
1F
100
AcDbEntity
  8
0
  6
Continuous
 62
     7
370
    15
100
AcDbLine
 10
215.9234331584
 20
116.3236259793
 30
0.0
 11
215.9234331584
 21
119.823625738
 31
0.0
  0
LINE
  5
102
330
1F
100
AcDbEntity
  8
0
  6
Continuous
 62
     7
370
    15
100
AcDbLine
 10
179.9234328454
 20
140.3236263043
 30
0.0
 11
179.9234328454
 21
120.823625902
 31
0.0
  0
LINE
  5
103
330
1F
100
AcDbEntity
  8
0
  6
Continuous
 62
     7
370
    15
100
AcDbLine
 10
214.9234329945
 20
120.823625902
 30
0.0
 11
214.9234329945
 21
140.3236263043
 31
0.0
  0
ARC
  5
104
330
1F
100
AcDbEntity
  8
0
  6
Continuous
 62
     7
370
    15
100
AcDbCircle
 10
179.42343292
 20
120.8236259318
 30
0.0
 40
0.5
100
AcDbArc
 50
270.0
 51
0.0
  0
ARC
  5
105
330
1F
100
AcDbEntity
  8
0
  6
Continuous
 62
     7
370
    15
100
AcDbCircle
 10
215.42343292
 20
120.8236259318
 30
0.0
 40
0.5
100
AcDbArc
 50
180.0
 51
270.0
  0
LINE
  5
106
330
1F
100
AcDbEntity
  8
0
  6
Continuous
 62
     7
370
    15
100
AcDbLine
 10
192.4234330317
 20
116.3236259793
 30
0.0
 11
192.4234330317
 21
135.3236254847
 31
0.0
  0
LINE
  5
107
330
1F
100
AcDbEntity
  8
0
  6
Continuous
 62
     7
370
    15
100
AcDbLine
 10
192.4234330317
 20
135.3236254847
 30
0.0
 11
193.42343273
 21
135.3236254847
 31
0.0
  0
LINE
  5
108
330
1F
100
AcDbEntity
  8
0
  6
Continuous
 62
     7
370
    15
100
AcDbLine
 10
193.42343273
 20
135.3236254847
 30
0.0
 11
193.42343273
 21
116.3236259793
 31
0.0
  0
LINE
  5
109
330
1F
100
AcDbEntity
  8
0
  6
Continuous
 62
     7
370
    15
100
AcDbLine
 10
193.42343273
 20
116.3236259793
 30
0.0
 11
192.4234330317
 21
116.3236259793
 31
0.0
  0
ARC
  5
10A
330
1F
100
AcDbEntity
  8
0
  6
Continuous
 62
     7
370
    15
100
AcDbCircle
 10
193.42343292
 20
116.3236259318
 30
0.0
 40
1.0
100
AcDbArc
 50
180.0
 51
270.0
  0
LINE
  5
10B
330
1F
100
AcDbEntity
  8
0
  6
Continuous
 62
     7
370
    15
100
AcDbLine
 10
193.42343273
 20
116.3236259793
 30
0.0
 11
193.42343273
 21
115.3236259318
 31
0.0
  0
ARC
  5
10C
330
1F
100
AcDbEntity
  8
0
  6
Continuous
 62
     7
370
    15
100
AcDbCircle
 10
197.42343292
 20
135.3236259318
 30
0.0
 40
5.0
100
AcDbArc
 50
90.0
 51
180.0
  0
LINE
  5
10D
330
1F
100
AcDbEntity
  8
0
  6
Continuous
 62
     7
370
    15
100
AcDbLine
 10
197.42343292
 20
140.3236263043
 30
0.0
 11
197.42343292
 21
139.3236261404
 31
0.0
  0
ARC
  5
10E
330
1F
100
AcDbEntity
  8
0
  6
Continuous
 62
     7
370
    15
100
AcDbCircle
 10
197.42343292
 20
135.3236259318
 30
0.0
 40
4.0
100
AcDbArc
 50
90.0
 51
180.0
  0
LINE
  5
10F
330
1F
100
AcDbEntity
  8
0
  6
Continuous
 62
     7
370
    15
100
AcDbLine
 10
193.42343273
 20
116.3236259793
 30
0.0
 11
201.4234331099
 21
116.3236259793
 31
0.0
  0
LINE
  5
110
330
1F
100
AcDbEntity
  8
0
  6
Continuous
 62
     7
370
    15
100
AcDbLine
 10
201.4234331099
 20
116.3236259793
 30
0.0
 11
201.4234331099
 21
115.3236259318
 31
0.0
  0
LINE
  5
111
330
1F
100
AcDbEntity
  8
0
  6
Continuous
 62
     7
370
    15
100
AcDbLine
 10
201.4234331099
 20
115.3236259318
 30
0.0
 11
193.42343273
 21
115.3236259318
 31
0.0
  0
CIRCLE
  5
112
330
1F
100
AcDbEntity
  8
0
  6
Continuous
 62
     7
370
    15
100
AcDbCircle
 10
197.42343292
 20
125.3236259318
 30
0.0
 40
3.5
  0
CIRCLE
  5
113
330
1F
100
AcDbEntity
  8
0
  6
Continuous
 62
     7
370
    15
100
AcDbCircle
 10
197.42343292
 20
125.3236259318
 30
0.0
 40
2.5
  0
SPLINE
  5
114
330
1F
100
AcDbEntity
  8
0
  6
Continuous
 62
     7
370
    15
100
AcDbSpline
210
0.0
220
0.0
230
1.0
 70
     8
 71
     3
 72
     8
 73
     4
 74
     0
 42
0.000000001
 43
0.00000001
 40
0.25
 40
0.25
 40
0.25
 40
0.25
 40
0.5
 40
0.5
 40
0.5
 40
0.5
 10
197.423432919955
 20
130.9285908117528
 30
0.0
 10
196.400859399955
 20
130.9285908117528
 30
0.0
 10
195.571640839955
 20
132.4489382917528
 30
0.0
 10
195.571640839955
 20
134.3236259317528
 30
0.0
  0
SPLINE
  5
115
330
1F
100
AcDbEntity
  8
0
  6
Continuous
 62
     7
370
    15
100
AcDbSpline
210
0.0
220
0.0
230
1.0
 70
     8
 71
     3
 72
     8
 73
     4
 74
     0
 42
0.000000001
 43
0.00000001
 40
0.0
 40
0.0
 40
0.0
 40
0.0
 40
0.25
 40
0.25
 40
0.25
 40
0.25
 10
199.275224999955
 20
134.3236259317528
 30
0.0
 10
199.275224999955
 20
132.4489382917528
 30
0.0
 10
198.446006439955
 20
130.9285908117528
 30
0.0
 10
197.423432919955
 20
130.9285908117528
 30
0.0
  0
SPLINE
  5
116
330
1F
100
AcDbEntity
  8
0
  6
Continuous
 62
     7
370
    15
100
AcDbSpline
210
0.0
220
0.0
230
1.0
 70
     8
 71
     3
 72
     8
 73
     4
 74
     0
 42
0.000000001
 43
0.00000001
 40
0.75
 40
0.75
 40
0.75
 40
0.75
 40
1.0
 40
1.0
 40
1.0
 40
1.0
 10
197.4234329199549
 20
137.7185594517528
 30
0.0
 10
198.4460064399549
 20
137.7185594517528
 30
0.0
 10
199.275224999955
 20
136.1983135717528
 30
0.0
 10
199.275224999955
 20
134.3236259317528
 30
0.0
  0
SPLINE
  5
117
330
1F
100
AcDbEntity
  8
0
  6
Continuous
 62
     7
370
    15
100
AcDbSpline
210
0.0
220
0.0
230
1.0
 70
     8
 71
     3
 72
     8
 73
     4
 74
     0
 42
0.000000001
 43
0.00000001
 40
0.5
 40
0.5
 40
0.5
 40
0.5
 40
0.75
 40
0.75
 40
0.75
 40
0.75
 10
195.571640839955
 20
134.3236259317528
 30
0.0
 10
195.5716408399549
 20
136.1983135717528
 30
0.0
 10
196.400859399955
 20
137.7185594517528
 30
0.0
 10
197.4234329199549
 20
137.7185594517528
 30
0.0
  0
ARC
  5
118
330
1F
100
AcDbEntity
  8
0
  6
Continuous
 62
     7
370
    15
100
AcDbCircle
 10
197.42343292
 20
135.3236259318
 30
0.0
 40
4.0
100
AcDbArc
 50
0.0
 51
90.0
  0
LINE
  5
119
330
1F
100
AcDbEntity
  8
0
  6
Continuous
 62
     7
370
    15
100
AcDbLine
 10
201.4234331099
 20
116.3236259793
 30
0.0
 11
201.4234331099
 21
135.3236254847
 31
0.0
  0
LINE
  5
11A
330
1F
100
AcDbEntity
  8
0
  6
Continuous
 62
     7
370
    15
100
AcDbLine
 10
197.0978404815
 20
137.2197796202
 30
0.0
 11
196.7765812541
 21
137.2197796202
 31
0.0
  0
LINE
  5
11B
330
1F
100
AcDbEntity
  8
0
  6
Continuous
 62
     7
370
    15
100
AcDbLine
 10
197.0978404815
 20
135.9429214692
 30
0.0
 11
197.0978404815
 21
137.2197796202
 31
0.0
  0
LINE
  5
11C
330
1F
100
AcDbEntity
  8
0
  6
Continuous
 62
     7
370
    15
100
AcDbLine
 10
198.0702845858
 20
135.9429214692
 30
0.0
 11
197.0978404815
 21
135.9429214692
 31
0.0
  0
LINE
  5
11D
330
1F
100
AcDbEntity
  8
0
  6
Continuous
 62
     7
370
    15
100
AcDbLine
 10
198.0702845858
 20
135.4525130785
 30
0.0
 11
198.0702845858
 21
135.9429214692
 31
0.0
  0
LINE
  5
11E
330
1F
100
AcDbEntity
  8
0
  6
Continuous
 62
     7
370
    15
100
AcDbLine
 10
197.1387903568
 20
135.4525130785
 30
0.0
 11
198.0702845858
 21
135.4525130785
 31
0.0
  0
SPLINE
  5
11F
330
1F
100
AcDbEntity
  8
0
  6
Continuous
 62
     7
370
    15
100
AcDbSpline
210
0.0
220
0.0
230
1.0
 70
     8
 71
     3
 72
     8
 73
     4
 74
     0
 42
0.000000001
 43
0.00000001
 40
0.7142857142857142
 40
0.7142857142857142
 40
0.7142857142857142
 40
0.7142857142857142
 40
0.857142857142857
 40
0.857142857142857
 40
0.857142857142857
 40
0.857142857142857
 10
196.776581279955
 20
135.8147227717528
 30
0.0
 10
196.776581279955
 20
135.6155105717528
 30
0.0
 10
196.9395781599549
 20
135.4525136917528
 30
0.0
 10
197.1387903599549
 20
135.4525136917528
 30
0.0
  0
LINE
  5
120
330
1F
100
AcDbEntity
  8
0
  6
Continuous
 62
     7
370
    15
100
AcDbLine
 10
196.7765812541
 20
137.2197796202
 30
0.0
 11
196.7765812541
 21
135.8147230542
 31
0.0
  0
SPLINE
  5
121
330
1F
100
AcDbEntity
  8
0
  6
Continuous
 62
     7
370
    15
100
AcDbSpline
210
0.0
220
0.0
230
1.0
 70
     8
 71
     3
 72
     8
 73
     4
 74
     0
 42
0.000000001
 43
0.00000001
 40
0.1111111111111111
 40
0.1111111111111111
 40
0.1111111111111111
 40
0.1111111111111111
 40
0.2222222222222222
 40
0.2222222222222222
 40
0.2222222222222222
 40
0.2222222222222222
 10
196.776581279955
 20
134.9718898117528
 30
0.0
 10
196.776581279955
 20
135.1710969317528
 30
0.0
 10
196.9395781599549
 20
135.3340988917528
 30
0.0
 10
197.138790359955
 20
135.3340988917528
 30
0.0
  0
LINE
  5
122
330
1F
100
AcDbEntity
  8
0
  6
Continuous
 62
     7
370
    15
100
AcDbLine
 10
197.1387903568
 20
135.3340991384
 30
0.0
 11
198.0702845858
 21
135.3340991384
 31
0.0
  0
LINE
  5
123
330
1F
100
AcDbEntity
  8
0
  6
Continuous
 62
     7
370
    15
100
AcDbLine
 10
198.0702845858
 20
135.3340991384
 30
0.0
 11
198.0702845858
 21
134.8435901648
 31
0.0
  0
LINE
  5
124
330
1F
100
AcDbEntity
  8
0
  6
Continuous
 62
     7
370
    15
100
AcDbLine
 10
198.0702845858
 20
134.8435901648
 30
0.0
 11
197.0978404815
 21
134.8435901648
 31
0.0
  0
LINE
  5
125
330
1F
100
AcDbEntity
  8
0
  6
Continuous
 62
     7
370
    15
100
AcDbLine
 10
197.0978404815
 20
134.8435901648
 30
0.0
 11
197.0978404815
 21
133.9135081118
 31
0.0
  0
LINE
  5
126
330
1F
100
AcDbEntity
  8
0
  6
Continuous
 62
     7
370
    15
100
AcDbLine
 10
197.0978404815
 20
133.9135081118
 30
0.0
 11
198.0702845858
 21
133.9135081118
 31
0.0
  0
LINE
  5
127
330
1F
100
AcDbEntity
  8
0
  6
Continuous
 62
     7
370
    15
100
AcDbLine
 10
198.0702845858
 20
133.9135081118
 30
0.0
 11
198.0702845858
 21
133.4315728939
 31
0.0
  0
LINE
  5
128
330
1F
100
AcDbEntity
  8
0
  6
Continuous
 62
     7
370
    15
100
AcDbLine
 10
198.0702845858
 20
133.4315728939
 30
0.0
 11
196.7765812541
 21
133.4315728939
 31
0.0
  0
LINE
  5
129
330
1F
100
AcDbEntity
  8
0
  6
Continuous
 62
     7
370
    15
100
AcDbLine
 10
196.7765812541
 20
133.4315728939
 30
0.0
 11
196.7765812541
 21
134.9718891627
 31
0.0
  0
SPLINE
  5
12A
330
1F
100
AcDbEntity
  8
0
  6
Continuous
 62
     7
370
    15
100
AcDbSpline
210
0.0
220
0.0
230
1.0
 70
     8
 71
     3
 72
     8
 73
     4
 74
     0
 42
0.000000001
 43
0.00000001
 40
0.3333333333333333
 40
0.3333333333333333
 40
0.3333333333333333
 40
0.3333333333333333
 40
0.4166666666666666
 40
0.4166666666666666
 40
0.4166666666666666
 40
0.4166666666666666
 10
198.070284559955
 20
131.7897828917528
 30
0.0
 10
198.070284559955
 20
131.5905706917528
 30
0.0
 10
197.907282599955
 20
131.4275738117528
 30
0.0
 10
197.708075479955
 20
131.4275738117528
 30
0.0
  0
LINE
  5
12B
330
1F
100
AcDbEntity
  8
0
  6
Continuous
 62
     7
370
    15
100
AcDbLine
 10
197.7080754832
 20
131.4275734669
 30
0.0
 11
197.4952488772
 21
131.4275734669
 31
0.0
  0
LINE
  5
12C
330
1F
100
AcDbEntity
  8
0
  6
Continuous
 62
     7
370
    15
100
AcDbLine
 10
197.4952488772
 20
131.4275734669
 30
0.0
 11
197.4952488772
 21
131.9180824405
 31
0.0
  0
LINE
  5
12D
330
1F
100
AcDbEntity
  8
0
  6
Continuous
 62
     7
370
    15
100
AcDbLine
 10
197.4952488772
 20
131.9180824405
 30
0.0
 11
197.7404503222
 21
131.9180824405
 31
0.0
  0
LINE
  5
12E
330
1F
100
AcDbEntity
  8
0
  6
Continuous
 62
     7
370
    15
100
AcDbLine
 10
197.7404503222
 20
131.9180824405
 30
0.0
 11
197.7404503222
 21
132.8058023548
 31
0.0
  0
LINE
  5
12F
330
1F
100
AcDbEntity
  8
0
  6
Continuous
 62
     7
370
    15
100
AcDbLine
 10
197.7404503222
 20
132.8058023548
 30
0.0
 11
197.0978404815
 21
132.8058023548
 31
0.0
  0
LINE
  5
130
330
1F
100
AcDbEntity
  8
0
  6
Continuous
 62
     7
370
    15
100
AcDbLine
 10
197.0978404815
 20
132.8058023548
 30
0.0
 11
197.0978404815
 21
132.2646555102
 31
0.0
  0
LINE
  5
131
330
1F
100
AcDbEntity
  8
0
  6
Continuous
 62
     7
370
    15
100
AcDbLine
 10
196.7765812541
 20
132.2646555102
 30
0.0
 11
196.7765812541
 21
133.2962107456
 31
0.0
  0
SPLINE
  5
132
330
1F
100
AcDbEntity
  8
0
  6
Continuous
 62
     7
370
    15
100
AcDbSpline
210
0.0
220
0.0
230
1.0
 70
     8
 71
     3
 72
     8
 73
     4
 74
     0
 42
0.000000001
 43
0.00000001
 40
0.1666666666666667
 40
0.1666666666666667
 40
0.1666666666666667
 40
0.1666666666666667
 40
0.25
 40
0.25
 40
0.25
 40
0.25
 10
197.708476799955
 20
133.2962111717528
 30
0.0
 10
197.907485799955
 20
133.2962111717528
 30
0.0
 10
198.070284559955
 20
133.1334124117528
 30
0.0
 10
198.070284559955
 20
132.9345050117528
 30
0.0
  0
LINE
  5
133
330
1F
100
AcDbEntity
  8
0
  6
Continuous
 62
     7
370
    15
100
AcDbLine
 10
198.0702845858
 20
132.9345055467
 30
0.0
 11
198.0702845858
 21
131.7897834426
 31
0.0
  0
LINE
  5
134
330
1F
100
AcDbEntity
  8
0
  6
Continuous
 62
     7
370
    15
100
AcDbLine
 10
196.7765812541
 20
133.2962107456
 30
0.0
 11
197.7084767959
 21
133.2962107456
 31
0.0
  0
LINE
  5
135
330
1F
100
AcDbEntity
  8
0
  6
Continuous
 62
     7
370
    15
100
AcDbLine
 10
197.0978404815
 20
132.2646555102
 30
0.0
 11
196.7765812541
 21
132.2646555102
 31
0.0
  0
LINE
  5
136
330
1F
100
AcDbEntity
  8
0
  6
Continuous
 62
     7
370
    15
100
AcDbLine
 10
197.5545578852
 20
136.1204464531
 30
0.0
 11
197.5545578852
 21
136.9406845963
 31
0.0
  0
LINE
  5
137
330
1F
100
AcDbEntity
  8
0
  6
Continuous
 62
     7
370
    15
100
AcDbLine
 10
197.2839361214
 20
136.9406845963
 30
0.0
 11
197.2839361214
 21
136.1204464531
 31
0.0
  0
LINE
  5
138
330
1F
100
AcDbEntity
  8
0
  6
Continuous
 62
     7
370
    15
100
AcDbLine
 10
197.2839361214
 20
136.1204464531
 30
0.0
 11
197.5545578852
 21
136.1204464531
 31
0.0
  0
LINE
  5
139
330
1F
100
AcDbEntity
  8
0
  6
Continuous
 62
     7
370
    15
100
AcDbLine
 10
197.5545578852
 20
136.9406845963
 30
0.0
 11
197.2839361214
 21
136.9406845963
 31
0.0
  0
ARC
  5
13A
330
1F
100
AcDbEntity
  8
0
  6
Continuous
 62
     7
370
    15
100
AcDbCircle
 10
197.42343292
 20
135.3236259318
 30
0.0
 40
5.0
100
AcDbArc
 50
0.0
 51
90.0
  0
LINE
  5
13B
330
1F
100
AcDbEntity
  8
0
  6
Continuous
 62
     7
370
    15
100
AcDbLine
 10
202.4234328082
 20
135.3236254847
 30
0.0
 11
201.4234331099
 21
135.3236254847
 31
0.0
  0
ARC
  5
13C
330
1F
100
AcDbEntity
  8
0
  6
Continuous
 62
     7
370
    15
100
AcDbCircle
 10
201.42343292
 20
116.3236259318
 30
0.0
 40
1.0
100
AcDbArc
 50
270.0
 51
0.0
  0
LINE
  5
13D
330
1F
100
AcDbEntity
  8
0
  6
Continuous
 62
     7
370
    15
100
AcDbLine
 10
202.4234328082
 20
116.3236259793
 30
0.0
 11
201.4234331099
 21
116.3236259793
 31
0.0
  0
LINE
  5
13E
330
1F
100
AcDbEntity
  8
0
  6
Continuous
 62
     7
370
    15
100
AcDbLine
 10
202.4234328082
 20
135.3236254847
 30
0.0
 11
202.4234328082
 21
116.3236259793
 31
0.0
  0
SPLINE
  5
13F
330
1F
100
AcDbEntity
  8
0
  6
Continuous
 62
     7
370
    15
100
AcDbSpline
210
0.0
220
0.0
230
1.0
 70
     8
 71
     3
 72
    10
 73
     6
 74
     0
 42
0.000000001
 43
0.00000001
 40
0.0
 40
0.0
 40
0.0
 40
0.0
 40
0.5000000000000001
 40
0.5000000000000001
 40
1.0
 40
1.0
 40
1.0
 40
1.0
 10
197.423432919955
 20
140.8178119782644
 30
0.0
 10
197.8106861744592
 20
140.8178119782644
 30
0.0
 10
198.1976218319894
 20
140.774471605748
 30
0.0
 10
198.9420694776126
 20
140.6083570645218
 30
0.0
 10
199.3025230336494
 20
140.4860143196866
 30
0.0
 10
199.6510738827807
 20
140.3236259317528
 30
0.0
  0
ARC
  5
140
330
1F
100
AcDbEntity
  8
0
  6
Continuous
 62
     7
370
    15
100
AcDbCircle
 10
200.5556732577
 20
139.7854620206
 30
0.0
 40
1.052578196666438
100
AcDbArc
 50
149.250739215
 51
175.4434885251
  0
LINE
  5
141
330
1F
100
AcDbEntity
  8
0
  6
Continuous
 62
     7
370
    15
100
AcDbLine
 10
197.42343292
 20
140.8178121394
 30
0.0
 11
197.42343292
 21
140.3236263043
 31
0.0
  0
LINE
  5
142
330
1F
100
AcDbEntity
  8
0
  6
Continuous
 62
     7
370
    15
100
AcDbLine
 10
202.4234328082
 20
116.3236259793
 30
0.0
 11
202.7786960488
 21
116.3236259793
 31
0.0
  0
SPLINE
  5
143
330
1F
100
AcDbEntity
  8
0
  6
Continuous
 62
     7
370
    15
100
AcDbSpline
210
0.0
220
0.0
230
1.0
 70
     8
 71
     3
 72
    16
 73
    12
 74
     0
 42
0.000000001
 43
0.00000001
 40
0.0
 40
0.0
 40
0.0
 40
0.0
 40
0.2499999999999994
 40
0.2499999999999994
 40
0.3749999999999992
 40
0.3749999999999992
 40
0.4999999999999989
 40
0.4999999999999989
 40
0.7499999999999994
 40
0.7499999999999994
 40
1.0
 40
1.0
 40
1.0
 40
1.0
 10
202.7786960778497
 20
116.3236259317528
 30
0.0
 10
202.7786960778497
 20
116.1549989988975
 30
0.0
 10
202.719279433677
 20
115.9927570049372
 30
0.0
 10
202.5827629021154
 20
115.7961482172497
 30
0.0
 10
202.5286969046015
 20
115.7364601126318
 30
0.0
 10
202.412733467934
 20
115.6323123226972
 30
0.0
 10
202.3504053040865
 20
115.5870739052829
 30
0.0
 10
202.1528957642907
 20
115.4680030533337
 30
0.0
 10
202.0099110513417
 20
115.4125250942513
 30
0.0
 10
201.7196943639197
 20
115.3405043155093
 30
0.0
 10
201.5715335893404
 20
115.3236259317528
 30
0.0
 10
201.423432919955
 20
115.3236259317528
 30
0.0
  0
LINE
  5
144
330
1F
100
AcDbEntity
  8
0
  6
Continuous
 62
     7
370
    15
100
AcDbLine
 10
192.0681697911
 20
116.3236259793
 30
0.0
 11
192.4234330317
 21
116.3236259793
 31
0.0
  0
SPLINE
  5
145
330
1F
100
AcDbEntity
  8
0
  6
Continuous
 62
     7
370
    15
100
AcDbSpline
210
0.0
220
0.0
230
1.0
 70
     8
 71
     3
 72
    16
 73
    12
 74
     0
 42
0.000000001
 43
0.00000001
 40
0.0
 40
0.0
 40
0.0
 40
0.0
 40
0.249999999999999
 40
0.249999999999999
 40
0.3749999999999985
 40
0.3749999999999985
 40
0.499999999999998
 40
0.499999999999998
 40
0.749999999999999
 40
0.749999999999999
 40
1.0
 40
1.0
 40
1.0
 40
1.0
 10
192.0681697620602
 20
116.3236259317528
 30
0.0
 10
192.0681697620602
 20
116.1549989988975
 30
0.0
 10
192.1275864062328
 20
115.9927570049372
 30
0.0
 10
192.2641029377945
 20
115.7961482172497
 30
0.0
 10
192.3181689353083
 20
115.7364601126318
 30
0.0
 10
192.4341323719759
 20
115.6323123226972
 30
0.0
 10
192.4964605358234
 20
115.5870739052829
 30
0.0
 10
192.6939700756192
 20
115.4680030533337
 30
0.0
 10
192.8369547885682
 20
115.4125250942513
 30
0.0
 10
193.1271714759902
 20
115.3405043155093
 30
0.0
 10
193.2753322505707
 20
115.3236259317528
 30
0.0
 10
193.423432919955
 20
115.3236259317528
 30
0.0
  0
SPLINE
  5
146
330
1F
100
AcDbEntity
  8
0
  6
Continuous
 62
     7
370
    15
100
AcDbSpline
210
0.0
220
0.0
230
1.0
 70
     8
 71
     3
 72
    10
 73
     6
 74
     0
 42
0.000000001
 43
0.00000001
 40
0.0
 40
0.0
 40
0.0
 40
0.0
 40
0.5
 40
0.5
 40
1.0
 40
1.0
 40
1.0
 40
1.0
 10
195.1957919571292
 20
140.3236259317528
 30
0.0
 10
195.5443304610773
 20
140.4860085681172
 30
0.0
 10
195.9047828745135
 20
140.6083539693555
 30
0.0
 10
196.6492552433666
 20
140.774474198332
 30
0.0
 10
197.0361939775271
 20
140.8178119782644
 30
0.0
 10
197.423432919955
 20
140.8178119782644
 30
0.0
  0
ARC
  5
147
330
1F
100
AcDbEntity
  8
0
  6
Continuous
 62
     7
370
    15
100
AcDbCircle
 10
194.2911925822
 20
139.7854620206
 30
0.0
 40
1.052578196666412
100
AcDbArc
 50
4.5565114749
 51
30.749260785
  0
SPLINE
  5
148
330
1F
100
AcDbEntity
  8
0
  6
Continuous
 62
     7
370
    15
100
AcDbSpline
210
0.0
220
0.0
230
1.0
 70
     8
 71
     3
 72
    12
 73
     8
 74
     0
 42
0.000000001
 43
0.00000001
 40
0.0
 40
0.0
 40
0.0
 40
0.0
 40
0.2499999999999994
 40
0.2499999999999994
 40
0.4999999999999988
 40
0.4999999999999988
 40
1.0
 40
1.0
 40
1.0
 40
1.0
 10
192.0681697620602
 20
119.8236259317528
 30
0.0
 10
192.0681697620602
 20
119.8957828080091
 30
0.0
 10
192.0638176675465
 20
119.9666092046322
 30
0.0
 10
192.0480726180764
 20
120.0924673457748
 30
0.0
 10
192.0367230469458
 20
120.1475461040047
 30
0.0
 10
191.9957724720684
 20
120.2801633806058
 30
0.0
 10
191.9603609014513
 20
120.3236259317528
 30
0.0
 10
191.923432919955
 20
120.3236259317528
 30
0.0
  0
ARC
  5
149
330
1F
100
AcDbEntity
  8
0
  6
Continuous
 62
     7
370
    15
100
AcDbCircle
 10
191.92343292
 20
120.8236259318
 30
0.0
 40
0.5
100
AcDbArc
 50
270.0
 51
0.0
  0
LINE
  5
14A
330
1F
100
AcDbEntity
  8
0
  6
Continuous
 62
     7
370
    15
100
AcDbLine
 10
192.0681697911
 20
119.823625738
 30
0.0
 11
192.4234330317
 21
119.823625738
 31
0.0
  0
ARC
  5
14B
330
1F
100
AcDbEntity
  8
0
  6
Continuous
 62
     7
370
    15
100
AcDbCircle
 10
202.92343292
 20
120.8236259318
 30
0.0
 40
0.5
100
AcDbArc
 50
180.0
 51
270.0
  0
SPLINE
  5
14C
330
1F
100
AcDbEntity
  8
0
  6
Continuous
 62
     7
370
    15
100
AcDbSpline
210
0.0
220
0.0
230
1.0
 70
     8
 71
     3
 72
    10
 73
     6
 74
     0
 42
0.000000001
 43
0.00000001
 40
0.0
 40
0.0
 40
0.0
 40
0.0
 40
0.5
 40
0.5
 40
1.0
 40
1.0
 40
1.0
 40
1.0
 10
202.923432919955
 20
120.3236259317528
 30
0.0
 10
202.8865126494548
 20
120.3236259317528
 30
0.0
 10
202.8507781096701
 20
120.2793146973834
 30
0.0
 10
202.7966110157453
 20
120.1035509285147
 30
0.0
 10
202.7786960778497
 20
119.967822171953
 30
0.0
 10
202.7786960778497
 20
119.8236259317528
 30
0.0
  0
LINE
  5
14D
330
1F
100
AcDbEntity
  8
0
  6
Continuous
 62
     7
370
    15
100
AcDbLine
 10
202.4234328082
 20
119.823625738
 30
0.0
 11
202.7786960488
 21
119.823625738
 31
0.0
  0
LINE
  5
14E
330
1F
100
AcDbEntity
  8
0
  6
Continuous
 62
     7
370
    15
100
AcDbLine
 10
192.0681697911
 20
116.3236259793
 30
0.0
 11
192.0681697911
 21
119.823625738
 31
0.0
  0
LINE
  5
14F
330
1F
100
AcDbEntity
  8
0
  6
Continuous
 62
     7
370
    15
100
AcDbLine
 10
202.7786960488
 20
119.823625738
 30
0.0
 11
202.7786960488
 21
116.3236259793
 31
0.0
  0
SPLINE
  5
150
330
1F
100
AcDbEntity
  8
0
  6
Continuous
 62
     7
370
    15
100
AcDbSpline
210
0.0
220
0.0
230
1.0
 70
     8
 71
     3
 72
    18
 73
    14
 74
     0
 42
0.000000001
 43
0.00000001
 40
0.0
 40
0.0
 40
0.0
 40
0.0
 40
0.2499999999999996
 40
0.2499999999999996
 40
0.3749999999999999
 40
0.3749999999999999
 40
0.5000000000000002
 40
0.5000000000000002
 40
0.6250000000000006
 40
0.6250000000000006
 40
0.7500000000000008
 40
0.7500000000000008
 40
1.0
 40
1.0
 40
1.0
 40
1.0
 10
199.6510738827807
 20
140.3236259317528
 30
0.0
 10
200.1243739596474
 20
140.1005356362325
 30
0.0
 10
200.5515133389756
 20
139.815103539184
 30
0.0
 10
201.1285044728443
 20
139.2980004061581
 30
0.0
 10
201.3100496507386
 20
139.1099842427239
 30
0.0
 10
201.6404818770786
 20
138.7153215173814
 30
0.0
 10
201.7909978241195
 20
138.5073581963798
 30
0.0
 10
202.0631077690075
 20
138.0701029492072
 30
0.0
 10
202.1854584581463
 20
137.8389860636027
 30
0.0
 10
202.3958250930795
 20
137.3633688741479
 30
0.0
 10
202.4836231916857
 20
137.1201491830952
 30
0.0
 10
202.6962586131322
 20
136.3744707843138
 30
0.0
 10
202.7706551421772
 20
135.8502386813926
 30
0.0
 10
202.7706551421772
 20
135.3236259317528
 30
0.0
  0
LINE
  5
151
330
1F
100
AcDbEntity
  8
0
  6
Continuous
 62
     7
370
    15
100
AcDbLine
 10
202.7706550097
 20
135.3236254847
 30
0.0
 11
202.4234328082
 21
135.3236254847
 31
0.0
  0
SPLINE
  5
152
330
1F
100
AcDbEntity
  8
0
  6
Continuous
 62
     7
370
    15
100
AcDbSpline
210
0.0
220
0.0
230
1.0
 70
     8
 71
     3
 72
    18
 73
    14
 74
     0
 42
0.000000001
 43
0.00000001
 40
0.0
 40
0.0
 40
0.0
 40
0.0
 40
0.2500000000000017
 40
0.2500000000000017
 40
0.3750000000000017
 40
0.3750000000000017
 40
0.5000000000000017
 40
0.5000000000000017
 40
0.6250000000000017
 40
0.6250000000000017
 40
0.7500000000000016
 40
0.7500000000000016
 40
1.0
 40
1.0
 40
1.0
 40
1.0
 10
192.0762106977327
 20
135.3236259317528
 30
0.0
 10
192.0762106977327
 20
135.8498870034199
 30
0.0
 10
192.1481547556238
 20
136.3633919965166
 30
0.0
 10
192.3614806461276
 20
137.115183507521
 30
0.0
 10
192.4506821680502
 20
137.3622351448956
 30
0.0
 10
192.6594979181968
 20
137.8349884962848
 30
0.0
 10
192.7796076973941
 20
138.0627068086341
 30
0.0
 10
193.0514713046954
 20
138.5009974980514
 30
0.0
 10
193.2045618382379
 20
138.7129738432893
 30
0.0
 10
193.5356634124643
 20
139.1087772120794
 30
0.0
 10
193.7138348541113
 20
139.2934212636844
 30
0.0
 10
194.2864265461469
 20
139.8081247358517
 30
0.0
 10
194.7229251166042
 20
140.1007398424607
 30
0.0
 10
195.1957919571292
 20
140.3236259317528
 30
0.0
  0
LINE
  5
153
330
1F
100
AcDbEntity
  8
0
  6
Continuous
 62
     7
370
    15
100
AcDbLine
 10
192.0762108302
 20
135.3236254847
 30
0.0
 11
192.4234330317
 21
135.3236254847
 31
0.0
  0
ARC
  5
154
330
1F
100
AcDbEntity
  8
0
  6
Continuous
 62
     7
370
    15
100
AcDbCircle
 10
197.42343292
 20
165.3236259318
 30
0.0
 40
17.50000000000003
100
AcDbArc
 50
97.3132374323
 51
180.0
  0
SPLINE
  5
155
330
1F
100
AcDbEntity
  8
0
  6
Continuous
 62
     7
370
    15
100
AcDbSpline
210
0.0
220
0.0
230
1.0
 70
     8
 71
     3
 72
    10
 73
     6
 74
     0
 42
0.000000001
 43
0.00000001
 40
0.0
 40
0.0
 40
0.0
 40
0.0
 40
0.5
 40
0.5
 40
1.0
 40
1.0
 40
1.0
 40
1.0
 10
197.423432919955
 20
182.820752659938
 30
0.0
 10
197.0361939775271
 20
182.820752659938
 30
0.0
 10
196.6492552433666
 20
182.8081612216481
 30
0.0
 10
195.9047828745135
 20
182.7607233960136
 30
0.0
 10
195.5443304610772
 20
182.7259951345316
 30
0.0
 10
195.1957919571292
 20
182.68126447335
 30
0.0
  0
SPLINE
  5
156
330
1F
100
AcDbEntity
  8
0
  6
Continuous
 62
     7
370
    15
100
AcDbSpline
210
0.0
220
0.0
230
1.0
 70
     8
 71
     3
 72
    10
 73
     6
 74
     0
 42
0.000000001
 43
0.00000001
 40
0.0
 40
0.0
 40
0.0
 40
0.0
 40
0.5
 40
0.5
 40
1.0
 40
1.0
 40
1.0
 40
1.0
 10
199.6510738827807
 20
182.68126447335
 30
0.0
 10
199.3024435119918
 20
182.7260069245189
 30
0.0
 10
198.9350568591718
 20
182.7613208278683
 30
0.0
 10
198.1903659941314
 20
182.8084702229795
 30
0.0
 10
197.8107336060691
 20
182.820752659938
 30
0.0
 10
197.423432919955
 20
182.820752659938
 30
0.0
  0
ARC
  5
157
330
1F
100
AcDbEntity
  8
0
  6
Continuous
 62
     7
370
    15
100
AcDbCircle
 10
197.42343292
 20
165.3236259318
 30
0.0
 40
17.5
100
AcDbArc
 50
0.0
 51
82.6867625677
  0
LINE
  5
158
330
1F
100
AcDbEntity
  8
0
  6
Continuous
 62
     7
370
    15
100
AcDbLine
 10
193.42343273
 20
115.3236259318
 30
0.0
 11
179.9234328454
 21
115.3236259318
 31
0.0
  0
LINE
  5
159
330
1F
100
AcDbEntity
  8
0
  6
Continuous
 62
     7
370
    15
100
AcDbLine
 10
214.9234329945
 20
115.3236259318
 30
0.0
 11
201.4234331099
 21
115.3236259318
 31
0.0
  0
LINE
  5
15A
330
1F
100
AcDbEntity
  8
0
  6
Continuous
 62
     7
370
    15
100
AcDbLine
 10
179.4234336948
 20
120.32362582
 30
0.0
 11
191.9234329498
 21
120.32362582
 31
0.0
  0
LINE
  5
15B
330
1F
100
AcDbEntity
  8
0
  6
Continuous
 62
     7
370
    15
100
AcDbLine
 10
202.9234328902
 20
120.32362582
 30
0.0
 11
215.4234321451
 21
120.32362582
 31
0.0
  0
LINE
  5
15C
330
1F
100
AcDbEntity
  8
0
  6
Continuous
 62
     7
370
    15
100
AcDbLine
 10
192.0762108302
 20
120.823625902
 30
0.0
 11
192.0762108302
 21
135.3236254847
 31
0.0
  0
LINE
  5
15D
330
1F
100
AcDbEntity
  8
0
  6
Continuous
 62
     7
370
    15
100
AcDbLine
 10
202.7706550097
 20
135.3236254847
 30
0.0
 11
202.7706550097
 21
120.823625902
 31
0.0
  0
LWPOLYLINE
  5
15E
330
1F
100
AcDbEntity
  8
0
  6
Continuous
 62
     7
370
    15
100
AcDbPolyline
 90
        9
 70
   128
 43
0.0
 10
192.0762108302
 20
120.823625902
 10
192.0732753014
 20
120.7260805725
 10
192.0645814052
 20
120.632284282
 10
192.0504630206
 20
120.5458407833
 10
192.0314631088
 20
120.4700725696
 10
192.0083118266
 20
120.4078909552
 10
191.981898587
 20
120.3616861797
 10
191.9532385318
 20
120.3332333437
 10
191.9234329498
 20
120.32362582
  0
LINE
  5
15F
330
1F
100
AcDbEntity
  8
0
  6
Continuous
 62
     7
370
    15
100
AcDbLine
 10
192.0762108302
 20
120.823625902
 30
0.0
 11
192.4234330317
 21
120.823625902
 31
0.0
  0
LINE
  5
160
330
1F
100
AcDbEntity
  8
0
  6
Continuous
 62
     7
370
    15
100
AcDbLine
 10
202.7706550097
 20
120.823625902
 30
0.0
 11
202.4234328082
 21
120.823625902
 31
0.0
  0
LWPOLYLINE
  5
161
330
1F
100
AcDbEntity
  8
0
  6
Continuous
 62
     7
370
    15
100
AcDbPolyline
 90
        9
 70
   128
 43
0.0
 10
202.9234328902
 20
120.32362582
 10
202.8936273081
 20
120.3332333437
 10
202.8649672529
 20
120.3616861797
 10
202.8385540133
 20
120.4078909552
 10
202.8154027311
 20
120.4700725696
 10
202.7964028193
 20
120.5458407833
 10
202.7822844347
 20
120.632284282
 10
202.7735905385
 20
120.7260805725
 10
202.7706550097
 20
120.823625902
  0
SPLINE
  5
162
330
1F
100
AcDbEntity
  8
0
  6
Continuous
 62
     7
370
    15
100
AcDbSpline
210
0.0
220
0.0
230
1.0
 70
     8
 71
     3
 72
    10
 73
     6
 74
     0
 42
0.000000001
 43
0.00000001
 40
0.0
 40
0.0
 40
0.0
 40
0.0
 40
0.5
 40
0.5
 40
1.0
 40
1.0
 40
1.0
 40
1.0
 10
197.423432919955
 20
183.3207188567402
 30
0.0
 10
197.7853700935925
 20
183.3207188567402
 30
0.0
 10
198.1402431501106
 20
183.308090903477
 30
0.0
 10
198.8365516105234
 20
183.2595876987495
 30
0.0
 10
199.1801419678369
 20
183.2232584489938
 30
0.0
 10
199.5064218722076
 20
183.1771970031099
 30
0.0
  0
LWPOLYLINE
  5
163
330
1F
100
AcDbEntity
  8
0
  6
Continuous
 62
     7
370
    15
100
AcDbPolyline
 90
        9
 70
   128
 43
0.0
 10
199.5064217726
 20
183.1771959162
 10
199.5002256835
 20
183.0835421181
 10
199.5017267427
 20
182.9932485318
 10
199.5108711662
 20
182.90955616
 10
199.5273306629
 20
182.8354601359
 10
199.5505145414
 20
182.7736352182
 10
199.5795908978
 20
182.726294229
 10
199.6135166509
 20
182.6951284504
 10
199.6510738636
 20
182.6812629199
  0
LINE
  5
164
330
1F
100
AcDbEntity
  8
0
  6
Continuous
 62
     7
370
    15
100
AcDbLine
 10
197.42343292
 20
183.3207164502
 30
0.0
 11
197.42343292
 21
182.8207526899
 31
0.0
  0
SPLINE
  5
165
330
1F
100
AcDbEntity
  8
0
  6
Continuous
 62
     7
370
    15
100
AcDbSpline
210
0.0
220
0.0
230
1.0
 70
     8
 71
     3
 72
    10
 73
     6
 74
     0
 42
0.000000001
 43
0.00000001
 40
0.0
 40
0.0
 40
0.0
 40
0.0
 40
0.4999999999999998
 40
0.4999999999999998
 40
1.0
 40
1.0
 40
1.0
 40
1.0
 10
195.3404439677023
 20
183.1771970031099
 30
0.0
 10
195.6666405061499
 20
183.2232466800957
 30
0.0
 10
196.0038317582858
 20
183.2589813777883
 30
0.0
 10
196.6999458151145
 20
183.3077776773378
 30
0.0
 10
197.0615534958766
 20
183.3207188567402
 30
0.0
 10
197.423432919955
 20
183.3207188567402
 30
0.0
  0
LWPOLYLINE
  5
166
330
1F
100
AcDbEntity
  8
0
  6
Continuous
 62
     7
370
    15
100
AcDbPolyline
 90
        9
 70
   128
 43
0.0
 10
195.3404440673
 20
183.1771959162
 10
195.3466401564
 20
183.0835421181
 10
195.3451390972
 20
182.9932485318
 10
195.3359946737
 20
182.90955616
 10
195.319535177
 20
182.8354601359
 10
195.2963512985
 20
182.7736352182
 10
195.2672749421
 20
182.726294229
 10
195.233349189
 20
182.6951284504
 10
195.1957919764
 20
182.6812629199
  0
LINE
  5
167
330
1F
100
AcDbEntity
  8
0
  6
Continuous
 62
     7
370
    15
100
AcDbLine
 10
197.42343292
 20
184.3236242032
 30
0.0
 11
192.4234330317
 21
184.3236242032
 31
0.0
  0
LINE
  5
168
330
1F
100
AcDbEntity
  8
0
  6
Continuous
 62
     7
370
    15
100
AcDbLine
 10
197.42343292
 20
184.3236242032
 30
0.0
 11
197.42343292
 21
183.3207164502
 31
0.0
  0
SPLINE
  5
169
330
1F
100
AcDbEntity
  8
0
  6
Continuous
 62
     7
370
    15
100
AcDbSpline
210
0.0
220
0.0
230
1.0
 70
     8
 71
     3
 72
    18
 73
    14
 74
     0
 42
0.000000001
 43
0.00000001
 40
0.0
 40
0.0
 40
0.0
 40
0.0
 40
0.2500000000000015
 40
0.2500000000000015
 40
0.3750000000000013
 40
0.3750000000000013
 40
0.5000000000000012
 40
0.5000000000000012
 40
0.6250000000000011
 40
0.6250000000000011
 40
0.7500000000000007
 40
0.7500000000000007
 40
1.0
 40
1.0
 40
1.0
 40
1.0
 10
192.423432919955
 20
182.4627624327554
 30
0.0
 10
192.423432919955
 20
182.4627624327554
 30
0.0
 10
192.4922552262857
 20
182.4875787612486
 30
0.0
 10
192.6953152157816
 20
182.5560487765303
 30
0.0
 10
192.7800550184511
 20
182.5841023518009
 30
0.0
 10
192.9777117270363
 20
182.6469580925802
 30
0.0
 10
193.0911372177725
 20
182.6819379314629
 30
0.0
 10
193.3471419926017
 20
182.756803721663
 30
0.0
 10
193.4909443591878
 20
182.7969958825319
 30
0.0
 10
193.800716739616
 20
182.877842914663
 30
0.0
 10
193.9670005868901
 20
182.9186255466738
 30
0.0
 10
194.4999893456126
 20
183.0385311876019
 30
0.0
 10
194.9042893846375
 20
183.1156243764918
 30
0.0
 10
195.3404439677023
 20
183.1771970031099
 30
0.0
  0
LINE
  5
16A
330
1F
100
AcDbEntity
  8
0
  6
Continuous
 62
     7
370
    15
100
AcDbLine
 10
192.4234330317
 20
182.4627597427
 30
0.0
 11
192.4234330317
 21
184.3236242032
 31
0.0
  0
ARC
  5
16B
330
1F
100
AcDbEntity
  8
0
  6
Continuous
 62
     7
370
    15
100
AcDbCircle
 10
193.42343292
 20
184.3236259318
 30
0.0
 40
1.0
100
AcDbArc
 50
90.0
 51
180.0
  0
LINE
  5
16C
330
1F
100
AcDbEntity
  8
0
  6
Continuous
 62
     7
370
    15
100
AcDbLine
 10
193.42343273
 20
185.3236262298
 30
0.0
 11
197.42343292
 21
185.3236262298
 31
0.0
  0
LINE
  5
16D
330
1F
100
AcDbEntity
  8
0
  6
Continuous
 62
     7
370
    15
100
AcDbLine
 10
197.42343292
 20
185.3236262298
 30
0.0
 11
197.42343292
 21
184.3236242032
 31
0.0
  0
ARC
  5
16E
330
1F
100
AcDbEntity
  8
0
  6
Continuous
 62
     7
370
    15
100
AcDbCircle
 10
191.92343292
 20
182.4627624328
 30
0.0
 40
0.5
100
AcDbArc
 50
287.791590573
 51
0.0
  0
LINE
  5
16F
330
1F
100
AcDbEntity
  8
0
  6
Continuous
 62
     7
370
    15
100
AcDbLine
 10
197.42343292
 20
185.3236262298
 30
0.0
 11
201.4234331099
 21
185.3236262298
 31
0.0
  0
ARC
  5
170
330
1F
100
AcDbEntity
  8
0
  6
Continuous
 62
     7
370
    15
100
AcDbCircle
 10
201.42343292
 20
184.3236259318
 30
0.0
 40
1.0
100
AcDbArc
 50
0.0
 51
90.0
  0
LINE
  5
171
330
1F
100
AcDbEntity
  8
0
  6
Continuous
 62
     7
370
    15
100
AcDbLine
 10
202.4234328082
 20
184.3236242032
 30
0.0
 11
197.42343292
 21
184.3236242032
 31
0.0
  0
LINE
  5
172
330
1F
100
AcDbEntity
  8
0
  6
Continuous
 62
     7
370
    15
100
AcDbLine
 10
202.4234328082
 20
184.3236242032
 30
0.0
 11
202.4234328082
 21
182.4627597427
 31
0.0
  0
SPLINE
  5
173
330
1F
100
AcDbEntity
  8
0
  6
Continuous
 62
     7
370
    15
100
AcDbSpline
210
0.0
220
0.0
230
1.0
 70
     8
 71
     3
 72
    18
 73
    14
 74
     0
 42
0.000000001
 43
0.00000001
 40
0.0
 40
0.0
 40
0.0
 40
0.0
 40
0.125
 40
0.125
 40
0.25
 40
0.25
 40
0.5
 40
0.5
 40
0.75
 40
0.75
 40
0.875
 40
0.875
 40
1.0
 40
1.0
 40
1.0
 40
1.0
 10
199.5064218722076
 20
183.1771970031099
 30
0.0
 10
199.7243535878719
 20
183.1464312409745
 30
0.0
 10
199.9328977378501
 20
183.112096069847
 30
0.0
 10
200.3319985377103
 20
183.0384005031218
 30
0.0
 10
200.5235611149472
 20
182.998779941744
 30
0.0
 10
201.0588300371655
 20
182.8783696866675
 30
0.0
 10
201.3680047780439
 20
182.7952934227137
 30
0.0
 10
201.8843261663511
 20
182.6443609047856
 30
0.0
 10
202.0813417103203
 20
182.5797007045272
 30
0.0
 10
202.2850654761982
 20
182.5110394565108
 30
0.0
 10
202.3370985110587
 20
182.4929942121948
 30
0.0
 10
202.4059798433455
 20
182.4689574637854
 30
0.0
 10
202.423432919955
 20
182.4627624327554
 30
0.0
 10
202.423432919955
 20
182.4627624327554
 30
0.0
  0
ARC
  5
174
330
1F
100
AcDbEntity
  8
0
  6
Continuous
 62
     7
370
    15
100
AcDbCircle
 10
202.92343292
 20
182.4627624328
 30
0.0
 40
0.5
100
AcDbArc
 50
180.0
 51
252.208409427
  0
LINE
  5
175
330
1F
100
AcDbEntity
  8
0
  6
Continuous
 62
     7
370
    15
100
AcDbLine
 10
192.4234330317
 20
182.4627597427
 30
0.0
 11
191.9234329498
 21
182.4627597427
 31
0.0
  0
SPLINE
  5
176
330
1F
100
AcDbEntity
  8
0
  6
Continuous
 62
     7
370
    15
100
AcDbSpline
210
0.0
220
0.0
230
1.0
 70
     8
 71
     3
 72
    12
 73
     8
 74
     0
 42
0.000000001
 43
0.00000001
 40
0.0
 40
0.0
 40
0.0
 40
0.0
 40
0.5
 40
0.5
 40
0.75
 40
0.75
 40
1.0
 40
1.0
 40
1.0
 40
1.0
 10
191.923432919955
 20
182.4627624327554
 30
0.0
 10
191.9603609014513
 20
182.6015382524793
 30
0.0
 10
191.9957724720684
 20
182.7397218254021
 30
0.0
 10
192.0367230469458
 20
182.9033222004782
 30
0.0
 10
192.0480726180764
 20
182.9493797595996
 30
0.0
 10
192.0638176675464
 20
183.0136142463928
 30
0.0
 10
192.0681697620604
 20
183.031566424925
 30
0.0
 10
192.0681697620604
 20
183.031566424925
 30
0.0
  0
ARC
  5
177
330
1F
100
AcDbEntity
  8
0
  6
Continuous
 62
     7
370
    15
100
AcDbCircle
 10
191.92343292
 20
183.5101594112
 30
0.0
 40
0.5
100
AcDbArc
 50
286.8264488927
 51
0.0
  0
SPLINE
  5
178
330
1F
100
AcDbEntity
  8
0
  6
Continuous
 62
     7
370
    15
100
AcDbSpline
210
0.0
220
0.0
230
1.0
 70
     8
 71
     3
 72
    10
 73
     6
 74
     0
 42
0.000000001
 43
0.00000001
 40
0.0
 40
0.0
 40
0.0
 40
0.0
 40
0.5
 40
0.5
 40
1.0
 40
1.0
 40
1.0
 40
1.0
 10
202.7786960778497
 20
183.0315664249241
 30
0.0
 10
202.7786960778497
 20
183.0315664249241
 30
0.0
 10
202.7966110157453
 20
182.9573893225374
 30
0.0
 10
202.8507781096701
 20
182.7409745905755
 30
0.0
 10
202.8865126494548
 20
182.6015092744585
 30
0.0
 10
202.923432919955
 20
182.4627624327554
 30
0.0
  0
LINE
  5
179
330
1F
100
AcDbEntity
  8
0
  6
Continuous
 62
     7
370
    15
100
AcDbLine
 10
202.9234328902
 20
182.4627597427
 30
0.0
 11
202.4234328082
 21
182.4627597427
 31
0.0
  0
ARC
  5
17A
330
1F
100
AcDbEntity
  8
0
  6
Continuous
 62
     7
370
    15
100
AcDbCircle
 10
202.92343292
 20
183.5101594112
 30
0.0
 40
0.5000000000000002
100
AcDbArc
 50
180.0
 51
253.1735511073
  0
LWPOLYLINE
  5
17B
330
1F
100
AcDbEntity
  8
0
  6
Continuous
 62
     7
370
    15
100
AcDbPolyline
 90
        9
 70
   128
 43
0.0
 10
191.9234329498
 20
182.4627597427
 10
191.9532385318
 20
182.369880805
 10
191.981898587
 20
182.2805706954
 10
192.0083118266
 20
182.1982641316
 10
192.0314631088
 20
182.1261201596
 10
192.0504630206
 20
182.0669103956
 10
192.0645814052
 20
182.0229147172
 10
192.0732753014
 20
181.9958244062
 10
192.0762108302
 20
181.9866750932
  0
LWPOLYLINE
  5
17C
330
1F
100
AcDbEntity
  8
0
  6
Continuous
 62
     7
370
    15
100
AcDbPolyline
 90
        9
 70
   128
 43
0.0
 10
202.7706550097
 20
181.9866750932
 10
202.7735905385
 20
181.9958244062
 10
202.7822844347
 20
182.0229147172
 10
202.7964028193
 20
182.0669103956
 10
202.8154027311
 20
182.1261201596
 10
202.8385540133
 20
182.1982641316
 10
202.8649672529
 20
182.2805706954
 10
202.8936273081
 20
182.369880805
 10
202.9234328902
 20
182.4627597427
  0
ARC
  5
17D
330
1F
100
AcDbEntity
  8
0
  6
Continuous
 62
     7
370
    15
100
AcDbCircle
 10
197.42343292
 20
165.3236259318
 30
0.0
 40
18.50000000000003
100
AcDbArc
 50
106.8264488927
 51
198.9246444161
  0
ARC
  5
17E
330
1F
100
AcDbEntity
  8
0
  6
Continuous
 62
     7
370
    15
100
AcDbCircle
 10
197.42343292
 20
165.3236259318
 30
0.0
 40
18.49999999999998
100
AcDbArc
 50
341.0753555839
 51
73.1735511073
  0
LINE
  5
17F
330
1F
100
AcDbEntity
  8
0
  6
Continuous
 62
     8
370
    15
100
AcDbLine
 10
199.6510738636
 20
140.3236263043
 30
0.0
 11
214.9234329945
 21
140.3236263043
 31
0.0
  0
LINE
  5
180
330
1F
100
AcDbEntity
  8
0
  6
Continuous
 62
     8
370
    15
100
AcDbLine
 10
179.9234328454
 20
140.3236263043
 30
0.0
 11
195.1957919764
 21
140.3236263043
 31
0.0
  0
LINE
  5
181
330
1F
100
AcDbEntity
  8
0
  6
Continuous
 62
     8
370
    15
100
AcDbLine
 10
178.9234326815
 20
116.3236259793
 30
0.0
 11
192.0681697911
 21
116.3236259793
 31
0.0
  0
LINE
  5
182
330
1F
100
AcDbEntity
  8
0
  6
Continuous
 62
     8
370
    15
100
AcDbLine
 10
202.7786960488
 20
116.3236259793
 30
0.0
 11
215.9234331584
 21
116.3236259793
 31
0.0
  0
LINE
  5
183
330
1F
100
AcDbEntity
  8
0
  6
Continuous
 62
     8
370
    15
100
AcDbLine
 10
192.0681697911
 20
119.823625738
 30
0.0
 11
178.9234326815
 21
119.823625738
 31
0.0
  0
LINE
  5
184
330
1F
100
AcDbEntity
  8
0
  6
Continuous
 62
     8
370
    15
100
AcDbLine
 10
215.9234331584
 20
119.823625738
 30
0.0
 11
202.7786960488
 21
119.823625738
 31
0.0
  0
LINE
  5
185
330
1F
100
AcDbEntity
  8
0
  6
Continuous
 62
     8
370
    15
100
AcDbLine
 10
179.9234328454
 20
120.823625902
 30
0.0
 11
192.0762108302
 21
120.823625902
 31
0.0
  0
LINE
  5
186
330
1F
100
AcDbEntity
  8
0
  6
Continuous
 62
     8
370
    15
100
AcDbLine
 10
202.7706550097
 20
120.823625902
 30
0.0
 11
214.9234329945
 21
120.823625902
 31
0.0
  0
ARC
  5
187
330
1F
100
AcDbEntity
  8
0
  6
Continuous
 62
     8
370
    15
100
AcDbCircle
 10
197.42343292
 20
165.3236259318
 30
0.0
 40
18.00000000000003
100
AcDbArc
 50
107.791590573
 51
193.5362027374
  0
ARC
  5
188
330
1F
100
AcDbEntity
  8
0
  6
Continuous
 62
     8
370
    15
100
AcDbCircle
 10
197.42343292
 20
165.3236259318
 30
0.0
 40
18.0
100
AcDbArc
 50
346.4637972626
 51
72.208409427
  0
INSERT
  5
194
330
1F
100
AcDbEntity
  8
0
  6
Continuous
 62
     7
370
     0
100
AcDbBlockReference
  2
SW_CENTERMARKSYMBOL_0
 10
197.42343292
 20
125.3236259318
 30
0.0
  0
LINE
  5
195
330
1F
100
AcDbEntity
  8
0
  6
Continuous
 62
     7
370
    15
100
AcDbLine
 10
137.8639325017
 20
238.4955711049
 30
0.0
 11
118.8639321813
 21
238.4955711049
 31
0.0
  0
LINE
  5
196
330
1F
100
AcDbEntity
  8
0
  6
Continuous
 62
     7
370
    15
100
AcDbLine
 10
118.8639321813
 20
203.4955709559
 30
0.0
 11
137.8639325017
 21
203.4955709559
 31
0.0
  0
ARC
  5
197
330
1F
100
AcDbEntity
  8
0
  6
Continuous
 62
     7
370
    15
100
AcDbCircle
 10
161.8639321291
 20
203.4955710304
 30
0.0
 40
1.0
100
AcDbArc
 50
270.0
 51
0.0
  0
ARC
  5
198
330
1F
100
AcDbEntity
  8
0
  6
Continuous
 62
     7
370
    15
100
AcDbCircle
 10
161.8639321291
 20
238.4955710304
 30
0.0
 40
1.0
100
AcDbArc
 50
0.0
 51
90.0
  0
ARC
  5
199
330
1F
100
AcDbEntity
  8
0
  6
Continuous
 62
     7
370
    15
100
AcDbCircle
 10
158.3639321291
 20
238.9955710304
 30
0.0
 40
0.5
100
AcDbArc
 50
90.0
 51
180.0
  0
ARC
  5
19A
330
1F
100
AcDbEntity
  8
0
  6
Continuous
 62
     7
370
    15
100
AcDbCircle
 10
158.3639321291
 20
202.9955710304
 30
0.0
 40
0.5
100
AcDbArc
 50
180.0
 51
270.0
  0
LINE
  5
19B
330
1F
100
AcDbEntity
  8
0
  6
Continuous
 62
     7
370
    15
100
AcDbLine
 10
158.3639312053
 20
202.495570792
 30
0.0
 11
161.8639308476
 21
202.495570792
 31
0.0
  0
LINE
  5
19C
330
1F
100
AcDbEntity
  8
0
  6
Continuous
 62
     7
370
    15
100
AcDbLine
 10
161.8639308476
 20
239.4955712689
 30
0.0
 11
158.3639312053
 21
239.4955712689
 31
0.0
  0
ARC
  5
19D
330
1F
100
AcDbEntity
  8
0
  6
Continuous
 62
     7
370
    15
100
AcDbCircle
 10
157.3639321291
 20
202.9955710304
 30
0.0
 40
0.5
100
AcDbArc
 50
0.0
 51
90.0
  0
ARC
  5
19E
330
1F
100
AcDbEntity
  8
0
  6
Continuous
 62
     7
370
    15
100
AcDbCircle
 10
157.3639321291
 20
238.9955710304
 30
0.0
 40
0.5
100
AcDbArc
 50
270.0
 51
0.0
  0
LINE
  5
19F
330
1F
100
AcDbEntity
  8
0
  6
Continuous
 62
     7
370
    15
100
AcDbLine
 10
137.8639325017
 20
203.4955709559
 30
0.0
 11
157.363932904
 21
203.4955709559
 31
0.0
  0
LINE
  5
1A0
330
1F
100
AcDbEntity
  8
0
  6
Continuous
 62
     7
370
    15
100
AcDbLine
 10
157.363932904
 20
238.4955711049
 30
0.0
 11
137.8639325017
 21
238.4955711049
 31
0.0
  0
SPLINE
  5
1A1
330
1F
100
AcDbEntity
  8
0
  6
Continuous
 62
     7
370
    15
100
AcDbSpline
210
0.0
220
0.0
230
1.0
 70
     8
 71
     3
 72
    16
 73
    12
 74
     0
 42
0.000000001
 43
0.00000001
 40
0.0
 40
0.0
 40
0.0
 40
0.0
 40
0.2500000000000001
 40
0.2500000000000001
 40
0.3749999999999994
 40
0.3749999999999994
 40
0.4999999999999988
 40
0.4999999999999988
 40
0.7499999999999993
 40
0.7499999999999993
 40
1.0
 40
1.0
 40
1.0
 40
1.0
 10
130.5718726222978
 20
215.640307872545
 30
0.0
 10
130.5718726222979
 20
215.640307872545
 30
0.0
 10
130.5431067835512
 20
215.6997245167177
 30
0.0
 10
130.4766294902679
 20
215.8362410482793
 30
0.0
 10
130.4502531851494
 20
215.8903070457932
 30
0.0
 10
130.3935093538187
 20
216.0062704824607
 30
0.0
 10
130.3629336424692
 20
216.0685986463082
 30
0.0
 10
130.2657208473968
 20
216.266108186104
 30
0.0
 10
130.1949217526239
 20
216.409092899053
 30
0.0
 10
130.0501212061359
 20
216.699309586475
 30
0.0
 10
129.9756589686255
 20
216.8474703610557
 30
0.0
 10
129.9006571665274
 20
216.9955710304397
 30
0.0
  0
ARC
  5
1A2
330
1F
100
AcDbEntity
  8
0
  6
Continuous
 62
     7
370
    15
100
AcDbCircle
 10
112.8639321291
 20
220.9955710304
 30
0.0
 40
18.5
100
AcDbArc
 50
196.8264488927
 51
343.1735511073
  0
SPLINE
  5
1A3
330
1F
100
AcDbEntity
  8
0
  6
Continuous
 62
     7
370
    15
100
AcDbSpline
210
0.0
220
0.0
230
1.0
 70
     8
 71
     3
 72
    16
 73
    12
 74
     0
 42
0.000000001
 43
0.00000001
 40
0.0
 40
0.0
 40
0.0
 40
0.0
 40
0.249999999999999
 40
0.249999999999999
 40
0.3749999999999985
 40
0.3749999999999985
 40
0.499999999999998
 40
0.499999999999998
 40
0.749999999999999
 40
0.749999999999999
 40
1.0
 40
1.0
 40
1.0
 40
1.0
 10
95.15599163595529
 20
215.640307872545
 30
0.0
 10
95.15599163595527
 20
215.640307872545
 30
0.0
 10
95.18475747470193
 20
215.6997245167177
 30
0.0
 10
95.25123476798525
 20
215.8362410482793
 30
0.0
 10
95.27761107310371
 20
215.8903070457932
 30
0.0
 10
95.33435490443445
 20
216.0062704824607
 30
0.0
 10
95.36493061578388
 20
216.0685986463082
 30
0.0
 10
95.46214341085631
 20
216.266108186104
 30
0.0
 10
95.53294250562926
 20
216.409092899053
 30
0.0
 10
95.67774305211718
 20
216.699309586475
 30
0.0
 10
95.75220528962817
 20
216.8474703610555
 30
0.0
 10
95.82720709172574
 20
216.9955710304397
 30
0.0
  0
ARC
  5
1A4
330
1F
100
AcDbEntity
  8
0
  6
Continuous
 62
     7
370
    15
100
AcDbCircle
 10
112.8639321291
 20
220.9955710304
 30
0.0
 40
17.49999999999999
100
AcDbArc
 50
193.2129803602
 51
346.7870196398
  0
ARC
  5
1A5
330
1F
100
AcDbEntity
  8
0
  6
Continuous
 62
     7
370
    15
100
AcDbCircle
 10
94.6773986497
 20
215.4955710304
 30
0.0
 40
0.5
100
AcDbArc
 50
16.8264488927
 51
90.0
  0
SPLINE
  5
1A6
330
1F
100
AcDbEntity
  8
0
  6
Continuous
 62
     7
370
    15
100
AcDbSpline
210
0.0
220
0.0
230
1.0
 70
     8
 71
     3
 72
    16
 73
    12
 74
     0
 42
0.000000001
 43
0.00000001
 40
0.0
 40
0.0
 40
0.0
 40
0.0
 40
0.2500000000000004
 40
0.2500000000000004
 40
0.3750000000000004
 40
0.3750000000000004
 40
0.5000000000000003
 40
0.5000000000000003
 40
0.7500000000000002
 40
0.7500000000000002
 40
1.0
 40
1.0
 40
1.0
 40
1.0
 10
94.67739864965334
 20
215.9955710304397
 30
0.0
 10
94.67739864965334
 20
215.9955710304397
 30
0.0
 10
94.72769807816204
 20
216.040827507779
 30
0.0
 10
94.84265019040457
 20
216.1433454873778
 30
0.0
 10
94.8881270645191
 20
216.1837886382097
 30
0.0
 10
94.98571467558693
 20
216.2701814383261
 30
0.0
 10
95.03819659192835
 20
216.3164657175231
 30
0.0
 10
95.20475115076353
 20
216.462624271167
 30
0.0
 10
95.32571316942582
 20
216.5678212526359
 30
0.0
 10
95.57276196984803
 20
216.7802794946407
 30
0.0
 10
95.69961479151482
 20
216.8882062127286
 30
0.0
 10
95.82720709172574
 20
216.9955710304397
 30
0.0
  0
ARC
  5
1A7
330
1F
100
AcDbEntity
  8
0
  6
Continuous
 62
     7
370
    15
100
AcDbCircle
 10
131.0504656086
 20
215.4955710304
 30
0.0
 40
0.5
100
AcDbArc
 50
90.0
 51
163.1735511073
  0
SPLINE
  5
1A8
330
1F
100
AcDbEntity
  8
0
  6
Continuous
 62
     7
370
    15
100
AcDbSpline
210
0.0
220
0.0
230
1.0
 70
     8
 71
     3
 72
    16
 73
    12
 74
     0
 42
0.000000001
 43
0.00000001
 40
0.0
 40
0.0
 40
0.0
 40
0.0
 40
0.2499999999999996
 40
0.2499999999999996
 40
0.3749999999999996
 40
0.3749999999999996
 40
0.4999999999999997
 40
0.4999999999999997
 40
0.7499999999999998
 40
0.7499999999999998
 40
1.0
 40
1.0
 40
1.0
 40
1.0
 10
131.0504656085998
 20
215.9955710304397
 30
0.0
 10
131.0504656085998
 20
215.9955710304397
 30
0.0
 10
131.0001661800911
 20
216.040827507779
 30
0.0
 10
130.8852140678485
 20
216.1433454873778
 30
0.0
 10
130.839737193734
 20
216.1837886382097
 30
0.0
 10
130.7421495826662
 20
216.2701814383261
 30
0.0
 10
130.6896676663248
 20
216.3164657175231
 30
0.0
 10
130.5231131074896
 20
216.462624271167
 30
0.0
 10
130.4021510888273
 20
216.5678212526359
 30
0.0
 10
130.1551022884051
 20
216.7802794946407
 30
0.0
 10
130.0282494667383
 20
216.8882062127286
 30
0.0
 10
129.9006571665274
 20
216.9955710304397
 30
0.0
  0
SPLINE
  5
1A9
330
1F
100
AcDbEntity
  8
0
  6
Continuous
 62
     7
370
    15
100
AcDbSpline
210
0.0
220
0.0
230
1.0
 70
     8
 71
     3
 72
    16
 73
    12
 74
     0
 42
0.000000001
 43
0.00000001
 40
0.0
 40
0.0
 40
0.0
 40
0.0
 40
0.2500000000000001
 40
0.2500000000000001
 40
0.3749999999999994
 40
0.3749999999999994
 40
0.4999999999999988
 40
0.4999999999999988
 40
0.7499999999999993
 40
0.7499999999999993
 40
1.0
 40
1.0
 40
1.0
 40
1.0
 10
130.5718726222978
 20
226.3508341883345
 30
0.0
 10
130.5718726222979
 20
226.3508341883345
 30
0.0
 10
130.5431067835512
 20
226.2914175441618
 30
0.0
 10
130.4766294902679
 20
226.1549010126002
 30
0.0
 10
130.4502531851494
 20
226.1008350150863
 30
0.0
 10
130.3935093538187
 20
225.9848715784188
 30
0.0
 10
130.3629336424692
 20
225.9225434145713
 30
0.0
 10
130.2657208473968
 20
225.7250338747755
 30
0.0
 10
130.1949217526239
 20
225.5820491618265
 30
0.0
 10
130.0501212061359
 20
225.2918324744045
 30
0.0
 10
129.9756589686255
 20
225.1436716998238
 30
0.0
 10
129.9006571665274
 20
224.9955710304397
 30
0.0
  0
ARC
  5
1AA
330
1F
100
AcDbEntity
  8
0
  6
Continuous
 62
     7
370
    15
100
AcDbCircle
 10
112.8639321291
 20
220.9955710304
 30
0.0
 40
17.49999999999999
100
AcDbArc
 50
13.2129803602
 51
166.7870196398
  0
SPLINE
  5
1AB
330
1F
100
AcDbEntity
  8
0
  6
Continuous
 62
     7
370
    15
100
AcDbSpline
210
0.0
220
0.0
230
1.0
 70
     8
 71
     3
 72
    16
 73
    12
 74
     0
 42
0.000000001
 43
0.00000001
 40
0.0
 40
0.0
 40
0.0
 40
0.0
 40
0.2499999999999994
 40
0.2499999999999994
 40
0.3749999999999992
 40
0.3749999999999992
 40
0.4999999999999989
 40
0.4999999999999989
 40
0.7499999999999994
 40
0.7499999999999994
 40
1.0
 40
1.0
 40
1.0
 40
1.0
 10
95.15599163595529
 20
226.3508341883345
 30
0.0
 10
95.15599163595527
 20
226.3508341883345
 30
0.0
 10
95.18475747470191
 20
226.2914175441618
 30
0.0
 10
95.25123476798525
 20
226.1549010126002
 30
0.0
 10
95.27761107310371
 20
226.1008350150863
 30
0.0
 10
95.33435490443443
 20
225.9848715784188
 30
0.0
 10
95.36493061578386
 20
225.9225434145713
 30
0.0
 10
95.46214341085631
 20
225.7250338747755
 30
0.0
 10
95.53294250562928
 20
225.5820491618265
 30
0.0
 10
95.67774305211718
 20
225.2918324744045
 30
0.0
 10
95.75220528963055
 20
225.1436716998252
 30
0.0
 10
95.82720709172574
 20
224.9955710304397
 30
0.0
  0
ARC
  5
1AC
330
1F
100
AcDbEntity
  8
0
  6
Continuous
 62
     7
370
    15
100
AcDbCircle
 10
112.8639321291
 20
220.9955710304
 30
0.0
 40
18.5
100
AcDbArc
 50
16.8264488927
 51
163.1735511073
  0
ARC
  5
1AD
330
1F
100
AcDbEntity
  8
0
  6
Continuous
 62
     7
370
    15
100
AcDbCircle
 10
94.6773986497
 20
226.4955710304
 30
0.0
 40
0.5
100
AcDbArc
 50
270.0
 51
343.1735511073
  0
SPLINE
  5
1AE
330
1F
100
AcDbEntity
  8
0
  6
Continuous
 62
     7
370
    15
100
AcDbSpline
210
0.0
220
0.0
230
1.0
 70
     8
 71
     3
 72
    16
 73
    12
 74
     0
 42
0.000000001
 43
0.00000001
 40
0.0
 40
0.0
 40
0.0
 40
0.0
 40
0.2500000000000013
 40
0.2500000000000013
 40
0.3750000000000022
 40
0.3750000000000022
 40
0.5000000000000031
 40
0.5000000000000031
 40
0.7500000000000016
 40
0.7500000000000016
 40
1.0
 40
1.0
 40
1.0
 40
1.0
 10
94.67739864965336
 20
225.9955710304397
 30
0.0
 10
94.67739864965336
 20
225.9955710304397
 30
0.0
 10
94.72769807816204
 20
225.9503145531005
 30
0.0
 10
94.84265019040457
 20
225.8477965735017
 30
0.0
 10
94.8881270645191
 20
225.8073534226698
 30
0.0
 10
94.98571467558692
 20
225.7209606225534
 30
0.0
 10
95.03819659192835
 20
225.6746763433564
 30
0.0
 10
95.20475115076353
 20
225.5285177897125
 30
0.0
 10
95.32571316942582
 20
225.4233208082436
 30
0.0
 10
95.57276196984805
 20
225.2108625662389
 30
0.0
 10
95.69961479151651
 20
225.102935848153
 30
0.0
 10
95.82720709172574
 20
224.9955710304397
 30
0.0
  0
ARC
  5
1AF
330
1F
100
AcDbEntity
  8
0
  6
Continuous
 62
     7
370
    15
100
AcDbCircle
 10
131.0504656086
 20
226.4955710304
 30
0.0
 40
0.5
100
AcDbArc
 50
196.8264488927
 51
270.0
  0
SPLINE
  5
1B0
330
1F
100
AcDbEntity
  8
0
  6
Continuous
 62
     7
370
    15
100
AcDbSpline
210
0.0
220
0.0
230
1.0
 70
     8
 71
     3
 72
    16
 73
    12
 74
     0
 42
0.000000001
 43
0.00000001
 40
0.0
 40
0.0
 40
0.0
 40
0.0
 40
0.2499999999999996
 40
0.2499999999999996
 40
0.3749999999999996
 40
0.3749999999999996
 40
0.4999999999999997
 40
0.4999999999999997
 40
0.7499999999999998
 40
0.7499999999999998
 40
1.0
 40
1.0
 40
1.0
 40
1.0
 10
131.0504656085998
 20
225.9955710304397
 30
0.0
 10
131.0504656085998
 20
225.9955710304397
 30
0.0
 10
131.0001661800911
 20
225.9503145531005
 30
0.0
 10
130.8852140678485
 20
225.8477965735016
 30
0.0
 10
130.839737193734
 20
225.8073534226698
 30
0.0
 10
130.7421495826662
 20
225.7209606225533
 30
0.0
 10
130.6896676663248
 20
225.6746763433564
 30
0.0
 10
130.5231131074896
 20
225.5285177897125
 30
0.0
 10
130.4021510888273
 20
225.4233208082436
 30
0.0
 10
130.1551022884051
 20
225.2108625662389
 30
0.0
 10
130.0282494667383
 20
225.1029358481509
 30
0.0
 10
129.9006571665274
 20
224.9955710304397
 30
0.0
  0
LINE
  5
1B1
330
1F
100
AcDbEntity
  8
0
  6
Continuous
 62
     7
370
    15
100
AcDbLine
 10
129.9006569648
 20
216.9955708404
 30
0.0
 11
131.8639315182
 21
216.9955708404
 31
0.0
  0
LINE
  5
1B2
330
1F
100
AcDbEntity
  8
0
  6
Continuous
 62
     7
370
    15
100
AcDbLine
 10
93.8639327401
 20
216.9955708404
 30
0.0
 11
95.8272072935
 21
216.9955708404
 31
0.0
  0
LINE
  5
1B3
330
1F
100
AcDbEntity
  8
0
  6
Continuous
 62
     7
370
    15
100
AcDbLine
 10
93.8639327401
 20
224.9955712204
 30
0.0
 11
93.8639327401
 21
216.9955708404
 31
0.0
  0
LINE
  5
1B4
330
1F
100
AcDbEntity
  8
0
  6
Continuous
 62
     7
370
    15
100
AcDbLine
 10
95.8272072935
 20
224.9955712204
 30
0.0
 11
93.8639327401
 21
224.9955712204
 31
0.0
  0
LINE
  5
1B5
330
1F
100
AcDbEntity
  8
0
  6
Continuous
 62
     7
370
    15
100
AcDbLine
 10
131.8639315182
 20
224.9955712204
 30
0.0
 11
129.9006569648
 21
224.9955712204
 31
0.0
  0
LINE
  5
1B6
330
1F
100
AcDbEntity
  8
0
  6
Continuous
 62
     7
370
    15
100
AcDbLine
 10
131.8639315182
 20
216.9955708404
 30
0.0
 11
131.8639315182
 21
224.9955712204
 31
0.0
  0
CIRCLE
  5
1B7
330
1F
100
AcDbEntity
  8
0
  6
Continuous
 62
     7
370
    15
100
AcDbCircle
 10
112.8639321291
 20
220.9955710304
 30
0.0
 40
16.5
  0
CIRCLE
  5
1B8
330
1F
100
AcDbEntity
  8
0
  6
Continuous
 62
     7
370
    15
100
AcDbCircle
 10
112.8639321291
 20
220.9955710304
 30
0.0
 40
15.5
  0
LINE
  5
1B9
330
1F
100
AcDbEntity
  8
0
  6
Continuous
 62
     7
370
    15
100
AcDbLine
 10
93.8639327401
 20
216.9955708404
 30
0.0
 11
93.8639327401
 21
215.9955711422
 31
0.0
  0
ARC
  5
1BA
330
1F
100
AcDbEntity
  8
0
  6
Continuous
 62
     7
370
    15
100
AcDbCircle
 10
93.8639321291
 20
216.9955710304
 30
0.0
 40
1.0
100
AcDbArc
 50
180.0
 51
270.0
  0
LINE
  5
1BB
330
1F
100
AcDbEntity
  8
0
  6
Continuous
 62
     7
370
    15
100
AcDbLine
 10
92.8639325762
 20
216.9955708404
 30
0.0
 11
93.8639327401
 21
216.9955708404
 31
0.0
  0
LINE
  5
1BC
330
1F
100
AcDbEntity
  8
0
  6
Continuous
 62
     7
370
    15
100
AcDbLine
 10
94.6773983055
 20
215.9955711422
 30
0.0
 11
93.8639327401
 21
215.9955711422
 31
0.0
  0
LINE
  5
1BD
330
1F
100
AcDbEntity
  8
0
  6
Continuous
 62
     7
370
    15
100
AcDbLine
 10
131.8639315182
 20
216.9955708404
 30
0.0
 11
132.8639316821
 21
216.9955708404
 31
0.0
  0
ARC
  5
1BE
330
1F
100
AcDbEntity
  8
0
  6
Continuous
 62
     7
370
    15
100
AcDbCircle
 10
131.8639321291
 20
216.9955710304
 30
0.0
 40
1.0
100
AcDbArc
 50
270.0
 51
0.0
  0
LINE
  5
1BF
330
1F
100
AcDbEntity
  8
0
  6
Continuous
 62
     7
370
    15
100
AcDbLine
 10
131.8639315182
 20
216.9955708404
 30
0.0
 11
131.8639315182
 21
215.9955711422
 31
0.0
  0
LINE
  5
1C0
330
1F
100
AcDbEntity
  8
0
  6
Continuous
 62
     7
370
    15
100
AcDbLine
 10
131.8639315182
 20
215.9955711422
 30
0.0
 11
131.0504659527
 21
215.9955711422
 31
0.0
  0
LINE
  5
1C1
330
1F
100
AcDbEntity
  8
0
  6
Continuous
 62
     7
370
    15
100
AcDbLine
 10
131.8639315182
 20
224.9955712204
 30
0.0
 11
132.8639316821
 21
224.9955712204
 31
0.0
  0
LINE
  5
1C2
330
1F
100
AcDbEntity
  8
0
  6
Continuous
 62
     7
370
    15
100
AcDbLine
 10
132.8639316821
 20
224.9955712204
 30
0.0
 11
132.8639316821
 21
216.9955708404
 31
0.0
  0
LINE
  5
1C3
330
1F
100
AcDbEntity
  8
0
  6
Continuous
 62
     7
370
    15
100
AcDbLine
 10
92.8639325762
 20
216.9955708404
 30
0.0
 11
92.8639325762
 21
224.9955712204
 31
0.0
  0
LINE
  5
1C4
330
1F
100
AcDbEntity
  8
0
  6
Continuous
 62
     7
370
    15
100
AcDbLine
 10
92.8639325762
 20
224.9955712204
 30
0.0
 11
93.8639327401
 21
224.9955712204
 31
0.0
  0
LINE
  5
1C5
330
1F
100
AcDbEntity
  8
0
  6
Continuous
 62
     7
370
    15
100
AcDbLine
 10
93.8639327401
 20
225.9955709187
 30
0.0
 11
93.8639327401
 21
224.9955712204
 31
0.0
  0
LINE
  5
1C6
330
1F
100
AcDbEntity
  8
0
  6
Continuous
 62
     7
370
    15
100
AcDbLine
 10
93.8639327401
 20
225.9955709187
 30
0.0
 11
94.6773983055
 21
225.9955709187
 31
0.0
  0
LINE
  5
1C7
330
1F
100
AcDbEntity
  8
0
  6
Continuous
 62
     7
370
    15
100
AcDbLine
 10
131.8639315182
 20
225.9955709187
 30
0.0
 11
131.8639315182
 21
224.9955712204
 31
0.0
  0
LINE
  5
1C8
330
1F
100
AcDbEntity
  8
0
  6
Continuous
 62
     7
370
    15
100
AcDbLine
 10
131.0504659527
 20
225.9955709187
 30
0.0
 11
131.8639315182
 21
225.9955709187
 31
0.0
  0
ARC
  5
1C9
330
1F
100
AcDbEntity
  8
0
  6
Continuous
 62
     7
370
    15
100
AcDbCircle
 10
93.8639321291
 20
224.9955710304
 30
0.0
 40
1.0
100
AcDbArc
 50
90.0
 51
180.0
  0
ARC
  5
1CA
330
1F
100
AcDbEntity
  8
0
  6
Continuous
 62
     7
370
    15
100
AcDbCircle
 10
131.8639321291
 20
224.9955710304
 30
0.0
 40
1.0
100
AcDbArc
 50
0.0
 51
90.0
  0
LINE
  5
1CB
330
1F
100
AcDbEntity
  8
0
  6
Continuous
 62
     7
370
    15
100
AcDbLine
 10
137.8639325017
 20
215.3198952173
 30
0.0
 11
137.8639325017
 21
215.9955711422
 31
0.0
  0
LINE
  5
1CC
330
1F
100
AcDbEntity
  8
0
  6
Continuous
 62
     7
370
    15
100
AcDbLine
 10
132.8639316821
 20
216.9955708404
 30
0.0
 11
137.8639325017
 21
216.9955708404
 31
0.0
  0
LINE
  5
1CD
330
1F
100
AcDbEntity
  8
0
  6
Continuous
 62
     7
370
    15
100
AcDbLine
 10
137.8639325017
 20
215.9955711422
 30
0.0
 11
137.8639325017
 21
216.9955708404
 31
0.0
  0
LINE
  5
1CE
330
1F
100
AcDbEntity
  8
0
  6
Continuous
 62
     7
370
    15
100
AcDbLine
 10
137.8639325017
 20
215.9955711422
 30
0.0
 11
131.8639315182
 21
215.9955711422
 31
0.0
  0
LINE
  5
1CF
330
1F
100
AcDbEntity
  8
0
  6
Continuous
 62
     7
370
    15
100
AcDbLine
 10
137.8639325017
 20
224.9955712204
 30
0.0
 11
132.8639316821
 21
224.9955712204
 31
0.0
  0
LINE
  5
1D0
330
1F
100
AcDbEntity
  8
0
  6
Continuous
 62
     7
370
    15
100
AcDbLine
 10
137.8639325017
 20
224.9955712204
 30
0.0
 11
137.8639325017
 21
216.9955708404
 31
0.0
  0
LINE
  5
1D1
330
1F
100
AcDbEntity
  8
0
  6
Continuous
 62
     7
370
    15
100
AcDbLine
 10
131.8639315182
 20
225.9955709187
 30
0.0
 11
137.8639325017
 21
225.9955709187
 31
0.0
  0
LINE
  5
1D2
330
1F
100
AcDbEntity
  8
0
  6
Continuous
 62
     7
370
    15
100
AcDbLine
 10
137.8639325017
 20
224.9955712204
 30
0.0
 11
137.8639325017
 21
225.9955709187
 31
0.0
  0
LINE
  5
1D3
330
1F
100
AcDbEntity
  8
0
  6
Continuous
 62
     7
370
    15
100
AcDbLine
 10
137.8639325017
 20
225.9955709187
 30
0.0
 11
137.8639325017
 21
226.6712468435
 31
0.0
  0
LINE
  5
1D4
330
1F
100
AcDbEntity
  8
0
  6
Continuous
 62
     7
370
    15
100
AcDbLine
 10
153.3118452394
 20
216.9955708404
 30
0.0
 11
161.8639308476
 21
216.9955708404
 31
0.0
  0
LINE
  5
1D5
330
1F
100
AcDbEntity
  8
0
  6
Continuous
 62
     7
370
    15
100
AcDbLine
 10
161.8639308476
 20
216.9955708404
 30
0.0
 11
161.8639308476
 21
215.9955711422
 31
0.0
  0
LINE
  5
1D6
330
1F
100
AcDbEntity
  8
0
  6
Continuous
 62
     7
370
    15
100
AcDbLine
 10
161.8639308476
 20
215.9955711422
 30
0.0
 11
137.8639325017
 21
215.9955711422
 31
0.0
  0
LINE
  5
1D7
330
1F
100
AcDbEntity
  8
0
  6
Continuous
 62
     7
370
    15
100
AcDbLine
 10
137.8639325017
 20
216.9955708404
 30
0.0
 11
152.416020956
 21
216.9955708404
 31
0.0
  0
SPLINE
  5
1D8
330
1F
100
AcDbEntity
  8
0
  6
Continuous
 62
     7
370
    15
100
AcDbSpline
210
0.0
220
0.0
230
1.0
 70
     8
 71
     3
 72
    13
 73
     9
 74
     0
 42
0.000000001
 43
0.00000001
 40
0.0
 40
0.0
 40
0.0
 40
0.0
 40
0.166673560645669
 40
0.3333443833119352
 40
0.5000097300271173
 40
0.7496103248698618
 40
0.9069821843491355
 40
1.0
 40
1.0
 40
1.0
 40
1.0
 10
152.4160203074473
 20
216.9955710304397
 30
0.0
 10
152.4656419216577
 20
216.9905609544433
 30
0.0
 10
152.5648843349345
 20
216.9805408847518
 30
0.0
 10
152.7143302392098
 20
216.9725999551962
 30
0.0
 10
152.8887431314849
 20
216.9695461757891
 30
0.0
 10
153.0603993300959
 20
216.9742379893253
 30
0.0
 10
153.2096580258361
 20
216.9848179891888
 30
0.0
 10
153.2841651383567
 20
216.9926583845726
 30
0.0
 10
153.3118439508058
 20
216.9955710304397
 30
0.0
  0
LINE
  5
1D9
330
1F
100
AcDbEntity
  8
0
  6
Continuous
 62
     7
370
    15
100
AcDbLine
 10
161.8639308476
 20
224.9955712204
 30
0.0
 11
153.3118452394
 21
224.9955712204
 31
0.0
  0
LINE
  5
1DA
330
1F
100
AcDbEntity
  8
0
  6
Continuous
 62
     7
370
    15
100
AcDbLine
 10
161.8639308476
 20
216.9955708404
 30
0.0
 11
161.8639308476
 21
224.9955712204
 31
0.0
  0
ARC
  5
1DB
330
1F
100
AcDbEntity
  8
0
  6
Continuous
 62
     7
370
    15
100
AcDbCircle
 10
152.8639321291
 20
220.9955710304
 30
0.0
 40
4.025000000000002
100
AcDbArc
 50
276.3892478978
 51
83.6107521022
  0
CIRCLE
  5
1DC
330
1F
100
AcDbEntity
  8
0
  6
Continuous
 62
     7
370
    15
100
AcDbCircle
 10
152.8639321291
 20
220.9955710304
 30
0.0
 40
3.400000000000006
  0
ARC
  5
1DD
330
1F
100
AcDbEntity
  8
0
  6
Continuous
 62
     7
370
    15
100
AcDbCircle
 10
152.8639321291
 20
220.9955710304
 30
0.0
 40
4.025000000000002
100
AcDbArc
 50
96.3892478978
 51
263.6107521022
  0
SPLINE
  5
1DE
330
1F
100
AcDbEntity
  8
0
  6
Continuous
 62
     7
370
    15
100
AcDbSpline
210
0.0
220
0.0
230
1.0
 70
     8
 71
     3
 72
    13
 73
     9
 74
     0
 42
0.000000001
 43
0.00000001
 40
0.0
 40
0.0
 40
0.0
 40
0.0
 40
0.1666735606456612
 40
0.3333443833119352
 40
0.5000097300271173
 40
0.7496103248698618
 40
0.906982184349151
 40
1.0
 40
1.0
 40
1.0
 40
1.0
 10
153.3118439508058
 20
224.9955710304398
 30
0.0
 10
153.2622223365954
 20
225.0005811064362
 30
0.0
 10
153.1629799233186
 20
225.0106011761277
 30
0.0
 10
153.0135340190433
 20
225.0185421056833
 30
0.0
 10
152.8391211267682
 20
225.0215958850904
 30
0.0
 10
152.6674649281572
 20
225.0169040715542
 30
0.0
 10
152.518206232417
 20
225.0063240716907
 30
0.0
 10
152.4436991198964
 20
224.9984836763069
 30
0.0
 10
152.4160203074473
 20
224.9955710304398
 30
0.0
  0
LINE
  5
1DF
330
1F
100
AcDbEntity
  8
0
  6
Continuous
 62
     7
370
    15
100
AcDbLine
 10
152.416020956
 20
224.9955712204
 30
0.0
 11
137.8639325017
 21
224.9955712204
 31
0.0
  0
LINE
  5
1E0
330
1F
100
AcDbEntity
  8
0
  6
Continuous
 62
     7
370
    15
100
AcDbLine
 10
137.8639325017
 20
225.9955709187
 30
0.0
 11
161.8639308476
 21
225.9955709187
 31
0.0
  0
LINE
  5
1E1
330
1F
100
AcDbEntity
  8
0
  6
Continuous
 62
     7
370
    15
100
AcDbLine
 10
161.8639308476
 20
224.9955712204
 30
0.0
 11
161.8639308476
 21
225.9955709187
 31
0.0
  0
LINE
  5
1E2
330
1F
100
AcDbEntity
  8
0
  6
Continuous
 62
     7
370
    15
100
AcDbLine
 10
161.8639308476
 20
216.9955708404
 30
0.0
 11
162.8639328742
 21
216.9955708404
 31
0.0
  0
ARC
  5
1E3
330
1F
100
AcDbEntity
  8
0
  6
Continuous
 62
     7
370
    15
100
AcDbCircle
 10
161.8639321291
 20
216.9955710304
 30
0.0
 40
1.0
100
AcDbArc
 50
270.0
 51
0.0
  0
LINE
  5
1E4
330
1F
100
AcDbEntity
  8
0
  6
Continuous
 62
     7
370
    15
100
AcDbLine
 10
161.8639308476
 20
224.9955712204
 30
0.0
 11
162.8639328742
 21
224.9955712204
 31
0.0
  0
LINE
  5
1E5
330
1F
100
AcDbEntity
  8
0
  6
Continuous
 62
     7
370
    15
100
AcDbLine
 10
162.8639328742
 20
224.9955712204
 30
0.0
 11
162.8639328742
 21
216.9955708404
 31
0.0
  0
ARC
  5
1E6
330
1F
100
AcDbEntity
  8
0
  6
Continuous
 62
     7
370
    15
100
AcDbCircle
 10
161.8639321291
 20
224.9955710304
 30
0.0
 40
1.0
100
AcDbArc
 50
0.0
 51
90.0
  0
LINE
  5
1E7
330
1F
100
AcDbEntity
  8
0
  6
Continuous
 62
     7
370
    15
100
AcDbLine
 10
161.8639308476
 20
215.6403079016
 30
0.0
 11
161.8639308476
 21
215.9955711422
 31
0.0
  0
SPLINE
  5
1E8
330
1F
100
AcDbEntity
  8
0
  6
Continuous
 62
     7
370
    15
100
AcDbSpline
210
0.0
220
0.0
230
1.0
 70
     8
 71
     3
 72
    16
 73
    12
 74
     0
 42
0.000000001
 43
0.00000001
 40
0.0
 40
0.0
 40
0.0
 40
0.0
 40
0.2500000000000022
 40
0.2500000000000022
 40
0.3750000000000018
 40
0.3750000000000018
 40
0.5000000000000014
 40
0.5000000000000014
 40
0.7500000000000007
 40
0.7500000000000007
 40
1.0
 40
1.0
 40
1.0
 40
1.0
 10
161.8639321291265
 20
215.640307872545
 30
0.0
 10
162.0325590619819
 20
215.640307872545
 30
0.0
 10
162.1948010559422
 20
215.6997245167177
 30
0.0
 10
162.3914098436296
 20
215.8362410482793
 30
0.0
 10
162.4510979482475
 20
215.8903070457932
 30
0.0
 10
162.5552457381822
 20
216.0062704824607
 30
0.0
 10
162.6004841555964
 20
216.0685986463082
 30
0.0
 10
162.7195550075456
 20
216.266108186104
 30
0.0
 10
162.7750329666281
 20
216.409092899053
 30
0.0
 10
162.8470537453701
 20
216.699309586475
 30
0.0
 10
162.8639321291265
 20
216.8474703610519
 30
0.0
 10
162.8639321291265
 20
216.9955710304397
 30
0.0
  0
LINE
  5
1E9
330
1F
100
AcDbEntity
  8
0
  6
Continuous
 62
     7
370
    15
100
AcDbLine
 10
161.8639308476
 20
225.9955709187
 30
0.0
 11
161.8639308476
 21
226.3508341593
 31
0.0
  0
SPLINE
  5
1EA
330
1F
100
AcDbEntity
  8
0
  6
Continuous
 62
     7
370
    15
100
AcDbSpline
210
0.0
220
0.0
230
1.0
 70
     8
 71
     3
 72
    16
 73
    12
 74
     0
 42
0.000000001
 43
0.00000001
 40
0.0
 40
0.0
 40
0.0
 40
0.0
 40
0.2500000000000022
 40
0.2500000000000022
 40
0.3750000000000018
 40
0.3750000000000018
 40
0.5000000000000014
 40
0.5000000000000014
 40
0.7500000000000007
 40
0.7500000000000007
 40
1.0
 40
1.0
 40
1.0
 40
1.0
 10
161.8639321291265
 20
226.3508341883345
 30
0.0
 10
162.0325590619819
 20
226.3508341883345
 30
0.0
 10
162.1948010559422
 20
226.2914175441618
 30
0.0
 10
162.3914098436296
 20
226.1549010126002
 30
0.0
 10
162.4510979482475
 20
226.1008350150863
 30
0.0
 10
162.5552457381822
 20
225.9848715784188
 30
0.0
 10
162.6004841555964
 20
225.9225434145713
 30
0.0
 10
162.7195550075456
 20
225.7250338747755
 30
0.0
 10
162.7750329666281
 20
225.5820491618265
 30
0.0
 10
162.8470537453701
 20
225.2918324744045
 30
0.0
 10
162.8639321291265
 20
225.1436716998276
 30
0.0
 10
162.8639321291265
 20
224.9955710304397
 30
0.0
  0
ARC
  5
1EB
330
1F
100
AcDbEntity
  8
0
  6
Continuous
 62
     7
370
    15
100
AcDbCircle
 10
157.4125068967
 20
226.4785788781
 30
0.0
 40
0.4831679083095439
100
AcDbArc
 50
271.4743179858
 51
355.8972158143
  0
SPLINE
  5
1EC
330
1F
100
AcDbEntity
  8
0
  6
Continuous
 62
     7
370
    15
100
AcDbSpline
210
0.0
220
0.0
230
1.0
 70
     8
 71
     3
 72
    10
 73
     6
 74
     0
 42
0.000000001
 43
0.00000001
 40
0.0
 40
0.0
 40
0.0
 40
0.0
 40
0.5
 40
0.5
 40
1.0
 40
1.0
 40
1.0
 40
1.0
 10
157.8944356428806
 20
226.4440104011033
 30
0.0
 10
157.9267923294306
 20
226.4180208690662
 30
0.0
 10
157.985083260935
 20
226.3948638339903
 30
0.0
 10
158.1483598882178
 20
226.3610723974884
 30
0.0
 10
158.2544953485429
 20
226.3508341883345
 30
0.0
 10
158.3639321291266
 20
226.3508341883345
 30
0.0
  0
LINE
  5
1ED
330
1F
100
AcDbEntity
  8
0
  6
Continuous
 62
     7
370
    15
100
AcDbLine
 10
158.3639312053
 20
225.9955709187
 30
0.0
 11
158.3639312053
 21
226.3508341593
 31
0.0
  0
SPLINE
  5
1EE
330
1F
100
AcDbEntity
  8
0
  6
Continuous
 62
     7
370
    15
100
AcDbSpline
210
0.0
220
0.0
230
1.0
 70
     8
 71
     3
 72
    10
 73
     6
 74
     0
 42
0.000000001
 43
0.00000001
 40
0.0
 40
0.0
 40
0.0
 40
0.0
 40
0.5
 40
0.5
 40
1.0
 40
1.0
 40
1.0
 40
1.0
 10
158.3639321291266
 20
215.640307872545
 30
0.0
 10
158.2545543465795
 20
215.640307872545
 30
0.0
 10
158.1500607357921
 20
215.6303572901769
 30
0.0
 10
157.9847837969164
 20
215.5962800839985
 30
0.0
 10
157.9267948264276
 20
215.5731231974507
 30
0.0
 10
157.8944356428806
 20
215.5471316597762
 30
0.0
  0
ARC
  5
1EF
330
1F
100
AcDbEntity
  8
0
  6
Continuous
 62
     7
370
    15
100
AcDbCircle
 10
157.4125068967
 20
215.5125631828
 30
0.0
 40
0.4831679083095741
100
AcDbArc
 50
4.1027841857
 51
88.5256820142
  0
LINE
  5
1F0
330
1F
100
AcDbEntity
  8
0
  6
Continuous
 62
     7
370
    15
100
AcDbLine
 10
158.3639312053
 20
215.6403079016
 30
0.0
 11
158.3639312053
 21
215.9955711422
 31
0.0
  0
LINE
  5
1F1
330
1F
100
AcDbEntity
  8
0
  6
Continuous
 62
     7
370
    15
100
AcDbLine
 10
161.8639308476
 20
215.6403079016
 30
0.0
 11
158.3639312053
 21
215.6403079016
 31
0.0
  0
LINE
  5
1F2
330
1F
100
AcDbEntity
  8
0
  6
Continuous
 62
     7
370
    15
100
AcDbLine
 10
158.3639312053
 20
226.3508341593
 30
0.0
 11
161.8639308476
 21
226.3508341593
 31
0.0
  0
LINE
  5
1F3
330
1F
100
AcDbEntity
  8
0
  6
Continuous
 62
     7
370
    15
100
AcDbLine
 10
162.8639328742
 20
216.9955708404
 30
0.0
 11
162.8639328742
 21
203.4955709559
 31
0.0
  0
LINE
  5
1F4
330
1F
100
AcDbEntity
  8
0
  6
Continuous
 62
     7
370
    15
100
AcDbLine
 10
162.8639328742
 20
238.4955711049
 30
0.0
 11
162.8639328742
 21
224.9955712204
 31
0.0
  0
SPLINE
  5
1F5
330
1F
100
AcDbEntity
  8
0
  6
Continuous
 62
     7
370
    15
100
AcDbSpline
210
0.0
220
0.0
230
1.0
 70
     8
 71
     3
 72
    12
 73
     8
 74
     0
 42
0.000000001
 43
0.00000001
 40
0.0
 40
0.0
 40
0.0
 40
0.0
 40
0.500000000000002
 40
0.500000000000002
 40
0.750000000000001
 40
0.750000000000001
 40
1.0
 40
1.0
 40
1.0
 40
1.0
 10
157.8639321291266
 20
226.8334088677899
 30
0.0
 10
157.8639321291265
 20
226.7518666439519
 30
0.0
 10
157.8634064846897
 20
226.673595602523
 30
0.0
 10
157.866139801465
 20
226.5682420967924
 30
0.0
 10
157.8676747021071
 20
226.5351378381111
 30
0.0
 10
157.8753970041771
 20
226.4785023538104
 30
0.0
 10
157.8815124870038
 20
226.4543905360765
 30
0.0
 10
157.8944356428805
 20
226.4440104011033
 30
0.0
  0
LINE
  5
1F6
330
1F
100
AcDbEntity
  8
0
  6
Continuous
 62
     7
370
    15
100
AcDbLine
 10
157.8639339173
 20
226.8334087302
 30
0.0
 11
157.8639339173
 21
238.9955702556
 31
0.0
  0
LINE
  5
1F7
330
1F
100
AcDbEntity
  8
0
  6
Continuous
 62
     7
370
    15
100
AcDbLine
 10
157.8639339173
 20
202.9955718053
 30
0.0
 11
157.8639339173
 21
215.1577333306
 31
0.0
  0
SPLINE
  5
1F8
330
1F
100
AcDbEntity
  8
0
  6
Continuous
 62
     7
370
    15
100
AcDbSpline
210
0.0
220
0.0
230
1.0
 70
     8
 71
     3
 72
    12
 73
     8
 74
     0
 42
0.000000001
 43
0.00000001
 40
0.0
 40
0.0
 40
0.0
 40
0.0
 40
0.2499999999999952
 40
0.2499999999999952
 40
0.4999999999999905
 40
0.4999999999999905
 40
1.0
 40
1.0
 40
1.0
 40
1.0
 10
157.8944356428806
 20
215.5471316597762
 30
0.0
 10
157.881469977482
 20
215.5367173803122
 30
0.0
 10
157.8754048929405
 20
215.5126430732611
 30
0.0
 10
157.8676938093703
 20
215.4561986553217
 30
0.0
 10
157.8661416858911
 20
215.4229330789696
 30
0.0
 10
157.8634078555813
 20
215.3176782245074
 30
0.0
 10
157.8639321291266
 20
215.2393269558924
 30
0.0
 10
157.8639321291266
 20
215.1577331925933
 30
0.0
  0
SPLINE
  5
1F9
330
1F
100
AcDbEntity
  8
0
  6
Continuous
 62
     7
370
    15
100
AcDbSpline
210
0.0
220
0.0
230
1.0
 70
     8
 71
     3
 72
    10
 73
     6
 74
     0
 42
0.000000001
 43
0.00000001
 40
0.0
 40
0.0
 40
0.0
 40
0.0
 40
0.5
 40
0.5
 40
1.0
 40
1.0
 40
1.0
 40
1.0
 10
157.3639321291266
 20
215.3198953547468
 30
0.0
 10
157.3639321291266
 20
215.5176520868673
 30
0.0
 10
157.3625903604964
 20
215.6892368762591
 30
0.0
 10
157.374446123495
 20
215.9301333440634
 30
0.0
 10
157.3889513420335
 20
215.9955710304397
 30
0.0
 10
157.4249391566347
 20
215.9955710304397
 30
0.0
  0
LINE
  5
1FA
330
1F
100
AcDbEntity
  8
0
  6
Continuous
 62
     7
370
    15
100
AcDbLine
 10
157.363932904
 20
215.3198952173
 30
0.0
 11
137.8639325017
 21
215.3198952173
 31
0.0
  0
LWPOLYLINE
  5
1FB
330
1F
100
AcDbEntity
  8
0
  6
Continuous
 62
     7
370
    15
100
AcDbPolyline
 90
        9
 70
   128
 43
0.0
 10
157.8639339173
 20
215.1577333306
 10
157.8543263936
 20
215.1893694272
 10
157.8258726263
 20
215.2197901478
 10
157.7796678507
 20
215.2478257512
 10
157.7174853051
 20
215.272399163
 10
157.6417166257
 20
215.292566022
 10
157.5552749896
 20
215.3075514679
 10
157.4614759052
 20
215.3167794777
 10
157.363932904
 20
215.3198952173
  0
LINE
  5
1FC
330
1F
100
AcDbEntity
  8
0
  6
Continuous
 62
     7
370
    15
100
AcDbLine
 10
137.8639325017
 20
226.6712468435
 30
0.0
 11
157.363932904
 21
226.6712468435
 31
0.0
  0
SPLINE
  5
1FD
330
1F
100
AcDbEntity
  8
0
  6
Continuous
 62
     7
370
    15
100
AcDbSpline
210
0.0
220
0.0
230
1.0
 70
     8
 71
     3
 72
    10
 73
     6
 74
     0
 42
0.000000001
 43
0.00000001
 40
0.0
 40
0.0
 40
0.0
 40
0.0
 40
0.5
 40
0.5
 40
1.0
 40
1.0
 40
1.0
 40
1.0
 10
157.4249391566347
 20
225.9955710304397
 30
0.0
 10
157.3889652404469
 20
225.9955710304397
 30
0.0
 10
157.3745409875628
 20
226.0597948009681
 30
0.0
 10
157.3625522402886
 20
226.3019695016664
 30
0.0
 10
157.3639321291266
 20
226.4735610806715
 30
0.0
 10
157.3639321291266
 20
226.6712467051401
 30
0.0
  0
LWPOLYLINE
  5
1FE
330
1F
100
AcDbEntity
  8
0
  6
Continuous
 62
     7
370
    15
100
AcDbPolyline
 90
        9
 70
   128
 43
0.0
 10
157.363932904
 20
226.6712468435
 10
157.4614759052
 20
226.6743625832
 10
157.5552749896
 20
226.683590593
 10
157.6417166257
 20
226.6985760388
 10
157.7174853051
 20
226.7187428979
 10
157.7796678507
 20
226.7433163097
 10
157.8258726263
 20
226.7713519131
 10
157.8543263936
 20
226.8017726337
 10
157.8639339173
 20
226.8334087302
  0
LINE
  5
1FF
330
1F
100
AcDbEntity
  8
0
  6
Continuous
 62
     8
370
    15
100
AcDbLine
 10
137.8639325017
 20
215.3198952173
 30
0.0
 11
130.4717905336
 21
215.3198952173
 31
0.0
  0
LINE
  5
200
330
1F
100
AcDbEntity
  8
0
  6
Continuous
 62
     8
370
    15
100
AcDbLine
 10
137.8639325017
 20
215.3198952173
 30
0.0
 11
137.8639325017
 21
203.4955709559
 31
0.0
  0
LINE
  5
201
330
1F
100
AcDbEntity
  8
0
  6
Continuous
 62
     8
370
    15
100
AcDbLine
 10
137.8639325017
 20
238.4955711049
 30
0.0
 11
137.8639325017
 21
226.6712468435
 31
0.0
  0
LINE
  5
202
330
1F
100
AcDbEntity
  8
0
  6
Continuous
 62
     8
370
    15
100
AcDbLine
 10
130.4717905336
 20
226.6712468435
 30
0.0
 11
137.8639325017
 21
226.6712468435
 31
0.0
  0
LINE
  5
203
330
1F
100
AcDbEntity
  8
0
  6
Continuous
 62
     8
370
    15
100
AcDbLine
 10
161.8639308476
 20
202.495570792
 30
0.0
 11
161.8639308476
 21
215.6403079016
 31
0.0
  0
LINE
  5
204
330
1F
100
AcDbEntity
  8
0
  6
Continuous
 62
     8
370
    15
100
AcDbLine
 10
161.8639308476
 20
226.3508341593
 30
0.0
 11
161.8639308476
 21
239.4955712689
 31
0.0
  0
LINE
  5
205
330
1F
100
AcDbEntity
  8
0
  6
Continuous
 62
     8
370
    15
100
AcDbLine
 10
158.3639312053
 20
239.4955712689
 30
0.0
 11
158.3639312053
 21
226.3508341593
 31
0.0
  0
LINE
  5
206
330
1F
100
AcDbEntity
  8
0
  6
Continuous
 62
     8
370
    15
100
AcDbLine
 10
158.3639312053
 20
215.6403079016
 30
0.0
 11
158.3639312053
 21
202.495570792
 31
0.0
  0
LINE
  5
207
330
1F
100
AcDbEntity
  8
0
  6
Continuous
 62
     8
370
    15
100
AcDbLine
 10
157.363932904
 20
203.4955709559
 30
0.0
 11
157.363932904
 21
215.3198952173
 31
0.0
  0
LINE
  5
208
330
1F
100
AcDbEntity
  8
0
  6
Continuous
 62
     8
370
    15
100
AcDbLine
 10
157.363932904
 20
226.6712468435
 30
0.0
 11
157.363932904
 21
238.4955711049
 31
0.0
  0
INSERT
  5
214
330
1F
100
AcDbEntity
  8
0
  6
Continuous
 62
     7
370
     0
100
AcDbBlockReference
  2
SW_CENTERMARKSYMBOL_1
 10
152.8639321291
 20
220.9955710304
 30
0.0
  0
ARC
  5
215
330
1F
100
AcDbEntity
  8
0
  6
Continuous
 62
     7
370
     0
100
AcDbCircle
 10
152.8639321291
 20
220.9955710304
 30
0.0
 40
4.000000000000044
100
AcDbArc
 50
255.0
 51
195.0
  0
ENDSEC
  0
SECTION
  2
OBJECTS
  0
DICTIONARY
  5
C
330
0
100
AcDbDictionary
281
     1
  3
ACAD_GROUP
350
D
  3
ACAD_LAYOUT
350
1A
  3
ACAD_MLINESTYLE
350
17
  3
ACAD_PLOTSETTINGS
350
19
  3
ACAD_PLOTSTYLENAME
350
E
  3
ACAD_SCALELIST
350
47
  0
DICTIONARY
  5
D
102
{ACAD_REACTORS
330
C
102
}
330
C
100
AcDbDictionary
281
     1
  0
DICTIONARY
  5
1A
102
{ACAD_REACTORS
330
C
102
}
330
C
100
AcDbDictionary
281
     1
  3
Layout1
350
1E
  3
Layout2
350
26
  3
Model
350
22
  0
DICTIONARY
  5
17
102
{ACAD_REACTORS
330
C
102
}
330
C
100
AcDbDictionary
281
     1
  3
Standard
350
18
  0
DICTIONARY
  5
19
102
{ACAD_REACTORS
330
C
102
}
330
C
100
AcDbDictionary
281
     1
  0
ACDBDICTIONARYWDFLT
  5
E
102
{ACAD_REACTORS
330
C
102
}
330
C
100
AcDbDictionary
281
     1
  3
Normal
350
F
100
AcDbDictionaryWithDefault
340
F
  0
DICTIONARY
  5
47
102
{ACAD_REACTORS
330
C
102
}
330
C
100
AcDbDictionary
281
     1
  3
A0
350
48
  3
A1
350
49
  3
A2
350
4A
  3
A3
350
4B
  3
A4
350
4C
  3
A5
350
4D
  3
A6
350
4E
  3
A7
350
4F
  3
A8
350
50
  3
A9
350
51
  3
B0
350
52
  3
B1
350
53
  3
B2
350
54
  3
B3
350
55
  3
B4
350
56
  3
B5
350
57
  3
B6
350
58
  3
B7
350
59
  3
B8
350
5A
  3
B9
350
5B
  3
C0
350
5C
  3
C1
350
5D
  3
C2
350
5E
  3
C3
350
5F
  3
C4
350
60
  3
C5
350
61
  3
C6
350
62
  3
C7
350
63
  3
C8
350
64
  3
C9
350
65
  3
D0
350
66
  3
D1
350
67
  3
D2
350
68
  0
LAYOUT
  5
1E
102
{ACAD_REACTORS
330
1A
102
}
330
1A
100
AcDbPlotSettings
  1

  2
none_device
  4

  6

 40
0.0
 41
0.0
 42
0.0
 43
0.0
 44
0.0
 45
0.0
 46
0.0
 47
0.0
 48
0.0
 49
0.0
140
0.0
141
0.0
142
1.0
143
1.0
 70
   688
 72
     1
 73
     0
 74
     5
  7

 75
    16
147
1.0
148
0.0
149
0.0
100
AcDbLayout
  1
Layout1
 70
     1
 71
     1
 10
0.0
 20
0.0
 11
420.0
 21
297.0
 12
0.0
 22
0.0
 32
0.0
 14
1.0000000000E+20
 24
1.0000000000E+20
 34
1.0000000000E+20
 15
-1.0000000000E+20
 25
-1.0000000000E+20
 35
-1.0000000000E+20
146
0.0
 13
0.0
 23
0.0
 33
0.0
 16
1.0
 26
0.0
 36
0.0
 17
0.0
 27
1.0
 37
0.0
 76
     0
330
1B
  0
LAYOUT
  5
26
102
{ACAD_REACTORS
330
1A
102
}
330
1A
100
AcDbPlotSettings
  1

  2
none_device
  4

  6

 40
0.0
 41
0.0
 42
0.0
 43
0.0
 44
0.0
 45
0.0
 46
0.0
 47
0.0
 48
0.0
 49
0.0
140
0.0
141
0.0
142
1.0
143
1.0
 70
   688
 72
     1
 73
     0
 74
     5
  7

 75
    16
147
1.0
148
0.0
149
0.0
100
AcDbLayout
  1
Layout2
 70
     1
 71
     2
 10
0.0
 20
0.0
 11
0.0
 21
0.0
 12
0.0
 22
0.0
 32
0.0
 14
0.0
 24
0.0
 34
0.0
 15
0.0
 25
0.0
 35
0.0
146
0.0
 13
0.0
 23
0.0
 33
0.0
 16
1.0
 26
0.0
 36
0.0
 17
0.0
 27
1.0
 37
0.0
 76
     0
330
23
  0
LAYOUT
  5
22
102
{ACAD_REACTORS
330
1A
102
}
330
1A
100
AcDbPlotSettings
  1

  2
none_device
  4
Letter_(8.50_x_11.00_Inches)
  6

 40
6.35
 41
6.35
 42
6.35000508
 43
6.35000508
 44
215.9
 45
279.4
 46
0.0
 47
0.0
 48
0.0
 49
0.0
140
0.0
141
0.0
142
1.0
143
1.0
 70
  1712
 72
     1
 73
     0
 74
     0
  7

 75
     0
147
1.0
148
0.0
149
0.0
100
AcDbLayout
  1
Model
 70
     1
 71
     0
 10
0.0
 20
0.0
 11
279.4
 21
215.9
 12
0.0
 22
0.0
 32
0.0
 14
0.0
 24
0.0
 34
0.0
 15
279.4
 25
215.9
 35
0.0
146
0.0
 13
0.0
 23
0.0
 33
0.0
 16
1.0
 26
0.0
 36
0.0
 17
0.0
 27
1.0
 37
0.0
 76
     0
330
1F
331
29
  0
MLINESTYLE
  5
18
102
{ACAD_REACTORS
330
17
102
}
330
17
100
AcDbMlineStyle
  2
Standard
 70
     0
  3

 62
   256
 51
90.0
 52
90.0
 71
     2
 49
0.5
 62
   256
  6
BYLAYER
 49
-0.5
 62
   256
  6
BYLAYER
  0
ACDBPLACEHOLDER
  5
F
102
{ACAD_REACTORS
330
E
102
}
330
E
  0
SCALE
  5
48
102
{ACAD_REACTORS
330
47
102
}
330
47
100
AcDbScale
 70
     0
300
1:1
140
1.0
141
1.0
290
     1
  0
SCALE
  5
49
102
{ACAD_REACTORS
330
47
102
}
330
47
100
AcDbScale
 70
     0
300
1:2
140
1.0
141
2.0
290
     0
  0
SCALE
  5
4A
102
{ACAD_REACTORS
330
47
102
}
330
47
100
AcDbScale
 70
     0
300
1:4
140
1.0
141
4.0
290
     0
  0
SCALE
  5
4B
102
{ACAD_REACTORS
330
47
102
}
330
47
100
AcDbScale
 70
     0
300
1:5
140
1.0
141
5.0
290
     0
  0
SCALE
  5
4C
102
{ACAD_REACTORS
330
47
102
}
330
47
100
AcDbScale
 70
     0
300
1:8
140
1.0
141
8.0
290
     0
  0
SCALE
  5
4D
102
{ACAD_REACTORS
330
47
102
}
330
47
100
AcDbScale
 70
     0
300
1:10
140
1.0
141
10.0
290
     0
  0
SCALE
  5
4E
102
{ACAD_REACTORS
330
47
102
}
330
47
100
AcDbScale
 70
     0
300
1:16
140
1.0
141
16.0
290
     0
  0
SCALE
  5
4F
102
{ACAD_REACTORS
330
47
102
}
330
47
100
AcDbScale
 70
     0
300
1:20
140
1.0
141
20.0
290
     0
  0
SCALE
  5
50
102
{ACAD_REACTORS
330
47
102
}
330
47
100
AcDbScale
 70
     0
300
1:30
140
1.0
141
30.0
290
     0
  0
SCALE
  5
51
102
{ACAD_REACTORS
330
47
102
}
330
47
100
AcDbScale
 70
     0
300
1:40
140
1.0
141
40.0
290
     0
  0
SCALE
  5
52
102
{ACAD_REACTORS
330
47
102
}
330
47
100
AcDbScale
 70
     0
300
1:50
140
1.0
141
50.0
290
     0
  0
SCALE
  5
53
102
{ACAD_REACTORS
330
47
102
}
330
47
100
AcDbScale
 70
     0
300
1:100
140
1.0
141
100.0
290
     0
  0
SCALE
  5
54
102
{ACAD_REACTORS
330
47
102
}
330
47
100
AcDbScale
 70
     0
300
2:1
140
2.0
141
1.0
290
     0
  0
SCALE
  5
55
102
{ACAD_REACTORS
330
47
102
}
330
47
100
AcDbScale
 70
     0
300
4:1
140
4.0
141
1.0
290
     0
  0
SCALE
  5
56
102
{ACAD_REACTORS
330
47
102
}
330
47
100
AcDbScale
 70
     0
300
8:1
140
8.0
141
1.0
290
     0
  0
SCALE
  5
57
102
{ACAD_REACTORS
330
47
102
}
330
47
100
AcDbScale
 70
     0
300
10:1
140
10.0
141
1.0
290
     0
  0
SCALE
  5
58
102
{ACAD_REACTORS
330
47
102
}
330
47
100
AcDbScale
 70
     0
300
100:1
140
100.0
141
1.0
290
     0
  0
SCALE
  5
59
102
{ACAD_REACTORS
330
47
102
}
330
47
100
AcDbScale
 70
     0
300
1/128" = 1'-0"
140
0.0078125
141
12.0
290
     0
  0
SCALE
  5
5A
102
{ACAD_REACTORS
330
47
102
}
330
47
100
AcDbScale
 70
     0
300
1/64" = 1'-0"
140
0.015625
141
12.0
290
     0
  0
SCALE
  5
5B
102
{ACAD_REACTORS
330
47
102
}
330
47
100
AcDbScale
 70
     0
300
1/32" = 1'-0"
140
0.03125
141
12.0
290
     0
  0
SCALE
  5
5C
102
{ACAD_REACTORS
330
47
102
}
330
47
100
AcDbScale
 70
     0
300
1/16" = 1'-0"
140
0.0625
141
12.0
290
     0
  0
SCALE
  5
5D
102
{ACAD_REACTORS
330
47
102
}
330
47
100
AcDbScale
 70
     0
300
3/32" = 1'-0"
140
0.09375
141
12.0
290
     0
  0
SCALE
  5
5E
102
{ACAD_REACTORS
330
47
102
}
330
47
100
AcDbScale
 70
     0
300
1/8" = 1'-0"
140
0.125
141
12.0
290
     0
  0
SCALE
  5
5F
102
{ACAD_REACTORS
330
47
102
}
330
47
100
AcDbScale
 70
     0
300
3/16" = 1'-0"
140
0.1875
141
12.0
290
     0
  0
SCALE
  5
60
102
{ACAD_REACTORS
330
47
102
}
330
47
100
AcDbScale
 70
     0
300
1/4" = 1'-0"
140
0.25
141
12.0
290
     0
  0
SCALE
  5
61
102
{ACAD_REACTORS
330
47
102
}
330
47
100
AcDbScale
 70
     0
300
3/8" = 1'-0"
140
0.375
141
12.0
290
     0
  0
SCALE
  5
62
102
{ACAD_REACTORS
330
47
102
}
330
47
100
AcDbScale
 70
     0
300
1/2" = 1'-0"
140
0.5
141
12.0
290
     0
  0
SCALE
  5
63
102
{ACAD_REACTORS
330
47
102
}
330
47
100
AcDbScale
 70
     0
300
3/4" = 1'-0"
140
0.75
141
12.0
290
     0
  0
SCALE
  5
64
102
{ACAD_REACTORS
330
47
102
}
330
47
100
AcDbScale
 70
     0
300
1" = 1'-0"
140
1.0
141
12.0
290
     0
  0
SCALE
  5
65
102
{ACAD_REACTORS
330
47
102
}
330
47
100
AcDbScale
 70
     0
300
1-1/2" = 1'-0"
140
1.5
141
12.0
290
     0
  0
SCALE
  5
66
102
{ACAD_REACTORS
330
47
102
}
330
47
100
AcDbScale
 70
     0
300
3" = 1'-0"
140
3.0
141
12.0
290
     0
  0
SCALE
  5
67
102
{ACAD_REACTORS
330
47
102
}
330
47
100
AcDbScale
 70
     0
300
6" = 1'-0"
140
6.0
141
12.0
290
     0
  0
SCALE
  5
68
102
{ACAD_REACTORS
330
47
102
}
330
47
100
AcDbScale
 70
     0
300
1'-0" = 1'-0"
140
12.0
141
12.0
290
     0
  0
ENDSEC
  0
EOF
