  0
SECTION
  2
HEADER
  9
$ACADVER
  1
AC1014
  9
$ACADMAINTVER
 70
     9
  9
$DWGCODEPAGE
  3
ANSI_1252
  9
$INSBASE
 10
0.0
 20
0.0
 30
0.0
  9
$EXTMIN
 10
0.0
 20
0.0
 30
0.0
  9
$EXTMAX
 10
279.4
 20
215.9
 30
0.0
  9
$LIMMIN
 10
0.0
 20
0.0
  9
$LIMMAX
 10
279.4
 20
215.9
  9
$ORTHOMODE
 70
     0
  9
$REGENMODE
 70
     1
  9
$FILLMODE
 70
     1
  9
$QTEXTMODE
 70
     0
  9
$MIRRTEXT
 70
     1
  9
$DRAGMODE
 70
     2
  9
$LTSCALE
 40
1.0
  9
$OSMODE
 70
    37
  9
$ATTMODE
 70
     1
  9
$TEXTSIZE
 40
3.5
  9
$TRACEWID
 40
1.0
  9
$TEXTSTYLE
  7
STANDARD
  9
$CLAYER
  8
0
  9
$CELTYPE
  6
BYLAYER
  9
$CECOLOR
 62
   256
  9
$CELTSCALE
 40
1.0
  9
$DELOBJ
 70
     1
  9
$DISPSILH
 70
     0
  9
$DIMSCALE
 40
1.0
  9
$DIMASZ
 40
3.302
  9
$DIMEXO
 40
1.0
  9
$DIMDLI
 40
3.75
  9
$DIMRND
 40
0.0
  9
$DIMDLE
 40
0.0
  9
$DIMEXE
 40
1.0
  9
$DIMTP
 40
0.0
  9
$DIMTM
 40
0.0
  9
$DIMTXT
 40
3.5
  9
$DIMCEN
 40
2.5
  9
$DIMTSZ
 40
0.0
  9
$DIMTOL
 70
     0
  9
$DIMLIM
 70
     0
  9
$DIMTIH
 70
     1
  9
$DIMTOH
 70
     1
  9
$DIMSE1
 70
     0
  9
$DIMSE2
 70
     0
  9
$DIMTAD
 70
     1
  9
$DIMZIN
 70
     1
  9
$DIMBLK
  1

  9
$DIMASO
 70
     1
  9
$DIMSHO
 70
     1
  9
$DIMPOST
  1

  9
$DIMAPOST
  1

  9
$DIMALT
 70
     0
  9
$DIMALTD
 70
     3
  9
$DIMALTF
 40
0.0393700787
  9
$DIMLFAC
 40
5.0
  9
$DIMTOFL
 70
     1
  9
$DIMTVP
 40
0.0
  9
$DIMTIX
 70
     0
  9
$DIMSOXD
 70
     0
  9
$DIMSAH
 70
     0
  9
$DIMBLK1
  1

  9
$DIMBLK2
  1

  9
$DIMSTYLE
  2
ISO-25
  9
$DIMCLRD
 70
     0
  9
$DIMCLRE
 70
     0
  9
$DIMCLRT
 70
     0
  9
$DIMTFAC
 40
1.0
  9
$DIMGAP
 40
1.524
  9
$DIMJUST
 70
     0
  9
$DIMSD1
 70
     0
  9
$DIMSD2
 70
     0
  9
$DIMTOLJ
 70
     0
  9
$DIMTZIN
 70
     1
  9
$DIMALTZ
 70
     0
  9
$DIMALTTZ
 70
     0
  9
$DIMFIT
 70
     3
  9
$DIMUPT
 70
     0
  9
$DIMUNIT
 70
     2
  9
$DIMDEC
 70
     2
  9
$DIMTDEC
 70
     2
  9
$DIMALTU
 70
     2
  9
$DIMALTTD
 70
     3
  9
$DIMTXSTY
  7
STANDARD
  9
$DIMAUNIT
 70
     0
  9
$LUNITS
 70
     2
  9
$LUPREC
 70
     2
  9
$SKETCHINC
 40
1.0
  9
$FILLETRAD
 40
0.0
  9
$AUNITS
 70
     0
  9
$AUPREC
 70
     2
  9
$MENU
  1
.
  9
$ELEVATION
 40
0.0
  9
$PELEVATION
 40
0.0
  9
$THICKNESS
 40
0.0
  9
$LIMCHECK
 70
     0
  9
$CHAMFERA
 40
0.0
  9
$CHAMFERB
 40
0.0
  9
$CHAMFERC
 40
0.0
  9
$CHAMFERD
 40
0.0
  9
$SKPOLY
 70
     0
  9
$TDCREATE
 40
2459716.753089363
  9
$TDUPDATE
 40
2459716.753089965
  9
$TDINDWG
 40
0.0000000116
  9
$TDUSRTIMER
 40
0.0000000116
  9
$USRTIMER
 70
     1
  9
$ANGBASE
 50
0.0
  9
$ANGDIR
 70
     0
  9
$PDMODE
 70
     0
  9
$PDSIZE
 40
-1.0
  9
$PLINEWID
 40
0.0
  9
$COORDS
 70
     1
  9
$SPLFRAME
 70
     0
  9
$SPLINETYPE
 70
     6
  9
$SPLINESEGS
 70
     8
  9
$ATTDIA
 70
     0
  9
$ATTREQ
 70
     1
  9
$HANDLING
 70
     1
  9
$HANDSEED
  5
11D
  9
$SURFTAB1
 70
     6
  9
$SURFTAB2
 70
     6
  9
$SURFTYPE
 70
     6
  9
$SURFU
 70
     6
  9
$SURFV
 70
     6
  9
$UCSNAME
  2

  9
$UCSORG
 10
0.0
 20
0.0
 30
0.0
  9
$UCSXDIR
 10
1.0
 20
0.0
 30
0.0
  9
$UCSYDIR
 10
0.0
 20
1.0
 30
0.0
  9
$PUCSNAME
  2

  9
$PUCSORG
 10
0.0
 20
0.0
 30
0.0
  9
$PUCSXDIR
 10
1.0
 20
0.0
 30
0.0
  9
$PUCSYDIR
 10
0.0
 20
1.0
 30
0.0
  9
$USERI1
 70
     0
  9
$USERI2
 70
     0
  9
$USERI3
 70
     0
  9
$USERI4
 70
     0
  9
$USERI5
 70
     0
  9
$USERR1
 40
0.0
  9
$USERR2
 40
0.0
  9
$USERR3
 40
0.0
  9
$USERR4
 40
0.0
  9
$USERR5
 40
0.0
  9
$WORLDVIEW
 70
     1
  9
$SHADEDGE
 70
     3
  9
$SHADEDIF
 70
    70
  9
$TILEMODE
 70
     1
  9
$MAXACTVP
 70
    64
  9
$PINSBASE
 10
0.0
 20
0.0
 30
0.0
  9
$PLIMCHECK
 70
     0
  9
$PEXTMIN
 10
1.0000000000E+20
 20
1.0000000000E+20
 30
1.0000000000E+20
  9
$PEXTMAX
 10
-1.0000000000E+20
 20
-1.0000000000E+20
 30
-1.0000000000E+20
  9
$PLIMMIN
 10
0.0
 20
0.0
  9
$PLIMMAX
 10
420.0
 20
297.0
  9
$UNITMODE
 70
     0
  9
$VISRETAIN
 70
     1
  9
$PLINEGEN
 70
     0
  9
$PSLTSCALE
 70
     1
  9
$TREEDEPTH
 70
  3020
  9
$PICKSTYLE
 70
     1
  9
$CMLSTYLE
  2
STANDARD
  9
$CMLJUST
 70
     0
  9
$CMLSCALE
 40
20.0
  9
$PROXYGRAPHICS
 70
     1
  9
$MEASUREMENT
 70
     1
  0
ENDSEC
  0
SECTION
  2
CLASSES
  0
CLASS
  1
ACDBDICTIONARYWDFLT
  2
AcDbDictionaryWithDefault
  3
ObjectDBX Classes
 90
        0
280
     0
281
     0
  0
CLASS
  1
VISUALSTYLE
  2
AcDbVisualStyle
  3
ObjectDBX Classes
 90
     4095
280
     0
281
     0
  0
CLASS
  1
MATERIAL
  2
AcDbMaterial
  3
ObjectDBX Classes
 90
     1153
280
     0
281
     0
  0
CLASS
  1
SCALE
  2
AcDbScale
  3
ObjectDBX Classes
 90
     1153
280
     0
281
     0
  0
CLASS
  1
TABLESTYLE
  2
AcDbTableStyle
  3
ObjectDBX Classes
 90
     4095
280
     0
281
     0
  0
CLASS
  1
MLEADERSTYLE
  2
AcDbMLeaderStyle
  3
ACDB_MLEADERSTYLE_CLASS
 90
     4095
280
     0
281
     0
  0
CLASS
  1
SUN
  2
AcDbSun
  3
SCENEOE
 90
     1153
280
     0
281
     0
  0
CLASS
  1
XRECORD
  2
AcDbXrecord
  3
ObjectDBX Classes
 90
        0
280
     0
281
     0
  0
CLASS
  1
LWPOLYLINE
  2
AcDbPolyline
  3
ObjectDBX Classes
 90
        0
280
     0
281
     1
  0
CLASS
  1
HATCH
  2
AcDbHatch
  3
ObjectDBX Classes
 90
        0
280
     0
281
     1
  0
ENDSEC
  0
SECTION
  2
TABLES
  0
TABLE
  2
VPORT
  5
8
330
0
100
AcDbSymbolTable
 70
     1
  0
VPORT
  5
29
330
8
100
AcDbSymbolTableRecord
100
AcDbViewportTableRecord
  2
*ACTIVE
 70
     0
 10
0.0
 20
0.0
 11
1.0
 21
1.0
 12
139.7
 22
107.95
 13
0.0
 23
0.0
 14
10.0
 24
10.0
 15
10.0
 25
10.0
 16
0.0
 26
0.0
 36
1.0
 17
0.0
 27
0.0
 37
0.0
 40
215.9
 41
1.2941176471
 42
50.0
 43
0.0
 44
0.0
 50
0.0
 51
0.0
 71
     0
 72
  2000
 73
     1
 74
     3
 75
     0
 76
     0
 77
     0
 78
     0
  0
ENDTAB
  0
TABLE
  2
LTYPE
  5
5
330
0
100
AcDbSymbolTable
 70
     6
  0
LTYPE
  5
14
330
5
100
AcDbSymbolTableRecord
100
AcDbLinetypeTableRecord
  2
BYBLOCK
 70
     0
  3

 72
    65
 73
     0
 40
0.0
  0
LTYPE
  5
15
330
5
100
AcDbSymbolTableRecord
100
AcDbLinetypeTableRecord
  2
BYLAYER
 70
     0
  3

 72
    65
 73
     0
 40
0.0
  0
LTYPE
  5
16
330
5
100
AcDbSymbolTableRecord
100
AcDbLinetypeTableRecord
  2
CONTINUOUS
 70
     0
  3
Solid line
 72
    65
 73
     0
 40
0.0
  0
LTYPE
  5
5E
330
5
100
AcDbSymbolTableRecord
100
AcDbLinetypeTableRecord
  2
HIDDEN
 70
     0
  3
Hidden __ __ __ __ __ __ __ __ __ __ __ __ __ __
 72
    65
 73
     2
 40
1.905
 49
1.27
 74
     0
 49
-0.635
 74
     0
  0
LTYPE
  5
5F
330
5
100
AcDbSymbolTableRecord
100
AcDbLinetypeTableRecord
  2
PHANTOM
 70
     0
  3
Phantom ______  __  __  ______  __  __  ______
 72
    65
 73
     6
 40
12.7
 49
6.35
 74
     0
 49
-1.27
 74
     0
 49
1.27
 74
     0
 49
-1.27
 74
     0
 49
1.27
 74
     0
 49
-1.27
 74
     0
  0
LTYPE
  5
60
330
5
100
AcDbSymbolTableRecord
100
AcDbLinetypeTableRecord
  2
CENTER
 70
     0
  3
Center ____ _ ____ _ ____ _ ____ _ ____ _ ____
 72
    65
 73
     4
 40
10.16
 49
6.35
 74
     0
 49
-1.27
 74
     0
 49
1.27
 74
     0
 49
-1.27
 74
     0
  0
LTYPE
  5
61
330
5
100
AcDbSymbolTableRecord
100
AcDbLinetypeTableRecord
  2
CENTERX2
 70
     0
  3
Center (2x) ________  __  ________  __  _____
 72
    65
 73
     4
 40
20.32
 49
12.7
 74
     0
 49
-2.54
 74
     0
 49
2.54
 74
     0
 49
-2.54
 74
     0
  0
LTYPE
  5
62
330
5
100
AcDbSymbolTableRecord
100
AcDbLinetypeTableRecord
  2
DOT2
 70
     0
  3
Dot (.5x) ........................................
 72
    65
 73
     2
 40
0.635
 49
0.0
 74
     0
 49
-0.635
 74
     0
  0
ENDTAB
  0
TABLE
  2
LAYER
  5
2
330
0
100
AcDbSymbolTable
 70
     1
  0
LAYER
  5
10
330
2
100
AcDbSymbolTableRecord
100
AcDbLayerTableRecord
  2
0
 70
     0
 62
     7
  6
CONTINUOUS
  0
ENDTAB
  0
TABLE
  2
STYLE
  5
3
330
0
100
AcDbSymbolTable
 70
     1
  0
STYLE
  5
11
330
3
100
AcDbSymbolTableRecord
100
AcDbTextStyleTableRecord
  2
STANDARD
 70
     0
 40
0.0
 41
1.0
 50
0.0
 71
     0
 42
3.5
  3
GOTHIC.TTF
  4

1001
ACAD
1000
CENTURY GOTHIC
1071
       34
  0
ENDTAB
  0
TABLE
  2
VIEW
  5
6
330
0
100
AcDbSymbolTable
 70
     0
  0
ENDTAB
  0
TABLE
  2
UCS
  5
7
330
0
100
AcDbSymbolTable
 70
     0
  0
ENDTAB
  0
TABLE
  2
APPID
  5
9
330
0
100
AcDbSymbolTable
 70
     1
  0
APPID
  5
12
330
9
100
AcDbSymbolTableRecord
100
AcDbRegAppTableRecord
  2
ACAD
 70
     0
  0
ENDTAB
  0
TABLE
  2
DIMSTYLE
  5
A
330
0
100
AcDbSymbolTable
 70
     1
  0
DIMSTYLE
105
27
330
A
100
AcDbSymbolTableRecord
100
AcDbDimStyleTableRecord
  2
ISO-25
 70
     0
  3

  4

  5

  6

  7

 40
1.0
 41
2.5
 42
0.625
 43
3.75
 44
1.25
 45
0.0
 46
0.0
 47
0.0
 48
0.0
140
2.5
141
2.5
142
0.0
143
0.0393700787
144
1.0
145
0.0
146
1.0
147
0.625
 71
     0
 72
     0
 73
     0
 74
     0
 75
     0
 76
     0
 77
     1
 78
     8
170
     0
171
     3
172
     1
173
     0
174
     0
175
     0
176
     0
177
     0
178
     0
270
     2
271
     2
272
     2
273
     2
274
     3
340
11
275
     0
280
     0
281
     0
282
     0
283
     0
284
     8
285
     0
286
     0
287
     3
288
     0
  0
ENDTAB
  0
TABLE
  2
BLOCK_RECORD
  5
1
330
0
100
AcDbSymbolTable
 70
     1
  0
BLOCK_RECORD
  5
1F
330
1
100
AcDbSymbolTableRecord
100
AcDbBlockTableRecord
  2
*MODEL_SPACE
  0
BLOCK_RECORD
  5
1B
330
1
100
AcDbSymbolTableRecord
100
AcDbBlockTableRecord
  2
*PAPER_SPACE
  0
BLOCK_RECORD
  5
23
330
1
100
AcDbSymbolTableRecord
100
AcDbBlockTableRecord
  2
*PAPER_SPACE0
  0
ENDTAB
  0
ENDSEC
  0
SECTION
  2
BLOCKS
  0
BLOCK
  5
20
330
1F
100
AcDbEntity
  8
0
100
AcDbBlockBegin
  2
*MODEL_SPACE
 70
     0
 10
0.0
 20
0.0
 30
0.0
  3
*MODEL_SPACE
  1

  0
ENDBLK
  5
21
330
1F
100
AcDbEntity
  8
0
100
AcDbBlockEnd
  0
BLOCK
  5
1C
330
1B
100
AcDbEntity
 67
     1
  8
0
100
AcDbBlockBegin
  2
*PAPER_SPACE
 70
     0
 10
0.0
 20
0.0
 30
0.0
  3
*PAPER_SPACE
  1

  0
ENDBLK
  5
1D
330
1B
100
AcDbEntity
 67
     1
  8
0
100
AcDbBlockEnd
  0
BLOCK
  5
24
330
23
100
AcDbEntity
  8
0
100
AcDbBlockBegin
  2
*PAPER_SPACE0
 70
     0
 10
0.0
 20
0.0
 30
0.0
  3
*PAPER_SPACE0
  1

  0
ENDBLK
  5
25
330
23
100
AcDbEntity
  8
0
100
AcDbBlockEnd
  0
ENDSEC
  0
SECTION
  2
ENTITIES
  0
LINE
  5
63
330
1F
100
AcDbEntity
  8
0
  6
CONTINUOUS
 62
     7
100
AcDbLine
 10
136.9974824581
 20
131.8826410955
 30
0.0
 11
137.0414521956
 21
131.8826410955
 31
0.0
  0
LINE
  5
64
330
1F
100
AcDbEntity
  8
0
  6
CONTINUOUS
 62
     7
100
AcDbLine
 10
136.9974824581
 20
131.8826410955
 30
0.0
 11
136.9974824581
 21
131.9705805706
 31
0.0
  0
LINE
  5
65
330
1F
100
AcDbEntity
  8
0
  6
CONTINUOUS
 62
     7
100
AcDbLine
 10
133.0817502508
 20
196.8249929789
 30
0.0
 11
133.0817502508
 21
196.7810232414
 31
0.0
  0
LINE
  5
66
330
1F
100
AcDbEntity
  8
0
  6
CONTINUOUS
 62
     7
100
AcDbLine
 10
133.0817502508
 20
196.8249929789
 30
0.0
 11
132.9938107757
 21
196.8249929789
 31
0.0
  0
LINE
  5
67
330
1F
100
AcDbEntity
  8
0
  6
CONTINUOUS
 62
     7
100
AcDbLine
 10
130.1817502508
 20
96.8249929789
 30
0.0
 11
130.1817502508
 21
96.8689627165
 31
0.0
  0
LINE
  5
68
330
1F
100
AcDbEntity
  8
0
  6
CONTINUOUS
 62
     7
100
AcDbLine
 10
130.1817502508
 20
96.8249929789
 30
0.0
 11
130.2696897258
 21
96.8249929789
 31
0.0
  0
LINE
  5
69
330
1F
100
AcDbEntity
  8
0
  6
CONTINUOUS
 62
     7
100
AcDbLine
 10
122.5817502508
 20
146.8249929789
 30
0.0
 11
122.6257199883
 21
146.8249929789
 31
0.0
  0
LINE
  5
6A
330
1F
100
AcDbEntity
  8
0
  6
CONTINUOUS
 62
     7
100
AcDbLine
 10
122.5817502508
 20
146.8249929789
 30
0.0
 11
122.5817502508
 21
146.912932454
 31
0.0
  0
LINE
  5
6B
330
1F
100
AcDbEntity
  8
0
  6
CONTINUOUS
 62
     7
100
AcDbLine
 10
122.5817502508
 20
196.8249929789
 30
0.0
 11
122.6257199883
 21
196.8249929789
 31
0.0
  0
LINE
  5
6C
330
1F
100
AcDbEntity
  8
0
  6
CONTINUOUS
 62
     7
100
AcDbLine
 10
122.5817502508
 20
196.8249929789
 30
0.0
 11
122.5817502508
 21
196.912932454
 31
0.0
  0
LINE
  5
6D
330
1F
100
AcDbEntity
  8
0
  6
CONTINUOUS
 62
     7
100
AcDbLine
 10
122.5817502508
 20
96.8249929789
 30
0.0
 11
122.5817502508
 21
96.8689627165
 31
0.0
  0
LINE
  5
6E
330
1F
100
AcDbEntity
  8
0
  6
CONTINUOUS
 62
     7
100
AcDbLine
 10
122.5817502508
 20
96.8249929789
 30
0.0
 11
122.4938107757
 21
96.8249929789
 31
0.0
  0
LINE
  5
6F
330
1F
100
AcDbEntity
  8
0
  6
CONTINUOUS
 62
     7
100
AcDbLine
 10
122.5817502508
 20
96.8249929789
 30
0.0
 11
122.5817502508
 21
96.8689627165
 31
0.0
  0
LINE
  5
70
330
1F
100
AcDbEntity
  8
0
  6
CONTINUOUS
 62
     7
100
AcDbLine
 10
122.5817502508
 20
96.8249929789
 30
0.0
 11
122.4938107757
 21
96.8249929789
 31
0.0
  0
LINE
  5
71
330
1F
100
AcDbEntity
  8
0
  6
CONTINUOUS
 62
     7
100
AcDbLine
 10
122.5817502508
 20
196.8249929789
 30
0.0
 11
122.5817502508
 21
196.8689627165
 31
0.0
  0
LINE
  5
72
330
1F
100
AcDbEntity
  8
0
  6
CONTINUOUS
 62
     7
100
AcDbLine
 10
122.5817502508
 20
196.8249929789
 30
0.0
 11
122.4938107757
 21
196.8249929789
 31
0.0
  0
LINE
  5
73
330
1F
100
AcDbEntity
  8
0
  6
CONTINUOUS
 62
     7
100
AcDbLine
 10
122.5817502508
 20
196.8249929789
 30
0.0
 11
122.5817502508
 21
196.8689627165
 31
0.0
  0
LINE
  5
74
330
1F
100
AcDbEntity
  8
0
  6
CONTINUOUS
 62
     7
100
AcDbLine
 10
122.5817502508
 20
196.8249929789
 30
0.0
 11
122.4938107757
 21
196.8249929789
 31
0.0
  0
LINE
  5
75
330
1F
100
AcDbEntity
  8
0
  6
CONTINUOUS
 62
     7
100
AcDbLine
 10
122.5817502508
 20
96.8249929789
 30
0.0
 11
122.6257199883
 21
96.8249929789
 31
0.0
  0
LINE
  5
76
330
1F
100
AcDbEntity
  8
0
  6
CONTINUOUS
 62
     7
100
AcDbLine
 10
122.5817502508
 20
96.8249929789
 30
0.0
 11
122.5817502508
 21
96.912932454
 31
0.0
  0
POINT
  5
77
330
1F
100
AcDbEntity
  8
0
  6
CONTINUOUS
 62
     7
100
AcDbPoint
 10
136.9974824581
 20
131.8826410955
 30
0.0
  0
POINT
  5
78
330
1F
100
AcDbEntity
  8
0
  6
CONTINUOUS
 62
     7
100
AcDbPoint
 10
133.0817502508
 20
196.8249929789
 30
0.0
  0
POINT
  5
79
330
1F
100
AcDbEntity
  8
0
  6
CONTINUOUS
 62
     7
100
AcDbPoint
 10
130.1817502508
 20
96.8249929789
 30
0.0
  0
POINT
  5
7A
330
1F
100
AcDbEntity
  8
0
  6
CONTINUOUS
 62
     7
100
AcDbPoint
 10
122.5817502508
 20
146.8249929789
 30
0.0
  0
POINT
  5
7B
330
1F
100
AcDbEntity
  8
0
  6
CONTINUOUS
 62
     7
100
AcDbPoint
 10
122.5817502508
 20
196.8249929789
 30
0.0
  0
POINT
  5
7C
330
1F
100
AcDbEntity
  8
0
  6
CONTINUOUS
 62
     7
100
AcDbPoint
 10
122.5817502508
 20
96.8249929789
 30
0.0
  0
POINT
  5
7D
330
1F
100
AcDbEntity
  8
0
  6
CONTINUOUS
 62
     7
100
AcDbPoint
 10
122.5817502508
 20
96.8249929789
 30
0.0
  0
POINT
  5
7E
330
1F
100
AcDbEntity
  8
0
  6
CONTINUOUS
 62
     7
100
AcDbPoint
 10
122.5817502508
 20
196.8249929789
 30
0.0
  0
POINT
  5
7F
330
1F
100
AcDbEntity
  8
0
  6
CONTINUOUS
 62
     7
100
AcDbPoint
 10
122.5817502508
 20
196.8249929789
 30
0.0
  0
POINT
  5
80
330
1F
100
AcDbEntity
  8
0
  6
CONTINUOUS
 62
     7
100
AcDbPoint
 10
122.5817502508
 20
96.8249929789
 30
0.0
  0
CIRCLE
  5
81
330
1F
100
AcDbEntity
  8
0
  6
CONTINUOUS
 62
     7
100
AcDbCircle
 10
122.5817502508
 20
146.8249929789
 30
0.0
 40
94.58578643762684
  0
CIRCLE
  5
82
330
1F
100
AcDbEntity
  8
0
  6
CONTINUOUS
 62
     7
100
AcDbCircle
 10
122.5817502508
 20
146.8249929789
 30
0.0
 40
95.29289321881342
  0
CIRCLE
  5
83
330
1F
100
AcDbEntity
  8
0
  6
CONTINUOUS
 62
     7
100
AcDbCircle
 10
122.5817502508
 20
146.8249929789
 30
0.0
 40
99.70710678118655
  0
CIRCLE
  5
84
330
1F
100
AcDbEntity
  8
0
  6
CONTINUOUS
 62
     7
100
AcDbCircle
 10
122.5817502508
 20
146.8249929789
 30
0.0
 40
99.99999999999997
  0
LINE
  5
85
330
1F
100
AcDbEntity
  8
0
  6
CONTINUOUS
 62
     7
100
AcDbLine
 10
282.3815609228
 20
96.8249929789
 30
0.0
 11
282.3815609228
 21
96.8689627165
 31
0.0
  0
LINE
  5
86
330
1F
100
AcDbEntity
  8
0
  6
CONTINUOUS
 62
     7
100
AcDbLine
 10
282.3815609228
 20
96.8249929789
 30
0.0
 11
282.2936214477
 21
96.8249929789
 31
0.0
  0
LINE
  5
87
330
1F
100
AcDbEntity
  8
0
  6
CONTINUOUS
 62
     7
100
AcDbLine
 10
279.4815609228
 20
196.8249929789
 30
0.0
 11
279.4815609228
 21
196.7810232414
 31
0.0
  0
LINE
  5
88
330
1F
100
AcDbEntity
  8
0
  6
CONTINUOUS
 62
     7
100
AcDbLine
 10
279.4815609228
 20
196.8249929789
 30
0.0
 11
279.5695003978
 21
196.8249929789
 31
0.0
  0
POINT
  5
89
330
1F
100
AcDbEntity
  8
0
  6
CONTINUOUS
 62
     7
100
AcDbPoint
 10
282.3815609228
 20
96.8249929789
 30
0.0
  0
POINT
  5
8A
330
1F
100
AcDbEntity
  8
0
  6
CONTINUOUS
 62
     7
100
AcDbPoint
 10
279.4815609228
 20
196.8249929789
 30
0.0
  0
ARC
  5
8B
330
1F
100
AcDbEntity
  8
0
  6
CONTINUOUS
 62
     7
100
AcDbCircle
 10
316.8957744851
 20
47.8249929789
 30
0.0
 40
1.000000000000007
100
AcDbArc
 50
225.0
 51
270.0
  0
ARC
  5
8C
330
1F
100
AcDbEntity
  8
0
  6
CONTINUOUS
 62
     7
100
AcDbCircle
 10
316.8957744851
 20
245.8249929789
 30
0.0
 40
1.0
100
AcDbArc
 50
90.0
 51
135.0
  0
LINE
  5
8D
330
1F
100
AcDbEntity
  8
0
  6
CONTINUOUS
 62
     7
100
AcDbLine
 10
316.8957744851
 20
46.8249929789
 30
0.0
 11
331.0673473604
 21
46.8249929789
 31
0.0
  0
LINE
  5
8E
330
1F
100
AcDbEntity
  8
0
  6
CONTINUOUS
 62
     7
100
AcDbLine
 10
331.0673473604
 20
246.8249929789
 30
0.0
 11
316.8957744851
 21
246.8249929789
 31
0.0
  0
ARC
  5
8F
330
1F
100
AcDbEntity
  8
0
  6
CONTINUOUS
 62
     7
100
AcDbCircle
 10
331.0673473604
 20
245.8249929789
 30
0.0
 40
1.000000000000028
100
AcDbArc
 50
45.0
 51
90.0
  0
ARC
  5
90
330
1F
100
AcDbEntity
  8
0
  6
CONTINUOUS
 62
     7
100
AcDbCircle
 10
331.0673473604
 20
47.8249929789
 30
0.0
 40
1.000000000000043
100
AcDbArc
 50
270.0
 51
315.0
  0
LINE
  5
91
330
1F
100
AcDbEntity
  8
0
  6
CONTINUOUS
 62
     7
100
AcDbLine
 10
316.188667704
 20
246.5320997601
 30
0.0
 11
311.7744541416
 21
242.1178861978
 31
0.0
  0
LINE
  5
92
330
1F
100
AcDbEntity
  8
0
  6
CONTINUOUS
 62
     7
100
AcDbLine
 10
311.7744541416
 20
51.5320997601
 30
0.0
 11
316.188667704
 21
47.1178861978
 31
0.0
  0
LINE
  5
93
330
1F
100
AcDbEntity
  8
0
  6
CONTINUOUS
 62
     7
100
AcDbLine
 10
331.7744541416
 20
47.1178861978
 30
0.0
 11
336.188667704
 21
51.5320997601
 31
0.0
  0
LINE
  5
94
330
1F
100
AcDbEntity
  8
0
  6
CONTINUOUS
 62
     7
100
AcDbLine
 10
336.188667704
 20
242.1178861978
 30
0.0
 11
331.7744541416
 21
246.5320997601
 31
0.0
  0
ARC
  5
95
330
1F
100
AcDbEntity
  8
0
  6
CONTINUOUS
 62
     7
100
AcDbCircle
 10
312.4815609228
 20
241.4107794166
 30
0.0
 40
1.000000000000008
100
AcDbArc
 50
135.0
 51
180.0
  0
ARC
  5
96
330
1F
100
AcDbEntity
  8
0
  6
CONTINUOUS
 62
     7
100
AcDbCircle
 10
312.4815609228
 20
52.2392065413
 30
0.0
 40
1.000000000000003
100
AcDbArc
 50
180.0
 51
225.0
  0
ARC
  5
97
330
1F
100
AcDbEntity
  8
0
  6
CONTINUOUS
 62
     7
100
AcDbCircle
 10
335.4815609228
 20
241.4107794166
 30
0.0
 40
1.000000000000008
100
AcDbArc
 50
0.0
 51
45.0
  0
ARC
  5
98
330
1F
100
AcDbEntity
  8
0
  6
CONTINUOUS
 62
     7
100
AcDbCircle
 10
335.4815609228
 20
52.2392065413
 30
0.0
 40
1.0
100
AcDbArc
 50
315.0
 51
0.0
  0
LINE
  5
99
330
1F
100
AcDbEntity
  8
0
  6
CONTINUOUS
 62
     7
100
AcDbLine
 10
276.4815609228
 20
207.8249929789
 30
0.0
 11
274.9815609228
 21
207.8249929789
 31
0.0
  0
LINE
  5
9A
330
1F
100
AcDbEntity
  8
0
  6
CONTINUOUS
 62
     7
100
AcDbLine
 10
276.4815609228
 20
185.8249929789
 30
0.0
 11
276.4815609228
 21
207.8249929789
 31
0.0
  0
LINE
  5
9B
330
1F
100
AcDbEntity
  8
0
  6
CONTINUOUS
 62
     7
100
AcDbLine
 10
274.9815609228
 20
185.8249929789
 30
0.0
 11
276.4815609228
 21
185.8249929789
 31
0.0
  0
LINE
  5
9C
330
1F
100
AcDbEntity
  8
0
  6
CONTINUOUS
 62
     7
100
AcDbLine
 10
274.9815609228
 20
185.8249929789
 30
0.0
 11
274.9815609228
 21
207.8249929789
 31
0.0
  0
LINE
  5
9D
330
1F
100
AcDbEntity
  8
0
  6
CONTINUOUS
 62
     7
100
AcDbLine
 10
274.9815609228
 20
212.8249929789
 30
0.0
 11
276.4815609228
 21
212.8249929789
 31
0.0
  0
LINE
  5
9E
330
1F
100
AcDbEntity
  8
0
  6
CONTINUOUS
 62
     7
100
AcDbLine
 10
276.4815609228
 20
212.8249929789
 30
0.0
 11
276.4815609228
 21
207.8249929789
 31
0.0
  0
LINE
  5
9F
330
1F
100
AcDbEntity
  8
0
  6
CONTINUOUS
 62
     7
100
AcDbLine
 10
274.9815609228
 20
207.8249929789
 30
0.0
 11
274.9815609228
 21
212.8249929789
 31
0.0
  0
LINE
  5
A0
330
1F
100
AcDbEntity
  8
0
  6
CONTINUOUS
 62
     7
100
AcDbLine
 10
276.4815609228
 20
185.8249929789
 30
0.0
 11
276.4815609228
 21
180.8249929789
 31
0.0
  0
LINE
  5
A1
330
1F
100
AcDbEntity
  8
0
  6
CONTINUOUS
 62
     7
100
AcDbLine
 10
276.4815609228
 20
180.8249929789
 30
0.0
 11
274.9815609228
 21
180.8249929789
 31
0.0
  0
LINE
  5
A2
330
1F
100
AcDbEntity
  8
0
  6
CONTINUOUS
 62
     7
100
AcDbLine
 10
274.9815609228
 20
180.8249929789
 30
0.0
 11
274.9815609228
 21
185.8249929789
 31
0.0
  0
LINE
  5
A3
330
1F
100
AcDbEntity
  8
0
  6
CONTINUOUS
 62
     7
100
AcDbLine
 10
274.9815609228
 20
112.8249929789
 30
0.0
 11
276.4815609228
 21
112.8249929789
 31
0.0
  0
LINE
  5
A4
330
1F
100
AcDbEntity
  8
0
  6
CONTINUOUS
 62
     7
100
AcDbLine
 10
276.4815609228
 20
112.8249929789
 30
0.0
 11
276.4815609228
 21
107.8249929789
 31
0.0
  0
LINE
  5
A5
330
1F
100
AcDbEntity
  8
0
  6
CONTINUOUS
 62
     7
100
AcDbLine
 10
276.4815609228
 20
107.8249929789
 30
0.0
 11
274.9815609228
 21
107.8249929789
 31
0.0
  0
LINE
  5
A6
330
1F
100
AcDbEntity
  8
0
  6
CONTINUOUS
 62
     7
100
AcDbLine
 10
274.9815609228
 20
107.8249929789
 30
0.0
 11
274.9815609228
 21
112.8249929789
 31
0.0
  0
LINE
  5
A7
330
1F
100
AcDbEntity
  8
0
  6
CONTINUOUS
 62
     7
100
AcDbLine
 10
276.4815609228
 20
85.8249929789
 30
0.0
 11
276.4815609228
 21
107.8249929789
 31
0.0
  0
LINE
  5
A8
330
1F
100
AcDbEntity
  8
0
  6
CONTINUOUS
 62
     7
100
AcDbLine
 10
274.9815609228
 20
85.8249929789
 30
0.0
 11
276.4815609228
 21
85.8249929789
 31
0.0
  0
LINE
  5
A9
330
1F
100
AcDbEntity
  8
0
  6
CONTINUOUS
 62
     7
100
AcDbLine
 10
274.9815609228
 20
85.8249929789
 30
0.0
 11
274.9815609228
 21
107.8249929789
 31
0.0
  0
LINE
  5
AA
330
1F
100
AcDbEntity
  8
0
  6
CONTINUOUS
 62
     7
100
AcDbLine
 10
276.4815609228
 20
80.8249929789
 30
0.0
 11
274.9815609228
 21
80.8249929789
 31
0.0
  0
LINE
  5
AB
330
1F
100
AcDbEntity
  8
0
  6
CONTINUOUS
 62
     7
100
AcDbLine
 10
276.4815609228
 20
85.8249929789
 30
0.0
 11
276.4815609228
 21
80.8249929789
 31
0.0
  0
LINE
  5
AC
330
1F
100
AcDbEntity
  8
0
  6
CONTINUOUS
 62
     7
100
AcDbLine
 10
274.9815609228
 20
80.8249929789
 30
0.0
 11
274.9815609228
 21
85.8249929789
 31
0.0
  0
LINE
  5
AD
330
1F
100
AcDbEntity
  8
0
  6
CONTINUOUS
 62
     7
100
AcDbLine
 10
311.4815609228
 20
207.8249929789
 30
0.0
 11
276.4815609228
 21
207.8249929789
 31
0.0
  0
LINE
  5
AE
330
1F
100
AcDbEntity
  8
0
  6
CONTINUOUS
 62
     7
100
AcDbLine
 10
276.4815609228
 20
212.8249929789
 30
0.0
 11
311.4815609228
 21
212.8249929789
 31
0.0
  0
LINE
  5
AF
330
1F
100
AcDbEntity
  8
0
  6
CONTINUOUS
 62
     7
100
AcDbLine
 10
276.4815609228
 20
185.8249929789
 30
0.0
 11
311.4815609228
 21
185.8249929789
 31
0.0
  0
LINE
  5
B0
330
1F
100
AcDbEntity
  8
0
  6
CONTINUOUS
 62
     7
100
AcDbLine
 10
311.4815609228
 20
180.8249929789
 30
0.0
 11
276.4815609228
 21
180.8249929789
 31
0.0
  0
LINE
  5
B1
330
1F
100
AcDbEntity
  8
0
  6
CONTINUOUS
 62
     7
100
AcDbLine
 10
311.4815609228
 20
80.8249929789
 30
0.0
 11
276.4815609228
 21
80.8249929789
 31
0.0
  0
LINE
  5
B2
330
1F
100
AcDbEntity
  8
0
  6
CONTINUOUS
 62
     7
100
AcDbLine
 10
276.4815609228
 20
85.8249929789
 30
0.0
 11
311.4815609228
 21
85.8249929789
 31
0.0
  0
LINE
  5
B3
330
1F
100
AcDbEntity
  8
0
  6
CONTINUOUS
 62
     7
100
AcDbLine
 10
311.4815609228
 20
107.8249929789
 30
0.0
 11
276.4815609228
 21
107.8249929789
 31
0.0
  0
LINE
  5
B4
330
1F
100
AcDbEntity
  8
0
  6
CONTINUOUS
 62
     7
100
AcDbLine
 10
276.4815609228
 20
112.8249929789
 30
0.0
 11
311.4815609228
 21
112.8249929789
 31
0.0
  0
LINE
  5
B5
330
1F
100
AcDbEntity
  8
0
  6
CONTINUOUS
 62
     7
100
AcDbLine
 10
311.4815609228
 20
52.2392065413
 30
0.0
 11
311.4815609228
 21
241.4107794166
 31
0.0
  0
LINE
  5
B6
330
1F
100
AcDbEntity
  8
0
  6
CONTINUOUS
 62
     7
100
AcDbLine
 10
336.4815609228
 20
241.4107794166
 30
0.0
 11
336.4815609228
 21
52.2392065413
 31
0.0
  0
LINE
  5
B7
330
1F
100
AcDbEntity
  8
0
  6
CONTINUOUS
 62
     7
100
AcDbLine
 10
300.6569609228
 20
212.8259929789
 30
0.0
 11
300.6569609228
 21
212.8249929789
 31
0.0
  0
LINE
  5
B8
330
1F
100
AcDbEntity
  8
0
  6
CONTINUOUS
 62
     7
100
AcDbLine
 10
303.1845609228
 20
212.8259929789
 30
0.0
 11
303.1845609228
 21
212.8249929789
 31
0.0
  0
SPLINE
  5
B9
330
1F
100
AcDbEntity
  8
0
  6
CONTINUOUS
 62
     7
100
AcDbSpline
210
0.0
220
0.0
230
1.0
 70
    24
 71
     3
 72
    12
 73
     8
 74
     0
 42
0.00000001
 43
0.00000001
 40
0.0
 40
0.0
 40
0.0
 40
0.0
 40
0.3143673319851782
 40
0.587157530035886
 40
0.8110328976779898
 40
0.9077109548243035
 40
1.0
 40
1.0
 40
1.0
 40
1.0
 10
303.1845609227682
 20
212.8259929789369
 30
0.0
 10
303.1485097412347
 20
212.8259929789369
 30
0.0
 10
303.0811753825072
 20
212.8259929789369
 30
0.0
 10
302.5520208877061
 20
212.8259929789369
 30
0.0
 10
301.8640899510234
 20
212.8259929789369
 30
0.0
 10
301.1850106230465
 20
212.8259929789369
 30
0.0
 10
300.8302307448773
 20
212.8259929789369
 30
0.0
 10
300.6569609227682
 20
212.8259929789369
 30
0.0
  0
LINE
  5
BA
330
1F
100
AcDbEntity
  8
0
  6
CONTINUOUS
 62
     7
100
AcDbLine
 10
298.1293609228
 20
212.8259929789
 30
0.0
 11
298.1293609228
 21
212.8249929789
 31
0.0
  0
SPLINE
  5
BB
330
1F
100
AcDbEntity
  8
0
  6
CONTINUOUS
 62
     7
100
AcDbSpline
210
0.0
220
0.0
230
1.0
 70
    24
 71
     3
 72
    12
 73
     8
 74
     0
 42
0.00000001
 43
0.00000001
 40
0.0
 40
0.0
 40
0.0
 40
0.0
 40
0.0922890451756974
 40
0.188967102322012
 40
0.4128424699641163
 40
0.6856326680148236
 40
1.0
 40
1.0
 40
1.0
 40
1.0
 10
300.6569609227682
 20
212.8259929789369
 30
0.0
 10
300.4836911006592
 20
212.8259929789369
 30
0.0
 10
300.1289112224899
 20
212.8259929789369
 30
0.0
 10
299.449831894513
 20
212.8259929789369
 30
0.0
 10
298.7619009578304
 20
212.8259929789369
 30
0.0
 10
298.2327464630292
 20
212.8259929789369
 30
0.0
 10
298.1654121043018
 20
212.8259929789369
 30
0.0
 10
298.1293609227682
 20
212.8259929789369
 30
0.0
  0
LINE
  5
BC
330
1F
100
AcDbEntity
  8
0
  6
CONTINUOUS
 62
     7
100
AcDbLine
 10
300.6569609228
 20
80.8239929789
 30
0.0
 11
300.6569609228
 21
80.8249929789
 31
0.0
  0
SPLINE
  5
BD
330
1F
100
AcDbEntity
  8
0
  6
CONTINUOUS
 62
     7
100
AcDbSpline
210
0.0
220
0.0
230
1.0
 70
    24
 71
     3
 72
    12
 73
     8
 74
     0
 42
0.00000001
 43
0.00000001
 40
0.0
 40
0.0
 40
0.0
 40
0.0
 40
0.3143673319851774
 40
0.5871575300358852
 40
0.8110328976779899
 40
0.9077109548243034
 40
1.0
 40
1.0
 40
1.0
 40
1.0
 10
298.1293609227682
 20
80.82399297893686
 30
0.0
 10
298.1654121043017
 20
80.82399297893686
 30
0.0
 10
298.2327464630292
 20
80.82399297893684
 30
0.0
 10
298.7619009578304
 20
80.82399297893686
 30
0.0
 10
299.449831894513
 20
80.82399297893683
 30
0.0
 10
300.1289112224899
 20
80.82399297893686
 30
0.0
 10
300.4836911006591
 20
80.82399297893686
 30
0.0
 10
300.6569609227682
 20
80.82399297893686
 30
0.0
  0
LINE
  5
BE
330
1F
100
AcDbEntity
  8
0
  6
CONTINUOUS
 62
     7
100
AcDbLine
 10
298.1293609228
 20
80.8239929789
 30
0.0
 11
298.1293609228
 21
80.8249929789
 31
0.0
  0
LINE
  5
BF
330
1F
100
AcDbEntity
  8
0
  6
CONTINUOUS
 62
     7
100
AcDbLine
 10
303.1845609228
 20
80.8239929789
 30
0.0
 11
303.1845609228
 21
80.8249929789
 31
0.0
  0
SPLINE
  5
C0
330
1F
100
AcDbEntity
  8
0
  6
CONTINUOUS
 62
     7
100
AcDbSpline
210
0.0
220
0.0
230
1.0
 70
    24
 71
     3
 72
    12
 73
     8
 74
     0
 42
0.00000001
 43
0.00000001
 40
0.0
 40
0.0
 40
0.0
 40
0.0
 40
0.0922890451756973
 40
0.1889671023220122
 40
0.4128424699641177
 40
0.6856326680148245
 40
0.9999999999999999
 40
0.9999999999999999
 40
0.9999999999999999
 40
0.9999999999999999
 10
300.6569609227682
 20
80.82399297893686
 30
0.0
 10
300.8302307448773
 20
80.82399297893686
 30
0.0
 10
301.1850106230465
 20
80.82399297893686
 30
0.0
 10
301.8640899510233
 20
80.82399297893683
 30
0.0
 10
302.5520208877061
 20
80.82399297893683
 30
0.0
 10
303.0811753825072
 20
80.82399297893686
 30
0.0
 10
303.1485097412347
 20
80.82399297893684
 30
0.0
 10
303.1845609227682
 20
80.82399297893686
 30
0.0
  0
LINE
  5
C1
330
1F
100
AcDbEntity
  8
0
  6
CONTINUOUS
 62
     7
100
AcDbLine
 10
300.4899609228
 20
212.8259929789
 30
0.0
 11
300.8348609228
 21
212.8259929789
 31
0.0
  0
LINE
  5
C2
330
1F
100
AcDbEntity
  8
0
  6
CONTINUOUS
 62
     7
100
AcDbLine
 10
316.8957744851
 20
146.8249929789
 30
0.0
 11
316.8957744851
 21
46.8249929789
 31
0.0
  0
LINE
  5
C3
330
1F
100
AcDbEntity
  8
0
  6
CONTINUOUS
 62
     7
100
AcDbLine
 10
316.8957744851
 20
246.8249929789
 30
0.0
 11
316.8957744851
 21
146.8249929789
 31
0.0
  0
LINE
  5
C4
330
1F
100
AcDbEntity
  8
0
  6
CONTINUOUS
 62
     7
100
AcDbLine
 10
316.188667704
 20
47.1178861978
 30
0.0
 11
316.188667704
 21
246.5320997601
 31
0.0
  0
LINE
  5
C5
330
1F
100
AcDbEntity
  8
0
  6
CONTINUOUS
 62
     7
100
AcDbLine
 10
331.0673473604
 20
46.8249929789
 30
0.0
 11
331.0673473604
 21
246.8249929789
 31
0.0
  0
LINE
  5
C6
330
1F
100
AcDbEntity
  8
0
  6
CONTINUOUS
 62
     7
100
AcDbLine
 10
331.7744541416
 20
146.8249929789
 30
0.0
 11
331.7744541416
 21
47.1178861978
 31
0.0
  0
LINE
  5
C7
330
1F
100
AcDbEntity
  8
0
  6
CONTINUOUS
 62
     7
100
AcDbLine
 10
331.7744541416
 20
246.5320997601
 30
0.0
 11
331.7744541416
 21
146.8249929789
 31
0.0
  0
LINE
  5
C8
330
1F
100
AcDbEntity
  8
0
  6
CONTINUOUS
 62
     7
100
AcDbLine
 10
311.7744541416
 20
242.1178861978
 30
0.0
 11
311.7744541416
 21
51.5320997601
 31
0.0
  0
LINE
  5
C9
330
1F
100
AcDbEntity
  8
0
  6
CONTINUOUS
 62
     7
100
AcDbLine
 10
336.188667704
 20
51.5320997601
 30
0.0
 11
336.188667704
 21
242.1178861978
 31
0.0
  0
LINE
  5
CA
330
1F
100
AcDbEntity
  8
0
  6
CONTINUOUS
 62
     7
100
AcDbLine
 10
122.5817502508
 20
-26.5793166049
 30
0.0
 11
122.5377805132
 21
-26.5793166049
 31
0.0
  0
LINE
  5
CB
330
1F
100
AcDbEntity
  8
0
  6
CONTINUOUS
 62
     7
100
AcDbLine
 10
122.5817502508
 20
-26.5793166049
 30
0.0
 11
122.5817502508
 21
-26.6672560799
 31
0.0
  0
LINE
  5
CC
330
1F
100
AcDbEntity
  8
0
  6
CONTINUOUS
 62
     7
100
AcDbLine
 10
122.5817502508
 20
-26.5793166049
 30
0.0
 11
122.6257199883
 21
-26.5793166049
 31
0.0
  0
LINE
  5
CD
330
1F
100
AcDbEntity
  8
0
  6
CONTINUOUS
 62
     7
100
AcDbLine
 10
122.5817502508
 20
-26.5793166049
 30
0.0
 11
122.5817502508
 21
-26.6672560799
 31
0.0
  0
POINT
  5
CE
330
1F
100
AcDbEntity
  8
0
  6
CONTINUOUS
 62
     7
100
AcDbPoint
 10
122.5817502508
 20
-26.5793166049
 30
0.0
  0
POINT
  5
CF
330
1F
100
AcDbEntity
  8
0
  6
CONTINUOUS
 62
     7
100
AcDbPoint
 10
122.5817502508
 20
-26.5793166049
 30
0.0
  0
ARC
  5
D0
330
1F
100
AcDbEntity
  8
0
  6
CONTINUOUS
 62
     7
100
AcDbCircle
 10
23.5817502508
 20
-42.8181301672
 30
0.0
 40
1.0
100
AcDbArc
 50
135.0
 51
180.0
  0
ARC
  5
D1
330
1F
100
AcDbEntity
  8
0
  6
CONTINUOUS
 62
     7
100
AcDbCircle
 10
221.5817502508
 20
-42.8181301672
 30
0.0
 40
1.000000000000018
100
AcDbArc
 50
0.0
 51
45.0
  0
LINE
  5
D2
330
1F
100
AcDbEntity
  8
0
  6
CONTINUOUS
 62
     7
100
AcDbLine
 10
22.5817502508
 20
-42.8181301672
 30
0.0
 11
22.5817502508
 21
-56.9897030425
 31
0.0
  0
LINE
  5
D3
330
1F
100
AcDbEntity
  8
0
  6
CONTINUOUS
 62
     7
100
AcDbLine
 10
222.5817502508
 20
-56.9897030425
 30
0.0
 11
222.5817502508
 21
-42.8181301672
 31
0.0
  0
ARC
  5
D4
330
1F
100
AcDbEntity
  8
0
  6
CONTINUOUS
 62
     7
100
AcDbCircle
 10
221.5817502508
 20
-56.9897030425
 30
0.0
 40
1.000000000000003
100
AcDbArc
 50
315.0
 51
0.0
  0
ARC
  5
D5
330
1F
100
AcDbEntity
  8
0
  6
CONTINUOUS
 62
     7
100
AcDbCircle
 10
23.5817502508
 20
-56.9897030425
 30
0.0
 40
1.0
100
AcDbArc
 50
180.0
 51
225.0
  0
LINE
  5
D6
330
1F
100
AcDbEntity
  8
0
  6
CONTINUOUS
 62
     7
100
AcDbLine
 10
222.2888570319
 20
-42.111023386
 30
0.0
 11
217.8746434696
 21
-37.6968098237
 31
0.0
  0
LINE
  5
D7
330
1F
100
AcDbEntity
  8
0
  6
CONTINUOUS
 62
     7
100
AcDbLine
 10
27.2888570319
 20
-37.6968098237
 30
0.0
 11
22.8746434696
 21
-42.111023386
 31
0.0
  0
LINE
  5
D8
330
1F
100
AcDbEntity
  8
0
  6
CONTINUOUS
 62
     7
100
AcDbLine
 10
22.8746434696
 20
-57.6968098237
 30
0.0
 11
27.2888570319
 21
-62.111023386
 31
0.0
  0
LINE
  5
D9
330
1F
100
AcDbEntity
  8
0
  6
CONTINUOUS
 62
     7
100
AcDbLine
 10
217.8746434696
 20
-62.111023386
 30
0.0
 11
222.2888570319
 21
-57.6968098237
 31
0.0
  0
ARC
  5
DA
330
1F
100
AcDbEntity
  8
0
  6
CONTINUOUS
 62
     7
100
AcDbCircle
 10
217.1675366884
 20
-38.4039166049
 30
0.0
 40
1.000000000000008
100
AcDbArc
 50
45.0
 51
90.0
  0
ARC
  5
DB
330
1F
100
AcDbEntity
  8
0
  6
CONTINUOUS
 62
     7
100
AcDbCircle
 10
27.9959638131
 20
-38.4039166049
 30
0.0
 40
1.000000000000003
100
AcDbArc
 50
90.0
 51
135.0
  0
ARC
  5
DC
330
1F
100
AcDbEntity
  8
0
  6
CONTINUOUS
 62
     7
100
AcDbCircle
 10
217.1675366884
 20
-61.4039166049
 30
0.0
 40
1.000000000000008
100
AcDbArc
 50
270.0
 51
315.0
  0
ARC
  5
DD
330
1F
100
AcDbEntity
  8
0
  6
CONTINUOUS
 62
     7
100
AcDbCircle
 10
27.9959638131
 20
-61.4039166049
 30
0.0
 40
1.0
100
AcDbArc
 50
225.0
 51
270.0
  0
LINE
  5
DE
330
1F
100
AcDbEntity
  8
0
  6
CONTINUOUS
 62
     7
100
AcDbLine
 10
138.5817502508
 20
-0.9039166049
 30
0.0
 11
138.5817502508
 21
-2.4039166049
 31
0.0
  0
LINE
  5
DF
330
1F
100
AcDbEntity
  8
0
  6
CONTINUOUS
 62
     7
100
AcDbLine
 10
133.5817502508
 20
-2.4039166049
 30
0.0
 11
133.5817502508
 21
-0.9039166049
 31
0.0
  0
LINE
  5
E0
330
1F
100
AcDbEntity
  8
0
  6
CONTINUOUS
 62
     7
100
AcDbLine
 10
138.5817502508
 20
-2.4039166049
 30
0.0
 11
133.5817502508
 21
-2.4039166049
 31
0.0
  0
LINE
  5
E1
330
1F
100
AcDbEntity
  8
0
  6
CONTINUOUS
 62
     7
100
AcDbLine
 10
133.5817502508
 20
-0.9039166049
 30
0.0
 11
138.5817502508
 21
-0.9039166049
 31
0.0
  0
LINE
  5
E2
330
1F
100
AcDbEntity
  8
0
  6
CONTINUOUS
 62
     7
100
AcDbLine
 10
111.5817502508
 20
-0.9039166049
 30
0.0
 11
111.5817502508
 21
-2.4039166049
 31
0.0
  0
LINE
  5
E3
330
1F
100
AcDbEntity
  8
0
  6
CONTINUOUS
 62
     7
100
AcDbLine
 10
106.5817502508
 20
-2.4039166049
 30
0.0
 11
106.5817502508
 21
-0.9039166049
 31
0.0
  0
LINE
  5
E4
330
1F
100
AcDbEntity
  8
0
  6
CONTINUOUS
 62
     7
100
AcDbLine
 10
111.5817502508
 20
-2.4039166049
 30
0.0
 11
106.5817502508
 21
-2.4039166049
 31
0.0
  0
LINE
  5
E5
330
1F
100
AcDbEntity
  8
0
  6
CONTINUOUS
 62
     7
100
AcDbLine
 10
106.5817502508
 20
-0.9039166049
 30
0.0
 11
111.5817502508
 21
-0.9039166049
 31
0.0
  0
LINE
  5
E6
330
1F
100
AcDbEntity
  8
0
  6
CONTINUOUS
 62
     7
100
AcDbLine
 10
111.5817502508
 20
-2.4039166049
 30
0.0
 11
133.5817502508
 21
-2.4039166049
 31
0.0
  0
LINE
  5
E7
330
1F
100
AcDbEntity
  8
0
  6
CONTINUOUS
 62
     7
100
AcDbLine
 10
111.5817502508
 20
-0.9039166049
 30
0.0
 11
133.5817502508
 21
-0.9039166049
 31
0.0
  0
LINE
  5
E8
330
1F
100
AcDbEntity
  8
0
  6
CONTINUOUS
 62
     7
100
AcDbLine
 10
133.5817502508
 20
-37.4039166049
 30
0.0
 11
133.5817502508
 21
-2.4039166049
 31
0.0
  0
LINE
  5
E9
330
1F
100
AcDbEntity
  8
0
  6
CONTINUOUS
 62
     7
100
AcDbLine
 10
138.5817502508
 20
-2.4039166049
 30
0.0
 11
138.5817502508
 21
-37.4039166049
 31
0.0
  0
LINE
  5
EA
330
1F
100
AcDbEntity
  8
0
  6
CONTINUOUS
 62
     7
100
AcDbLine
 10
111.5817502508
 20
-2.4039166049
 30
0.0
 11
111.5817502508
 21
-37.4039166049
 31
0.0
  0
LINE
  5
EB
330
1F
100
AcDbEntity
  8
0
  6
CONTINUOUS
 62
     7
100
AcDbLine
 10
106.5817502508
 20
-37.4039166049
 30
0.0
 11
106.5817502508
 21
-2.4039166049
 31
0.0
  0
LINE
  5
EC
330
1F
100
AcDbEntity
  8
0
  6
CONTINUOUS
 62
     7
100
AcDbLine
 10
27.9959638138
 20
-37.4039166049
 30
0.0
 11
217.1675366884
 21
-37.4039166049
 31
0.0
  0
LINE
  5
ED
330
1F
100
AcDbEntity
  8
0
  6
CONTINUOUS
 62
     7
100
AcDbLine
 10
217.1675366884
 20
-62.4039166049
 30
0.0
 11
27.9959638138
 21
-62.4039166049
 31
0.0
  0
SPLINE
  5
EE
330
1F
100
AcDbEntity
  8
0
  6
CONTINUOUS
 62
     7
100
AcDbSpline
210
0.0
220
0.0
230
1.0
 70
     8
 71
     3
 72
    12
 73
     8
 74
     0
 42
0.00000001
 43
0.00000001
 40
0.0
 40
0.0
 40
0.0
 40
0.0
 40
0.090469052482276
 40
0.1858192837529802
 40
0.4089514465726154
 40
0.6830777780257488
 40
1.0
 40
1.0
 40
1.0
 40
1.0
 10
126.9092502507523
 20
-26.57931660485452
 30
0.0
 10
126.8911016756761
 20
-26.7413066361429
 30
0.0
 10
126.8538253349907
 20
-27.07402672951435
 30
0.0
 10
126.4608411770665
 20
-27.71042372229104
 30
0.0
 10
125.5899877524648
 20
-28.35118985037099
 30
0.0
 10
124.2038603001681
 20
-28.84357169411432
 30
0.0
 10
123.1479388716583
 20
-28.90622284634174
 30
0.0
 10
122.5817502507523
 20
-28.93981660485451
 30
0.0
  0
SPLINE
  5
EF
330
1F
100
AcDbEntity
  8
0
  6
CONTINUOUS
 62
     7
100
AcDbSpline
210
0.0
220
0.0
230
1.0
 70
     8
 71
     3
 72
    12
 73
     8
 74
     0
 42
0.00000001
 43
0.00000001
 40
0.0
 40
0.0
 40
0.0
 40
0.0
 40
0.0904690524822759
 40
0.1858192837529797
 40
0.4089514465726142
 40
0.683077778025748
 40
1.0
 40
1.0
 40
1.0
 40
1.0
 10
118.2542502507523
 20
-26.57931660485452
 30
0.0
 10
118.2723988258286
 20
-26.41732657356613
 30
0.0
 10
118.3096751665139
 20
-26.08460648019467
 30
0.0
 10
118.702659324438
 20
-25.44820948741801
 30
0.0
 10
119.5735127490398
 20
-24.80744335933802
 30
0.0
 10
120.9596402013365
 20
-24.31506151559473
 30
0.0
 10
122.0155616298462
 20
-24.25241036336729
 30
0.0
 10
122.5817502507523
 20
-24.21881660485452
 30
0.0
  0
SPLINE
  5
F0
330
1F
100
AcDbEntity
  8
0
  6
CONTINUOUS
 62
     7
100
AcDbSpline
210
0.0
220
0.0
230
1.0
 70
     8
 71
     3
 72
    12
 73
     8
 74
     0
 42
0.00000001
 43
0.00000001
 40
0.0
 40
0.0
 40
0.0
 40
0.0
 40
0.3169222219742538
 40
0.5910485534273873
 40
0.8141807162470216
 40
0.9095309475177245
 40
0.9999999999999999
 40
0.9999999999999999
 40
0.9999999999999999
 40
0.9999999999999999
 10
122.5817502507523
 20
-28.93981660485452
 30
0.0
 10
122.0155616298463
 20
-28.90622284634174
 30
0.0
 10
120.9596402013365
 20
-28.84357169411432
 30
0.0
 10
119.5735127490398
 20
-28.351189850371
 30
0.0
 10
118.7026593244381
 20
-27.71042372229103
 30
0.0
 10
118.3096751665139
 20
-27.07402672951435
 30
0.0
 10
118.2723988258285
 20
-26.74130663614289
 30
0.0
 10
118.2542502507523
 20
-26.57931660485452
 30
0.0
  0
SPLINE
  5
F1
330
1F
100
AcDbEntity
  8
0
  6
CONTINUOUS
 62
     7
100
AcDbSpline
210
0.0
220
0.0
230
1.0
 70
     8
 71
     3
 72
    12
 73
     8
 74
     0
 42
0.00000001
 43
0.00000001
 40
0.0
 40
0.0
 40
0.0
 40
0.0
 40
0.3143673319851782
 40
0.587157530035886
 40
0.8110328976779898
 40
0.9077109548243035
 40
1.0
 40
1.0
 40
1.0
 40
1.0
 10
122.5817502507523
 20
-29.10691660485452
 30
0.0
 10
121.9927077785712
 20
-29.07086542332101
 30
0.0
 10
120.8925275503393
 20
-29.00353106459352
 30
0.0
 10
119.4484436076196
 20
-28.47437656979235
 30
0.0
 10
118.5446873531885
 20
-27.78644563310971
 30
0.0
 10
118.1389528217715
 20
-27.10736630513285
 30
0.0
 10
118.1005202250548
 20
-26.75258642696355
 30
0.0
 10
118.0817502507523
 20
-26.57931660485452
 30
0.0
  0
SPLINE
  5
F2
330
1F
100
AcDbEntity
  8
0
  6
CONTINUOUS
 62
     7
100
AcDbSpline
210
0.0
220
0.0
230
1.0
 70
     8
 71
     3
 72
    12
 73
     8
 74
     0
 42
0.00000001
 43
0.00000001
 40
0.0
 40
0.0
 40
0.0
 40
0.0
 40
0.0922890451756974
 40
0.188967102322012
 40
0.4128424699641163
 40
0.6856326680148236
 40
1.0
 40
1.0
 40
1.0
 40
1.0
 10
118.0817502507523
 20
-26.57931660485452
 30
0.0
 10
118.1005202250548
 20
-26.40604678274548
 30
0.0
 10
118.1389528217715
 20
-26.05126690457617
 30
0.0
 10
118.5446873531885
 20
-25.37218757659934
 30
0.0
 10
119.4484436076196
 20
-24.68425663991668
 30
0.0
 10
120.8925275503393
 20
-24.15510214511552
 30
0.0
 10
121.9927077785712
 20
-24.08776778638803
 30
0.0
 10
122.5817502507523
 20
-24.05171660485452
 30
0.0
  0
SPLINE
  5
F3
330
1F
100
AcDbEntity
  8
0
  6
CONTINUOUS
 62
     7
100
AcDbSpline
210
0.0
220
0.0
230
1.0
 70
     8
 71
     3
 72
    12
 73
     8
 74
     0
 42
0.00000001
 43
0.00000001
 40
0.0
 40
0.0
 40
0.0
 40
0.0
 40
0.3143673319851774
 40
0.5871575300358851
 40
0.8110328976779894
 40
0.9077109548243034
 40
1.0
 40
1.0
 40
1.0
 40
1.0
 10
122.5817502507523
 20
-24.05171660485452
 30
0.0
 10
123.1707927229334
 20
-24.08776778638804
 30
0.0
 10
124.2709729511653
 20
-24.15510214511552
 30
0.0
 10
125.715056893885
 20
-24.6842566399167
 30
0.0
 10
126.6188131483161
 20
-25.37218757659933
 30
0.0
 10
127.0245476797331
 20
-26.05126690457617
 30
0.0
 10
127.0629802764498
 20
-26.40604678274548
 30
0.0
 10
127.0817502507523
 20
-26.57931660485452
 30
0.0
  0
SPLINE
  5
F4
330
1F
100
AcDbEntity
  8
0
  6
CONTINUOUS
 62
     7
100
AcDbSpline
210
0.0
220
0.0
230
1.0
 70
     8
 71
     3
 72
    12
 73
     8
 74
     0
 42
0.00000001
 43
0.00000001
 40
0.0
 40
0.0
 40
0.0
 40
0.0
 40
0.0922890451756974
 40
0.1889671023220122
 40
0.4128424699641173
 40
0.6856326680148244
 40
0.9999999999999999
 40
0.9999999999999999
 40
0.9999999999999999
 40
0.9999999999999999
 10
127.0817502507523
 20
-26.57931660485452
 30
0.0
 10
127.0629802764498
 20
-26.75258642696355
 30
0.0
 10
127.0245476797331
 20
-27.10736630513286
 30
0.0
 10
126.6188131483161
 20
-27.7864456331097
 30
0.0
 10
125.715056893885
 20
-28.47437656979235
 30
0.0
 10
124.2709729511653
 20
-29.00353106459351
 30
0.0
 10
123.1707927229334
 20
-29.070865423321
 30
0.0
 10
122.5817502507523
 20
-29.10691660485452
 30
0.0
  0
SPLINE
  5
F5
330
1F
100
AcDbEntity
  8
0
  6
CONTINUOUS
 62
     7
100
AcDbSpline
210
0.0
220
0.0
230
1.0
 70
     8
 71
     3
 72
    12
 73
     8
 74
     0
 42
0.00000001
 43
0.00000001
 40
0.0
 40
0.0
 40
0.0
 40
0.0
 40
0.3169222219742528
 40
0.5910485534273862
 40
0.8141807162470205
 40
0.9095309475177245
 40
1.0
 40
1.0
 40
1.0
 40
1.0
 10
122.5817502507523
 20
-24.21881660485452
 30
0.0
 10
123.1479388716583
 20
-24.2524103633673
 30
0.0
 10
124.2038603001681
 20
-24.31506151559473
 30
0.0
 10
125.5899877524648
 20
-24.80744335933804
 30
0.0
 10
126.4608411770665
 20
-25.44820948741802
 30
0.0
 10
126.8538253349907
 20
-26.08460648019467
 30
0.0
 10
126.8911016756761
 20
-26.41732657356614
 30
0.0
 10
126.9092502507523
 20
-26.57931660485452
 30
0.0
  0
LINE
  5
F6
330
1F
100
AcDbEntity
  8
0
  6
CONTINUOUS
 62
     7
100
AcDbLine
 10
126.2733502508
 20
-26.2165166049
 30
0.0
 11
126.2733502508
 21
-26.4877166049
 31
0.0
  0
LINE
  5
F7
330
1F
100
AcDbEntity
  8
0
  6
CONTINUOUS
 62
     7
100
AcDbLine
 10
126.2733502508
 20
-26.4877166049
 30
0.0
 11
125.6482502508
 21
-26.4877166049
 31
0.0
  0
LINE
  5
F8
330
1F
100
AcDbEntity
  8
0
  6
CONTINUOUS
 62
     7
100
AcDbLine
 10
125.6482502508
 20
-26.4877166049
 30
0.0
 11
125.6482502508
 21
-26.1751166049
 31
0.0
  0
LINE
  5
F9
330
1F
100
AcDbEntity
  8
0
  6
CONTINUOUS
 62
     7
100
AcDbLine
 10
124.5165502508
 20
-26.9943166049
 30
0.0
 11
125.2063502508
 21
-26.9943166049
 31
0.0
  0
LINE
  5
FA
330
1F
100
AcDbEntity
  8
0
  6
CONTINUOUS
 62
     7
100
AcDbLine
 10
125.2063502508
 20
-26.9943166049
 30
0.0
 11
125.2063502508
 21
-27.4039166049
 31
0.0
  0
LINE
  5
FB
330
1F
100
AcDbEntity
  8
0
  6
CONTINUOUS
 62
     7
100
AcDbLine
 10
125.2063502508
 20
-27.4039166049
 30
0.0
 11
123.8913502508
 21
-27.4039166049
 31
0.0
  0
SPLINE
  5
FC
330
1F
100
AcDbEntity
  8
0
  6
CONTINUOUS
 62
     7
100
AcDbSpline
210
0.0
220
0.0
230
1.0
 70
     8
 71
     3
 72
    11
 73
     7
 74
     0
 42
0.00000001
 43
0.00000001
 40
0.0
 40
0.0
 40
0.0
 40
0.0
 40
0.2833448308640375
 40
0.5580866109706034
 40
0.7754665892499427
 40
1.0
 40
1.0
 40
1.0
 40
1.0
 10
123.8913502507523
 20
-26.21591660485452
 30
0.0
 10
123.9003372885603
 20
-26.14734158913031
 30
0.0
 10
123.9180384954523
 20
-26.01227366498261
 30
0.0
 10
124.0413840104429
 20
-25.86245960860235
 30
0.0
 10
124.1916921725808
 20
-25.77126650486154
 30
0.0
 10
124.2983553578509
 20
-25.76029245201498
 30
0.0
 10
124.3525502507523
 20
-25.75471660485452
 30
0.0
  0
LINE
  5
FD
330
1F
100
AcDbEntity
  8
0
  6
CONTINUOUS
 62
     7
100
AcDbLine
 10
124.3525502508
 20
-25.7547166049
 30
0.0
 11
125.8116502508
 21
-25.7547166049
 31
0.0
  0
SPLINE
  5
FE
330
1F
100
AcDbEntity
  8
0
  6
CONTINUOUS
 62
     7
100
AcDbSpline
210
0.0
220
0.0
230
1.0
 70
     8
 71
     3
 72
    11
 73
     7
 74
     0
 42
0.00000001
 43
0.00000001
 40
0.0
 40
0.0
 40
0.0
 40
0.0
 40
0.2832327603404952
 40
0.5580114153644161
 40
0.7754417085638463
 40
1.0
 40
1.0
 40
1.0
 40
1.0
 10
125.8116502507523
 20
-25.75471660485452
 30
0.0
 10
125.8802738868162
 20
-25.76372292970584
 30
0.0
 10
126.0154728385243
 20
-25.78146675309502
 30
0.0
 10
126.1654286335577
 20
-25.90496866620189
 30
0.0
 10
126.2567649319061
 20
-26.05545239993503
 30
0.0
 10
126.267762690452
 20
-26.16225440069957
 30
0.0
 10
126.2733502507523
 20
-26.21651660485452
 30
0.0
  0
LINE
  5
FF
330
1F
100
AcDbEntity
  8
0
  6
CONTINUOUS
 62
     7
100
AcDbLine
 10
125.6482502508
 20
-26.1751166049
 30
0.0
 11
124.5165502508
 21
-26.1751166049
 31
0.0
  0
LINE
  5
100
330
1F
100
AcDbEntity
  8
0
  6
CONTINUOUS
 62
     7
100
AcDbLine
 10
124.5165502508
 20
-26.1751166049
 30
0.0
 11
124.5165502508
 21
-26.9943166049
 31
0.0
  0
LINE
  5
101
330
1F
100
AcDbEntity
  8
0
  6
CONTINUOUS
 62
     7
100
AcDbLine
 10
123.8913502508
 20
-27.4039166049
 30
0.0
 11
123.8913502508
 21
-26.2159166049
 31
0.0
  0
LINE
  5
102
330
1F
100
AcDbEntity
  8
0
  6
CONTINUOUS
 62
     7
100
AcDbLine
 10
121.9190502508
 20
-26.9943166049
 30
0.0
 11
123.1044502508
 21
-26.9943166049
 31
0.0
  0
LINE
  5
103
330
1F
100
AcDbEntity
  8
0
  6
CONTINUOUS
 62
     7
100
AcDbLine
 10
123.7189502508
 20
-25.7547166049
 30
0.0
 11
123.7189502508
 21
-27.4039166049
 31
0.0
  0
LINE
  5
104
330
1F
100
AcDbEntity
  8
0
  6
CONTINUOUS
 62
     7
100
AcDbLine
 10
123.7189502508
 20
-27.4039166049
 30
0.0
 11
121.7554502508
 21
-27.4039166049
 31
0.0
  0
SPLINE
  5
105
330
1F
100
AcDbEntity
  8
0
  6
CONTINUOUS
 62
     7
100
AcDbSpline
210
0.0
220
0.0
230
1.0
 70
     8
 71
     3
 72
    11
 73
     7
 74
     0
 42
0.00000001
 43
0.00000001
 40
0.0
 40
0.0
 40
0.0
 40
0.0
 40
0.2832834002916858
 40
0.5580419236669923
 40
0.7754510728848745
 40
0.9999999999999999
 40
0.9999999999999999
 40
0.9999999999999999
 40
0.9999999999999999
 10
121.7554502507523
 20
-27.40391660485452
 30
0.0
 10
121.6868112612803
 20
-27.39491336510452
 30
0.0
 10
121.5515988426067
 20
-27.37717782103753
 30
0.0
 10
121.4016348696065
 20
-27.25366729543164
 30
0.0
 10
121.3103261200833
 20
-27.10317569063932
 30
0.0
 10
121.2993347287173
 20
-26.99637806756687
 30
0.0
 10
121.2937502507523
 20
-26.94211660485452
 30
0.0
  0
LINE
  5
106
330
1F
100
AcDbEntity
  8
0
  6
CONTINUOUS
 62
     7
100
AcDbLine
 10
121.2937502508
 20
-25.7547166049
 30
0.0
 11
121.9190502508
 21
-25.7547166049
 31
0.0
  0
LINE
  5
107
330
1F
100
AcDbEntity
  8
0
  6
CONTINUOUS
 62
     7
100
AcDbLine
 10
121.2937502508
 20
-26.9421166049
 30
0.0
 11
121.2937502508
 21
-25.7547166049
 31
0.0
  0
LINE
  5
108
330
1F
100
AcDbEntity
  8
0
  6
CONTINUOUS
 62
     7
100
AcDbLine
 10
123.1044502508
 20
-26.9943166049
 30
0.0
 11
123.1044502508
 21
-25.7547166049
 31
0.0
  0
LINE
  5
109
330
1F
100
AcDbEntity
  8
0
  6
CONTINUOUS
 62
     7
100
AcDbLine
 10
123.1044502508
 20
-25.7547166049
 30
0.0
 11
123.7189502508
 21
-25.7547166049
 31
0.0
  0
LINE
  5
10A
330
1F
100
AcDbEntity
  8
0
  6
CONTINUOUS
 62
     7
100
AcDbLine
 10
121.9190502508
 20
-25.7547166049
 30
0.0
 11
121.9190502508
 21
-26.9943166049
 31
0.0
  0
LINE
  5
10B
330
1F
100
AcDbEntity
  8
0
  6
CONTINUOUS
 62
     7
100
AcDbLine
 10
118.8901502508
 20
-26.9943166049
 30
0.0
 11
118.8901502508
 21
-27.4039166049
 31
0.0
  0
LINE
  5
10C
330
1F
100
AcDbEntity
  8
0
  6
CONTINUOUS
 62
     7
100
AcDbLine
 10
120.5177502508
 20
-26.9943166049
 30
0.0
 11
118.8901502508
 21
-26.9943166049
 31
0.0
  0
SPLINE
  5
10D
330
1F
100
AcDbEntity
  8
0
  6
CONTINUOUS
 62
     7
100
AcDbSpline
210
0.0
220
0.0
230
1.0
 70
     8
 71
     3
 72
    11
 73
     7
 74
     0
 42
0.00000001
 43
0.00000001
 40
0.0
 40
0.0
 40
0.0
 40
0.0
 40
0.2832831090848541
 40
0.5580598110863123
 40
0.7754688048580621
 40
1.0
 40
1.0
 40
1.0
 40
1.0
 10
120.6810502507523
 20
-27.40391660485452
 30
0.0
 10
120.7496948337734
 20
-27.39491227239434
 30
0.0
 10
120.8849227446666
 20
-27.37717398899326
 30
0.0
 10
121.0349170253953
 20
-27.25367192806394
 30
0.0
 10
121.1262646612992
 20
-27.10318227026345
 30
0.0
 10
121.1372626406746
 20
-26.99637889910417
 30
0.0
 10
121.1428502507523
 20
-26.94211660485452
 30
0.0
  0
LINE
  5
10E
330
1F
100
AcDbEntity
  8
0
  6
CONTINUOUS
 62
     7
100
AcDbLine
 10
118.8901502508
 20
-27.4039166049
 30
0.0
 11
120.6810502508
 21
-27.4039166049
 31
0.0
  0
LINE
  5
10F
330
1F
100
AcDbEntity
  8
0
  6
CONTINUOUS
 62
     7
100
AcDbLine
 10
120.5177502508
 20
-25.7547166049
 30
0.0
 11
120.5177502508
 21
-26.9943166049
 31
0.0
  0
LINE
  5
110
330
1F
100
AcDbEntity
  8
0
  6
CONTINUOUS
 62
     7
100
AcDbLine
 10
121.1428502508
 20
-25.7547166049
 30
0.0
 11
120.5177502508
 21
-25.7547166049
 31
0.0
  0
LINE
  5
111
330
1F
100
AcDbEntity
  8
0
  6
CONTINUOUS
 62
     7
100
AcDbLine
 10
121.1428502508
 20
-26.9421166049
 30
0.0
 11
121.1428502508
 21
-25.7547166049
 31
0.0
  0
LINE
  5
112
330
1F
100
AcDbEntity
  8
0
  6
CONTINUOUS
 62
     7
100
AcDbLine
 10
119.2457502508
 20
-26.4123166049
 30
0.0
 11
119.2457502508
 21
-26.7572166049
 31
0.0
  0
LINE
  5
113
330
1F
100
AcDbEntity
  8
0
  6
CONTINUOUS
 62
     7
100
AcDbLine
 10
120.2913502508
 20
-26.4123166049
 30
0.0
 11
119.2457502508
 21
-26.4123166049
 31
0.0
  0
LINE
  5
114
330
1F
100
AcDbEntity
  8
0
  6
CONTINUOUS
 62
     7
100
AcDbLine
 10
120.2913502508
 20
-26.7572166049
 30
0.0
 11
120.2913502508
 21
-26.4123166049
 31
0.0
  0
LINE
  5
115
330
1F
100
AcDbEntity
  8
0
  6
CONTINUOUS
 62
     7
100
AcDbLine
 10
119.2457502508
 20
-26.7572166049
 30
0.0
 11
120.2913502508
 21
-26.7572166049
 31
0.0
  0
LINE
  5
116
330
1F
100
AcDbEntity
  8
0
  6
CONTINUOUS
 62
     7
100
AcDbLine
 10
222.5817502508
 20
-42.8181301672
 30
0.0
 11
22.5817502508
 21
-42.8181301672
 31
0.0
  0
LINE
  5
117
330
1F
100
AcDbEntity
  8
0
  6
CONTINUOUS
 62
     7
100
AcDbLine
 10
22.8746434696
 20
-42.111023386
 30
0.0
 11
222.2888570319
 21
-42.111023386
 31
0.0
  0
LINE
  5
118
330
1F
100
AcDbEntity
  8
0
  6
CONTINUOUS
 62
     7
100
AcDbLine
 10
22.5817502508
 20
-56.9897030425
 30
0.0
 11
222.5817502508
 21
-56.9897030425
 31
0.0
  0
LINE
  5
119
330
1F
100
AcDbEntity
  8
0
  6
CONTINUOUS
 62
     7
100
AcDbLine
 10
222.2888570319
 20
-57.6968098237
 30
0.0
 11
22.8746434696
 21
-57.6968098237
 31
0.0
  0
LINE
  5
11A
330
1F
100
AcDbEntity
  8
0
  6
CONTINUOUS
 62
     7
100
AcDbLine
 10
217.8746434696
 20
-37.6968098237
 30
0.0
 11
27.2888570319
 21
-37.6968098237
 31
0.0
  0
LINE
  5
11B
330
1F
100
AcDbEntity
  8
0
  6
CONTINUOUS
 62
     7
100
AcDbLine
 10
27.2888570319
 20
-62.111023386
 30
0.0
 11
217.8746434696
 21
-62.111023386
 31
0.0
  0
ENDSEC
  0
SECTION
  2
OBJECTS
  0
DICTIONARY
  5
C
330
0
100
AcDbDictionary
  3
ACAD_GROUP
350
D
  3
ACAD_MLINESTYLE
350
17
  3
ACAD_SCALELIST
350
47
  3
DWGPROPS
350
11C
  0
DICTIONARY
  5
D
102
{ACAD_REACTORS
330
C
102
}
330
C
100
AcDbDictionary
  0
DICTIONARY
  5
17
102
{ACAD_REACTORS
330
C
102
}
330
C
100
AcDbDictionary
  3
STANDARD
350
18
  0
DICTIONARY
  5
47
102
{ACAD_REACTORS
330
C
102
}
330
C
100
AcDbDictionary
  0
XRECORD
  5
11C
102
{ACAD_REACTORS
330
C
102
}
330
C
100
AcDbXrecord
  1
DWGPROPS COOKIE
  2

  3

  4

  6

  7

  8
Pedro.Queiros
  9

300
=
301
=
302
=
303
=
304
=
305
=
306
=
307
=
308
=
309
=
 40
0.0
 41
2459716.711422697
 42
2459716.711423299
  1

 90
        0
  0
MLINESTYLE
  5
18
102
{ACAD_REACTORS
330
17
102
}
330
17
100
AcDbMlineStyle
  2
Standard
 70
     0
  3

 62
   256
 51
90.0
 52
90.0
 71
     2
 49
0.5
 62
   256
  6
BYLAYER
 49
-0.5
 62
   256
  6
BYLAYER
  0
ENDSEC
  0
EOF
