  0
SECTION
  2
HEADER
  9
$ACADVER
  1
AC1014
  9
$ACADMAINTVER
 70
     9
  9
$DWGCODEPAGE
  3
ANSI_1252
  9
$INSBASE
 10
0.0
 20
0.0
 30
0.0
  9
$EXTMIN
 10
0.0
 20
0.0
 30
0.0
  9
$EXTMAX
 10
279.4
 20
215.9
 30
0.0
  9
$LIMMIN
 10
0.0
 20
0.0
  9
$LIMMAX
 10
279.4
 20
215.9
  9
$ORTHOMODE
 70
     0
  9
$REGENMODE
 70
     1
  9
$FILLMODE
 70
     1
  9
$QTEXTMODE
 70
     0
  9
$MIRRTEXT
 70
     1
  9
$DRAGMODE
 70
     2
  9
$LTSCALE
 40
1.0
  9
$OSMODE
 70
    37
  9
$ATTMODE
 70
     1
  9
$TEXTSIZE
 40
3.5
  9
$TRACEWID
 40
1.0
  9
$TEXTSTYLE
  7
STANDARD
  9
$CLAYER
  8
0
  9
$CELTYPE
  6
BYLAYER
  9
$CECOLOR
 62
   256
  9
$CELTSCALE
 40
1.0
  9
$DELOBJ
 70
     1
  9
$DISPSILH
 70
     0
  9
$DIMSCALE
 40
1.0
  9
$DIMASZ
 40
3.302
  9
$DIMEXO
 40
1.0
  9
$DIMDLI
 40
3.75
  9
$DIMRND
 40
0.0
  9
$DIMDLE
 40
0.0
  9
$DIMEXE
 40
1.0
  9
$DIMTP
 40
0.0
  9
$DIMTM
 40
0.0
  9
$DIMTXT
 40
3.5
  9
$DIMCEN
 40
2.5
  9
$DIMTSZ
 40
0.0
  9
$DIMTOL
 70
     0
  9
$DIMLIM
 70
     0
  9
$DIMTIH
 70
     1
  9
$DIMTOH
 70
     1
  9
$DIMSE1
 70
     0
  9
$DIMSE2
 70
     0
  9
$DIMTAD
 70
     1
  9
$DIMZIN
 70
     1
  9
$DIMBLK
  1

  9
$DIMASO
 70
     1
  9
$DIMSHO
 70
     1
  9
$DIMPOST
  1

  9
$DIMAPOST
  1

  9
$DIMALT
 70
     0
  9
$DIMALTD
 70
     3
  9
$DIMALTF
 40
0.0393700787
  9
$DIMLFAC
 40
2.0
  9
$DIMTOFL
 70
     1
  9
$DIMTVP
 40
0.0
  9
$DIMTIX
 70
     0
  9
$DIMSOXD
 70
     0
  9
$DIMSAH
 70
     0
  9
$DIMBLK1
  1

  9
$DIMBLK2
  1

  9
$DIMSTYLE
  2
ISO-25
  9
$DIMCLRD
 70
     0
  9
$DIMCLRE
 70
     0
  9
$DIMCLRT
 70
     0
  9
$DIMTFAC
 40
1.0
  9
$DIMGAP
 40
1.524
  9
$DIMJUST
 70
     0
  9
$DIMSD1
 70
     0
  9
$DIMSD2
 70
     0
  9
$DIMTOLJ
 70
     0
  9
$DIMTZIN
 70
     1
  9
$DIMALTZ
 70
     0
  9
$DIMALTTZ
 70
     0
  9
$DIMFIT
 70
     3
  9
$DIMUPT
 70
     0
  9
$DIMUNIT
 70
     2
  9
$DIMDEC
 70
     2
  9
$DIMTDEC
 70
     2
  9
$DIMALTU
 70
     2
  9
$DIMALTTD
 70
     3
  9
$DIMTXSTY
  7
STANDARD
  9
$DIMAUNIT
 70
     0
  9
$LUNITS
 70
     2
  9
$LUPREC
 70
     2
  9
$SKETCHINC
 40
1.0
  9
$FILLETRAD
 40
10.0
  9
$AUNITS
 70
     0
  9
$AUPREC
 70
     2
  9
$MENU
  1
.
  9
$ELEVATION
 40
0.0
  9
$PELEVATION
 40
0.0
  9
$THICKNESS
 40
0.0
  9
$LIMCHECK
 70
     0
  9
$CHAMFERA
 40
0.0
  9
$CHAMFERB
 40
0.0
  9
$CHAMFERC
 40
0.0
  9
$CHAMFERD
 40
0.0
  9
$SKPOLY
 70
     0
  9
$TDCREATE
 40
2459324.412784364
  9
$TDUPDATE
 40
2459324.412785023
  9
$TDINDWG
 40
0.0000000116
  9
$TDUSRTIMER
 40
0.0000000116
  9
$USRTIMER
 70
     1
  9
$ANGBASE
 50
0.0
  9
$ANGDIR
 70
     0
  9
$PDMODE
 70
     0
  9
$PDSIZE
 40
-1.0
  9
$PLINEWID
 40
0.0
  9
$COORDS
 70
     1
  9
$SPLFRAME
 70
     0
  9
$SPLINETYPE
 70
     6
  9
$SPLINESEGS
 70
     8
  9
$ATTDIA
 70
     0
  9
$ATTREQ
 70
     1
  9
$HANDLING
 70
     1
  9
$HANDSEED
  5
35D
  9
$SURFTAB1
 70
     6
  9
$SURFTAB2
 70
     6
  9
$SURFTYPE
 70
     6
  9
$SURFU
 70
     6
  9
$SURFV
 70
     6
  9
$UCSNAME
  2

  9
$UCSORG
 10
0.0
 20
0.0
 30
0.0
  9
$UCSXDIR
 10
1.0
 20
0.0
 30
0.0
  9
$UCSYDIR
 10
0.0
 20
1.0
 30
0.0
  9
$PUCSNAME
  2

  9
$PUCSORG
 10
0.0
 20
0.0
 30
0.0
  9
$PUCSXDIR
 10
1.0
 20
0.0
 30
0.0
  9
$PUCSYDIR
 10
0.0
 20
1.0
 30
0.0
  9
$USERI1
 70
     0
  9
$USERI2
 70
     0
  9
$USERI3
 70
     0
  9
$USERI4
 70
     0
  9
$USERI5
 70
     0
  9
$USERR1
 40
0.0
  9
$USERR2
 40
0.0
  9
$USERR3
 40
0.0
  9
$USERR4
 40
0.0
  9
$USERR5
 40
0.0
  9
$WORLDVIEW
 70
     1
  9
$SHADEDGE
 70
     3
  9
$SHADEDIF
 70
    70
  9
$TILEMODE
 70
     1
  9
$MAXACTVP
 70
    64
  9
$PINSBASE
 10
0.0
 20
0.0
 30
0.0
  9
$PLIMCHECK
 70
     0
  9
$PEXTMIN
 10
1.0000000000E+20
 20
1.0000000000E+20
 30
1.0000000000E+20
  9
$PEXTMAX
 10
-1.0000000000E+20
 20
-1.0000000000E+20
 30
-1.0000000000E+20
  9
$PLIMMIN
 10
0.0
 20
0.0
  9
$PLIMMAX
 10
420.0
 20
297.0
  9
$UNITMODE
 70
     0
  9
$VISRETAIN
 70
     1
  9
$PLINEGEN
 70
     0
  9
$PSLTSCALE
 70
     1
  9
$TREEDEPTH
 70
  3020
  9
$PICKSTYLE
 70
     1
  9
$CMLSTYLE
  2
STANDARD
  9
$CMLJUST
 70
     0
  9
$CMLSCALE
 40
20.0
  9
$PROXYGRAPHICS
 70
     1
  9
$MEASUREMENT
 70
     1
  0
ENDSEC
  0
SECTION
  2
CLASSES
  0
CLASS
  1
ACDBDICTIONARYWDFLT
  2
AcDbDictionaryWithDefault
  3
ObjectDBX Classes
 90
        0
280
     0
281
     0
  0
CLASS
  1
VISUALSTYLE
  2
AcDbVisualStyle
  3
ObjectDBX Classes
 90
     4095
280
     0
281
     0
  0
CLASS
  1
MATERIAL
  2
AcDbMaterial
  3
ObjectDBX Classes
 90
     1153
280
     0
281
     0
  0
CLASS
  1
SCALE
  2
AcDbScale
  3
ObjectDBX Classes
 90
     1153
280
     0
281
     0
  0
CLASS
  1
TABLESTYLE
  2
AcDbTableStyle
  3
ObjectDBX Classes
 90
     4095
280
     0
281
     0
  0
CLASS
  1
MLEADERSTYLE
  2
AcDbMLeaderStyle
  3
ACDB_MLEADERSTYLE_CLASS
 90
     4095
280
     0
281
     0
  0
CLASS
  1
SUN
  2
AcDbSun
  3
SCENEOE
 90
     1153
280
     0
281
     0
  0
CLASS
  1
XRECORD
  2
AcDbXrecord
  3
ObjectDBX Classes
 90
        0
280
     0
281
     0
  0
CLASS
  1
LWPOLYLINE
  2
AcDbPolyline
  3
ObjectDBX Classes
 90
        0
280
     0
281
     1
  0
CLASS
  1
HATCH
  2
AcDbHatch
  3
ObjectDBX Classes
 90
        0
280
     0
281
     1
  0
ENDSEC
  0
SECTION
  2
TABLES
  0
TABLE
  2
VPORT
  5
8
330
0
100
AcDbSymbolTable
 70
     1
  0
VPORT
  5
29
330
8
100
AcDbSymbolTableRecord
100
AcDbViewportTableRecord
  2
*ACTIVE
 70
     0
 10
0.0
 20
0.0
 11
1.0
 21
1.0
 12
139.7
 22
107.95
 13
0.0
 23
0.0
 14
10.0
 24
10.0
 15
10.0
 25
10.0
 16
0.0
 26
0.0
 36
1.0
 17
0.0
 27
0.0
 37
0.0
 40
215.9
 41
1.2941176471
 42
50.0
 43
0.0
 44
0.0
 50
0.0
 51
0.0
 71
     0
 72
  2000
 73
     1
 74
     3
 75
     0
 76
     0
 77
     0
 78
     0
  0
ENDTAB
  0
TABLE
  2
LTYPE
  5
5
330
0
100
AcDbSymbolTable
 70
     6
  0
LTYPE
  5
14
330
5
100
AcDbSymbolTableRecord
100
AcDbLinetypeTableRecord
  2
BYBLOCK
 70
     0
  3

 72
    65
 73
     0
 40
0.0
  0
LTYPE
  5
15
330
5
100
AcDbSymbolTableRecord
100
AcDbLinetypeTableRecord
  2
BYLAYER
 70
     0
  3

 72
    65
 73
     0
 40
0.0
  0
LTYPE
  5
16
330
5
100
AcDbSymbolTableRecord
100
AcDbLinetypeTableRecord
  2
CONTINUOUS
 70
     0
  3
Solid line
 72
    65
 73
     0
 40
0.0
  0
LTYPE
  5
6E
330
5
100
AcDbSymbolTableRecord
100
AcDbLinetypeTableRecord
  2
HIDDEN
 70
     0
  3
Hidden __ __ __ __ __ __ __ __ __ __ __ __ __ __
 72
    65
 73
     2
 40
1.905
 49
1.27
 74
     0
 49
-0.635
 74
     0
  0
LTYPE
  5
6F
330
5
100
AcDbSymbolTableRecord
100
AcDbLinetypeTableRecord
  2
PHANTOM
 70
     0
  3
Phantom ______  __  __  ______  __  __  ______
 72
    65
 73
     6
 40
12.7
 49
6.35
 74
     0
 49
-1.27
 74
     0
 49
1.27
 74
     0
 49
-1.27
 74
     0
 49
1.27
 74
     0
 49
-1.27
 74
     0
  0
LTYPE
  5
70
330
5
100
AcDbSymbolTableRecord
100
AcDbLinetypeTableRecord
  2
CENTER
 70
     0
  3
Center ____ _ ____ _ ____ _ ____ _ ____ _ ____
 72
    65
 73
     4
 40
10.16
 49
6.35
 74
     0
 49
-1.27
 74
     0
 49
1.27
 74
     0
 49
-1.27
 74
     0
  0
LTYPE
  5
71
330
5
100
AcDbSymbolTableRecord
100
AcDbLinetypeTableRecord
  2
CENTERX2
 70
     0
  3
Center (2x) ________  __  ________  __  _____
 72
    65
 73
     4
 40
20.32
 49
12.7
 74
     0
 49
-2.54
 74
     0
 49
2.54
 74
     0
 49
-2.54
 74
     0
  0
LTYPE
  5
72
330
5
100
AcDbSymbolTableRecord
100
AcDbLinetypeTableRecord
  2
DOT2
 70
     0
  3
Dot (.5x) ........................................
 72
    65
 73
     2
 40
0.635
 49
0.0
 74
     0
 49
-0.635
 74
     0
  0
ENDTAB
  0
TABLE
  2
LAYER
  5
2
330
0
100
AcDbSymbolTable
 70
     1
  0
LAYER
  5
10
330
2
100
AcDbSymbolTableRecord
100
AcDbLayerTableRecord
  2
0
 70
     0
 62
     7
  6
CONTINUOUS
  0
ENDTAB
  0
TABLE
  2
STYLE
  5
3
330
0
100
AcDbSymbolTable
 70
     1
  0
STYLE
  5
11
330
3
100
AcDbSymbolTableRecord
100
AcDbTextStyleTableRecord
  2
STANDARD
 70
     0
 40
0.0
 41
1.0
 50
0.0
 71
     0
 42
3.5
  3
txt
  4

  0
ENDTAB
  0
TABLE
  2
VIEW
  5
6
330
0
100
AcDbSymbolTable
 70
     0
  0
ENDTAB
  0
TABLE
  2
UCS
  5
7
330
0
100
AcDbSymbolTable
 70
     0
  0
ENDTAB
  0
TABLE
  2
APPID
  5
9
330
0
100
AcDbSymbolTable
 70
     1
  0
APPID
  5
12
330
9
100
AcDbSymbolTableRecord
100
AcDbRegAppTableRecord
  2
ACAD
 70
     0
  0
ENDTAB
  0
TABLE
  2
DIMSTYLE
  5
A
330
0
100
AcDbSymbolTable
 70
     1
  0
DIMSTYLE
105
27
330
A
100
AcDbSymbolTableRecord
100
AcDbDimStyleTableRecord
  2
ISO-25
 70
     0
  3

  4

  5

  6

  7

 40
1.0
 41
2.5
 42
0.625
 43
3.75
 44
1.25
 45
0.0
 46
0.0
 47
0.0
 48
0.0
140
2.5
141
2.5
142
0.0
143
0.0393700787
144
1.0
145
0.0
146
1.0
147
0.625
 71
     0
 72
     0
 73
     0
 74
     0
 75
     0
 76
     0
 77
     1
 78
     8
170
     0
171
     3
172
     1
173
     0
174
     0
175
     0
176
     0
177
     0
178
     0
270
     2
271
     2
272
     2
273
     2
274
     3
340
11
275
     0
280
     0
281
     0
282
     0
283
     0
284
     8
285
     0
286
     0
287
     3
288
     0
  0
ENDTAB
  0
TABLE
  2
BLOCK_RECORD
  5
1
330
0
100
AcDbSymbolTable
 70
     1
  0
BLOCK_RECORD
  5
1F
330
1
100
AcDbSymbolTableRecord
100
AcDbBlockTableRecord
  2
*MODEL_SPACE
  0
BLOCK_RECORD
  5
1B
330
1
100
AcDbSymbolTableRecord
100
AcDbBlockTableRecord
  2
*PAPER_SPACE
  0
BLOCK_RECORD
  5
23
330
1
100
AcDbSymbolTableRecord
100
AcDbBlockTableRecord
  2
*PAPER_SPACE0
  0
ENDTAB
  0
ENDSEC
  0
SECTION
  2
BLOCKS
  0
BLOCK
  5
20
330
1F
100
AcDbEntity
  8
0
100
AcDbBlockBegin
  2
*MODEL_SPACE
 70
     0
 10
0.0
 20
0.0
 30
0.0
  3
*MODEL_SPACE
  1

  0
ENDBLK
  5
21
330
1F
100
AcDbEntity
  8
0
100
AcDbBlockEnd
  0
BLOCK
  5
1C
330
1B
100
AcDbEntity
 67
     1
  8
0
100
AcDbBlockBegin
  2
*PAPER_SPACE
 70
     0
 10
0.0
 20
0.0
 30
0.0
  3
*PAPER_SPACE
  1

  0
ENDBLK
  5
1D
330
1B
100
AcDbEntity
 67
     1
  8
0
100
AcDbBlockEnd
  0
BLOCK
  5
24
330
23
100
AcDbEntity
  8
0
100
AcDbBlockBegin
  2
*PAPER_SPACE0
 70
     0
 10
0.0
 20
0.0
 30
0.0
  3
*PAPER_SPACE0
  1

  0
ENDBLK
  5
25
330
23
100
AcDbEntity
  8
0
100
AcDbBlockEnd
  0
ENDSEC
  0
SECTION
  2
ENTITIES
  0
LINE
  5
73
330
1F
100
AcDbEntity
  8
0
  6
CONTINUOUS
 62
     7
100
AcDbLine
 10
173.9291161683
 20
100.701261563
 30
0.0
 11
182.2504073872
 21
100.701261563
 31
0.0
  0
LINE
  5
74
330
1F
100
AcDbEntity
  8
0
  6
CONTINUOUS
 62
     7
100
AcDbLine
 10
182.2504073872
 20
120.701261563
 30
0.0
 11
173.9291161683
 21
120.701261563
 31
0.0
  0
ARC
  5
75
330
1F
100
AcDbEntity
  8
0
  6
CONTINUOUS
 62
     7
100
AcDbCircle
 10
182.2504073872
 20
120.501261563
 30
0.0
 40
0.2000000000000298
100
AcDbArc
 50
12.153197469
 51
90.0
  0
ARC
  5
76
330
1F
100
AcDbEntity
  8
0
  6
CONTINUOUS
 62
     7
100
AcDbCircle
 10
182.2504073872
 20
100.901261563
 30
0.0
 40
0.2000000000000268
100
AcDbArc
 50
270.0
 51
347.846802531
  0
ARC
  5
77
330
1F
100
AcDbEntity
  8
0
  6
CONTINUOUS
 62
     7
100
AcDbCircle
 10
184.1074739105
 20
120.4996383937
 30
0.0
 40
0.2000000000000281
100
AcDbArc
 50
88.9571724379
 51
167.7466437835
  0
ARC
  5
78
330
1F
100
AcDbEntity
  8
0
  6
CONTINUOUS
 62
     7
100
AcDbCircle
 10
184.1074739105
 20
100.9028847323
 30
0.0
 40
0.2000000000000281
100
AcDbArc
 50
192.2533562165
 51
271.0428275621
  0
ARC
  5
79
330
1F
100
AcDbEntity
  8
0
  6
CONTINUOUS
 62
     7
100
AcDbCircle
 10
183.9291161683
 20
110.701261563
 30
0.0
 40
10.0
100
AcDbArc
 50
271.0428275621
 51
88.9571724379
  0
ARC
  5
7A
330
1F
100
AcDbEntity
  8
0
  6
CONTINUOUS
 62
     7
100
AcDbCircle
 10
183.1791161683
 20
100.701261563
 30
0.0
 40
0.7499999999999868
100
AcDbArc
 50
12.2533562165
 51
167.846802531
  0
ARC
  5
7B
330
1F
100
AcDbEntity
  8
0
  6
CONTINUOUS
 62
     7
100
AcDbCircle
 10
183.1791161683
 20
120.701261563
 30
0.0
 40
0.7499999999999838
100
AcDbArc
 50
192.153197469
 51
347.7466437835
  0
LINE
  5
7C
330
1F
100
AcDbEntity
  8
0
  6
CONTINUOUS
 62
     7
100
AcDbLine
 10
95.787770199
 20
101.951261563
 30
0.0
 11
105.6791192999
 21
101.951261563
 31
0.0
  0
LINE
  5
7D
330
1F
100
AcDbEntity
  8
0
  6
CONTINUOUS
 62
     7
100
AcDbLine
 10
105.6791192999
 20
119.451261563
 30
0.0
 11
95.787770199
 21
119.451261563
 31
0.0
  0
ARC
  5
7E
330
1F
100
AcDbEntity
  8
0
  6
CONTINUOUS
 62
     7
100
AcDbCircle
 10
95.787770199
 20
119.251261563
 30
0.0
 40
0.2000000000000074
100
AcDbArc
 50
90.0
 51
144.3146652873
  0
ARC
  5
7F
330
1F
100
AcDbEntity
  8
0
  6
CONTINUOUS
 62
     7
100
AcDbCircle
 10
95.787770199
 20
102.151261563
 30
0.0
 40
0.1999999999999992
100
AcDbArc
 50
215.6853347127
 51
270.0
  0
ARC
  5
80
330
1F
100
AcDbEntity
  8
0
  6
CONTINUOUS
 62
     7
100
AcDbCircle
 10
94.8130907645
 20
119.951261563
 30
0.0
 40
1.0
100
AcDbArc
 50
270.0
 51
324.3146652873
  0
ARC
  5
81
330
1F
100
AcDbEntity
  8
0
  6
CONTINUOUS
 62
     7
100
AcDbCircle
 10
94.8130907645
 20
101.451261563
 30
0.0
 40
1.000000000000001
100
AcDbArc
 50
35.6853347127
 51
90.0
  0
LINE
  5
82
330
1F
100
AcDbEntity
  8
0
  6
CONTINUOUS
 62
     7
100
AcDbLine
 10
94.1291161683
 20
102.451261563
 30
0.0
 11
94.8130907645
 21
102.451261563
 31
0.0
  0
LINE
  5
83
330
1F
100
AcDbEntity
  8
0
  6
CONTINUOUS
 62
     7
100
AcDbLine
 10
94.8130907645
 20
118.951261563
 30
0.0
 11
94.1291161683
 21
118.951261563
 31
0.0
  0
ARC
  5
84
330
1F
100
AcDbEntity
  8
0
  6
CONTINUOUS
 62
     7
100
AcDbCircle
 10
94.1291161683
 20
118.751261563
 30
0.0
 40
0.2000000000000028
100
AcDbArc
 50
90.0
 51
180.0
  0
ARC
  5
85
330
1F
100
AcDbEntity
  8
0
  6
CONTINUOUS
 62
     7
100
AcDbCircle
 10
94.1291161683
 20
102.651261563
 30
0.0
 40
0.2000000000000028
100
AcDbArc
 50
180.0
 51
270.0
  0
LINE
  5
86
330
1F
100
AcDbEntity
  8
0
  6
CONTINUOUS
 62
     7
100
AcDbLine
 10
170.2645152761
 20
111.2603624428
 30
0.0
 11
170.0479866567
 21
111.2612545271
 31
0.0
  0
LINE
  5
87
330
1F
100
AcDbEntity
  8
0
  6
CONTINUOUS
 62
     7
100
AcDbLine
 10
109.7447309073
 20
111.310621111
 30
0.0
 11
109.3118896392
 21
111.3102223299
 31
0.0
  0
LINE
  5
88
330
1F
100
AcDbEntity
  8
0
  6
CONTINUOUS
 62
     7
100
AcDbLine
 10
173.9291161683
 20
120.701261563
 30
0.0
 11
105.6791161683
 21
119.451261563
 31
0.0
  0
LINE
  5
89
330
1F
100
AcDbEntity
  8
0
  6
CONTINUOUS
 62
     7
100
AcDbLine
 10
105.6791161683
 20
101.951261563
 30
0.0
 11
173.9291161683
 21
100.701261563
 31
0.0
  0
LINE
  5
8A
330
1F
100
AcDbEntity
  8
0
  6
CONTINUOUS
 62
     7
100
AcDbLine
 10
93.9291161683
 20
118.701261563
 30
0.0
 11
86.9291161683
 21
118.701261563
 31
0.0
  0
LINE
  5
8B
330
1F
100
AcDbEntity
  8
0
  6
CONTINUOUS
 62
     7
100
AcDbLine
 10
86.9291161683
 20
102.701261563
 30
0.0
 11
93.9291161683
 21
102.701261563
 31
0.0
  0
LINE
  5
8C
330
1F
100
AcDbEntity
  8
0
  6
CONTINUOUS
 62
     7
100
AcDbLine
 10
71.9291161683
 20
102.701261563
 30
0.0
 11
86.9291161683
 21
102.701261563
 31
0.0
  0
LINE
  5
8D
330
1F
100
AcDbEntity
  8
0
  6
CONTINUOUS
 62
     7
100
AcDbLine
 10
86.9291161683
 20
118.701261563
 30
0.0
 11
71.9291161683
 21
118.701261563
 31
0.0
  0
LINE
  5
8E
330
1F
100
AcDbEntity
  8
0
  6
CONTINUOUS
 62
     7
100
AcDbLine
 10
173.9291161683
 20
100.8730880478
 30
0.0
 11
173.9291189707
 21
100.872807054
 31
0.0
  0
LINE
  5
8F
330
1F
100
AcDbEntity
  8
0
  6
CONTINUOUS
 62
     7
100
AcDbLine
 10
173.9291161683
 20
100.8730880478
 30
0.0
 11
173.9291161683
 21
102.5803866875
 31
0.0
  0
LINE
  5
90
330
1F
100
AcDbEntity
  8
0
  6
CONTINUOUS
 62
     7
100
AcDbLine
 10
173.9291189707
 20
102.581275479
 30
0.0
 11
173.9291161683
 21
102.5803866875
 31
0.0
  0
ELLIPSE
  5
91
330
1F
100
AcDbEntity
  8
0
  6
CONTINUOUS
 62
     7
100
AcDbEllipse
 10
174.1122663514
 20
110.701261563
 30
0.0
 11
0.1481412558001409
 21
9.999999872734378
 31
0.0
210
0.0
220
0.0
230
1.0
 40
0.0107694746
 41
2.50746027246487
 42
2.518524143005379
  0
LINE
  5
92
330
1F
100
AcDbEntity
  8
0
  6
CONTINUOUS
 62
     7
100
AcDbLine
 10
173.9291161683
 20
102.6472490606
 30
0.0
 11
173.9291189707
 21
102.6463464542
 31
0.0
  0
LINE
  5
93
330
1F
100
AcDbEntity
  8
0
  6
CONTINUOUS
 62
     7
100
AcDbLine
 10
173.9291161683
 20
102.6472490606
 30
0.0
 11
173.9291161683
 21
105.916472632
 31
0.0
  0
LINE
  5
94
330
1F
100
AcDbEntity
  8
0
  6
CONTINUOUS
 62
     7
100
AcDbLine
 10
173.9291189707
 20
105.917809991
 30
0.0
 11
173.9291161683
 21
105.916472632
 31
0.0
  0
ELLIPSE
  5
95
330
1F
100
AcDbEntity
  8
0
  6
CONTINUOUS
 62
     7
100
AcDbEllipse
 10
174.1122663514
 20
110.701261563
 30
0.0
 11
0.08674049617371794
 21
9.999999902113601
 31
0.0
210
0.0
220
0.0
230
1.0
 40
0.0161307397
 41
2.058641700440157
 42
2.069705570980665
  0
LINE
  5
96
330
1F
100
AcDbEntity
  8
0
  6
CONTINUOUS
 62
     7
100
AcDbLine
 10
173.9291161683
 20
106.0166060255
 30
0.0
 11
173.9291189707
 21
106.0152605788
 31
0.0
  0
LINE
  5
97
330
1F
100
AcDbEntity
  8
0
  6
CONTINUOUS
 62
     7
100
AcDbLine
 10
173.9291161683
 20
106.0166060255
 30
0.0
 11
173.9291161683
 21
110.2002447059
 31
0.0
  0
LINE
  5
98
330
1F
100
AcDbEntity
  8
0
  6
CONTINUOUS
 62
     7
100
AcDbLine
 10
173.9291189707
 20
110.2017657519
 30
0.0
 11
173.9291161683
 21
110.2002447059
 31
0.0
  0
ELLIPSE
  5
99
330
1F
100
AcDbEntity
  8
0
  6
CONTINUOUS
 62
     7
100
AcDbEllipse
 10
174.1122663514
 20
110.701261563
 30
0.0
 11
0.008138954597313841
 21
9.99999999889117
 31
0.0
210
0.0
220
0.0
230
1.0
 40
0.0182969252
 41
1.609717722874372
 42
1.620781593414875
  0
LINE
  5
9A
330
1F
100
AcDbEntity
  8
0
  6
CONTINUOUS
 62
     7
100
AcDbLine
 10
173.9291161683
 20
110.3138164731
 30
0.0
 11
173.9291189707
 21
110.3122946683
 31
0.0
  0
LINE
  5
9B
330
1F
100
AcDbEntity
  8
0
  6
CONTINUOUS
 62
     7
100
AcDbLine
 10
173.9291161683
 20
110.3138164731
 30
0.0
 11
173.9291161683
 21
114.5832493129
 31
0.0
  0
LINE
  5
9C
330
1F
100
AcDbEntity
  8
0
  6
CONTINUOUS
 62
     7
100
AcDbLine
 10
173.9291189707
 20
114.5846527842
 30
0.0
 11
173.9291161683
 21
114.5832493129
 31
0.0
  0
ELLIPSE
  5
9D
330
1F
100
AcDbEntity
  8
0
  6
CONTINUOUS
 62
     7
100
AcDbEllipse
 10
174.1122663514
 20
110.701261563
 30
0.0
 11
-0.07207737940609604
 21
9.999999926361765
 31
0.0
210
0.0
220
0.0
230
1.0
 40
0.0168371142
 41
1.160782523070271
 42
1.171846393610774
  0
LINE
  5
9E
330
1F
100
AcDbEntity
  8
0
  6
CONTINUOUS
 62
     7
100
AcDbLine
 10
173.9291161683
 20
114.6877651725
 30
0.0
 11
173.9291189707
 21
114.6863684217
 31
0.0
  0
LINE
  5
9F
330
1F
100
AcDbEntity
  8
0
  6
CONTINUOUS
 62
     7
100
AcDbLine
 10
173.9291161683
 20
114.6877651725
 30
0.0
 11
173.9291161683
 21
118.1973786366
 31
0.0
  0
LINE
  5
A0
330
1F
100
AcDbEntity
  8
0
  6
CONTINUOUS
 62
     7
100
AcDbLine
 10
173.9291189707
 20
118.1983865584
 30
0.0
 11
173.9291161683
 21
118.1973786366
 31
0.0
  0
ELLIPSE
  5
A1
330
1F
100
AcDbEntity
  8
0
  6
CONTINUOUS
 62
     7
100
AcDbEllipse
 10
174.1122663514
 20
110.701261563
 30
0.0
 11
-0.1379983718492497
 21
9.999999861930078
 31
0.0
210
0.0
220
0.0
230
1.0
 40
0.012041777
 41
0.7119387555015422
 42
0.7230026260420459
  0
LINE
  5
A2
330
1F
100
AcDbEntity
  8
0
  6
CONTINUOUS
 62
     7
100
AcDbLine
 10
173.9291161683
 20
118.2721379407
 30
0.0
 11
173.9291189707
 21
118.2711428875
 31
0.0
  0
LINE
  5
A3
330
1F
100
AcDbEntity
  8
0
  6
CONTINUOUS
 62
     7
100
AcDbLine
 10
173.9291161683
 20
118.2721379407
 30
0.0
 11
173.9291161683
 21
120.32681004
 31
0.0
  0
LINE
  5
A4
330
1F
100
AcDbEntity
  8
0
  6
CONTINUOUS
 62
     7
100
AcDbLine
 10
173.9291189707
 20
120.3272227811
 30
0.0
 11
173.9291161683
 21
120.32681004
 31
0.0
  0
ELLIPSE
  5
A5
330
1F
100
AcDbEntity
  8
0
  6
CONTINUOUS
 62
     7
100
AcDbEllipse
 10
174.1122663514
 20
110.701261563
 30
0.0
 11
-0.1765756437880555
 21
9.999999963130392
 31
0.0
210
0.0
220
0.0
230
1.0
 40
0.0048631591
 41
0.263220108007134
 42
0.2742839785476309
  0
LINE
  5
A6
330
1F
100
AcDbEntity
  8
0
  6
CONTINUOUS
 62
     7
100
AcDbLine
 10
173.9291161683
 20
120.3570057917
 30
0.0
 11
173.9291189707
 21
120.3566095186
 31
0.0
  0
LINE
  5
A7
330
1F
100
AcDbEntity
  8
0
  6
CONTINUOUS
 62
     7
100
AcDbLine
 10
173.9291161683
 20
120.3570057917
 30
0.0
 11
173.9291161683
 21
120.701261563
 31
0.0
  0
LINE
  5
A8
330
1F
100
AcDbEntity
  8
0
  6
CONTINUOUS
 62
     7
100
AcDbLine
 10
173.9291161683
 20
100.701261563
 30
0.0
 11
173.9291161683
 21
100.8527396081
 31
0.0
  0
LINE
  5
A9
330
1F
100
AcDbEntity
  8
0
  6
CONTINUOUS
 62
     7
100
AcDbLine
 10
173.9291189707
 20
100.8530037961
 30
0.0
 11
173.9291161683
 21
100.8527396081
 31
0.0
  0
ELLIPSE
  5
AA
330
1F
100
AcDbEntity
  8
0
  6
CONTINUOUS
 62
     7
100
AcDbEllipse
 10
174.1122663514
 20
110.701261563
 30
0.0
 11
0.1801943655669049
 21
9.999999982563892
 31
0.0
210
0.0
220
0.0
230
1.0
 40
0.0032771637
 41
2.956158735272706
 42
2.967222605813122
  0
ELLIPSE
  5
AB
330
1F
100
AcDbEntity
  8
0
  6
CONTINUOUS
 62
     7
100
AcDbEllipse
 10
105.839426353
 20
110.7036361427
 30
0.0
 11
0.1296670968646509
 21
8.752935802233296
 31
0.0
210
0.0
220
0.0
230
1.0
 40
0.0107694744
 41
2.506741614398994
 42
2.51299223449952
  0
ELLIPSE
  5
AC
330
1F
100
AcDbEntity
  8
0
  6
CONTINUOUS
 62
     7
100
AcDbEllipse
 10
105.839426353
 20
110.7036361427
 30
0.0
 11
0.1296670968646509
 21
8.752935802233296
 31
0.0
210
0.0
220
0.0
230
1.0
 40
0.0107694744
 41
2.51299223449952
 42
2.519242854599803
  0
LWPOLYLINE
  5
AD
330
1F
100
AcDbEntity
  8
0
  6
CONTINUOUS
 62
     7
100
AcDbPolyline
 90
        9
 70
   128
 43
0.0
 10
105.6791192999
 20
102.1025292226
 10
105.6791192953
 20
102.203617464
 10
105.6791192813
 20
102.3299735639
 10
105.6791192581
 20
102.4812218008
 10
105.6791192257
 20
102.6569124361
 10
105.6791191842
 20
102.8565230513
 10
105.6791191338
 20
103.0794601016
 10
105.6791190745
 20
103.3250606806
 10
105.6791192999
 20
103.5925944918
  0
ELLIPSE
  5
AE
330
1F
100
AcDbEntity
  8
0
  6
CONTINUOUS
 62
     7
100
AcDbEllipse
 10
105.839426353
 20
110.7041502312
 30
0.0
 11
0.1577229767339503
 21
8.752936052930224
 31
0.0
210
0.0
220
0.0
230
1.0
 40
0.0032771636
 41
2.955440060346683
 42
2.961690680447659
  0
ELLIPSE
  5
AF
330
1F
100
AcDbEntity
  8
0
  6
CONTINUOUS
 62
     7
100
AcDbEllipse
 10
105.839426353
 20
110.7041502312
 30
0.0
 11
0.1577229767339503
 21
8.752936052930224
 31
0.0
210
0.0
220
0.0
230
1.0
 40
0.0032771636
 41
2.961690680447659
 42
2.967941300547523
  0
LWPOLYLINE
  5
B0
330
1F
100
AcDbEntity
  8
0
  6
CONTINUOUS
 62
     7
100
AcDbPolyline
 90
        5
 70
   128
 43
0.0
 10
105.6791161683
 20
101.951261563
 10
105.6791191842
 20
101.951707641
 10
105.6791191338
 20
101.9695324735
 10
105.6791190745
 20
102.0133212194
 10
105.6791192999
 20
102.0829436724
  0
LWPOLYLINE
  5
B1
330
1F
100
AcDbEntity
  8
0
  6
CONTINUOUS
 62
     7
100
AcDbPolyline
 90
        6
 70
   128
 43
0.0
 10
105.6791192999
 20
119.1513303917
 10
105.6791192953
 20
119.2625753935
 10
105.6791192813
 20
119.348363214
 10
105.6791192581
 20
119.4084387619
 10
105.6791192257
 20
119.4426234017
 10
105.6791161683
 20
119.451261563
  0
ELLIPSE
  5
B2
330
1F
100
AcDbEntity
  8
0
  6
CONTINUOUS
 62
     7
100
AcDbEllipse
 10
105.839426353
 20
110.6984309425
 30
0.0
 11
-0.154555533019348
 21
8.752936016955585
 31
0.0
210
0.0
220
0.0
230
1.0
 40
0.0048631588
 41
0.2625014087734593
 42
0.2687520288735147
  0
ELLIPSE
  5
B3
330
1F
100
AcDbEntity
  8
0
  6
CONTINUOUS
 62
     7
100
AcDbEllipse
 10
105.839426353
 20
110.6984309425
 30
0.0
 11
-0.154555533019348
 21
8.752936016955585
 31
0.0
210
0.0
220
0.0
230
1.0
 40
0.0048631588
 41
0.2687520288735147
 42
0.2750026489742688
  0
LWPOLYLINE
  5
B4
330
1F
100
AcDbEntity
  8
0
  6
CONTINUOUS
 62
     7
100
AcDbPolyline
 90
        9
 70
   128
 43
0.0
 10
105.6791192999
 20
117.3290271152
 10
105.6791192953
 20
117.6305719233
 10
105.6791192813
 20
117.9115123342
 10
105.6791192581
 20
118.1710129679
 10
105.6791192257
 20
118.4083021957
 10
105.6791191842
 20
118.6226744349
 10
105.6791191338
 20
118.8134922468
 10
105.6791190745
 20
118.9801882321
 10
105.6791192999
 20
119.1222667181
  0
ELLIPSE
  5
B5
330
1F
100
AcDbEntity
  8
0
  6
CONTINUOUS
 62
     7
100
AcDbEllipse
 10
105.839426353
 20
110.6990496294
 30
0.0
 11
-0.1207890957872735
 21
8.752935750163305
 31
0.0
210
0.0
220
0.0
230
1.0
 40
0.0120417769
 41
0.7112200427924366
 42
0.7174706628927312
  0
ELLIPSE
  5
B6
330
1F
100
AcDbEntity
  8
0
  6
CONTINUOUS
 62
     7
100
AcDbEllipse
 10
105.839426353
 20
110.6990496294
 30
0.0
 11
-0.1207890957872735
 21
8.752935750163305
 31
0.0
210
0.0
220
0.0
230
1.0
 40
0.0120417769
 41
0.7174706628927312
 42
0.7237212829932481
  0
LWPOLYLINE
  5
B7
330
1F
100
AcDbEntity
  8
0
  6
CONTINUOUS
 62
     7
100
AcDbPolyline
 90
        9
 70
   128
 43
0.0
 10
105.6791192999
 20
114.1940135869
 10
105.6791192953
 20
114.6261335538
 10
105.6791192813
 20
115.0465828613
 10
105.6791192581
 20
115.4541112977
 10
105.6791192257
 20
115.8475070717
 10
105.6791191842
 20
116.2256004158
 10
105.6791191338
 20
116.5872670642
 10
105.6791190745
 20
116.9314315965
 10
105.6791192999
 20
117.2570706347
  0
ELLIPSE
  5
B8
330
1F
100
AcDbEntity
  8
0
  6
CONTINUOUS
 62
     7
100
AcDbEllipse
 10
105.839426353
 20
110.7001064168
 30
0.0
 11
-0.06308887250553141
 21
8.752935603297445
 31
0.0
210
0.0
220
0.0
230
1.0
 40
0.0168371148
 41
1.160063817874491
 42
1.166314437974853
  0
ELLIPSE
  5
B9
330
1F
100
AcDbEntity
  8
0
  6
CONTINUOUS
 62
     7
100
AcDbEllipse
 10
105.839426353
 20
110.7001064168
 30
0.0
 11
-0.06308887250553141
 21
8.752935603297445
 31
0.0
210
0.0
220
0.0
230
1.0
 40
0.0168371148
 41
1.166314437974853
 42
1.1725650580753
  0
LWPOLYLINE
  5
BA
330
1F
100
AcDbEntity
  8
0
  6
CONTINUOUS
 62
     7
100
AcDbPolyline
 90
        9
 70
   128
 43
0.0
 10
105.6791192999
 20
110.3672176844
 10
105.6791192953
 20
110.8443261511
 10
105.6791192813
 20
111.3210092133
 10
105.6791192581
 20
111.7958494476
 10
105.6791192257
 20
112.2674349101
 10
105.6791191842
 20
112.7343633352
 10
105.6791191338
 20
113.195246305
 10
105.6791190745
 20
113.6487133777
 10
105.6791192999
 20
114.0934161629
  0
ELLIPSE
  5
BB
330
1F
100
AcDbEntity
  8
0
  6
CONTINUOUS
 62
     7
100
AcDbEllipse
 10
105.839426353
 20
110.701391995
 30
0.0
 11
0.007123975338345189
 21
8.752935591530061
 31
0.0
210
0.0
220
0.0
230
1.0
 40
0.0182969262
 41
1.608999040543548
 42
1.615249660643956
  0
ELLIPSE
  5
BC
330
1F
100
AcDbEntity
  8
0
  6
CONTINUOUS
 62
     7
100
AcDbEllipse
 10
105.839426353
 20
110.701391995
 30
0.0
 11
0.007123975338345189
 21
8.752935591530061
 31
0.0
210
0.0
220
0.0
230
1.0
 40
0.0182969262
 41
1.615249660643956
 42
1.621500280744358
  0
LWPOLYLINE
  5
BD
330
1F
100
AcDbEntity
  8
0
  6
CONTINUOUS
 62
     7
100
AcDbPolyline
 90
        9
 70
   128
 43
0.0
 10
105.6791192999
 20
106.6065832689
 10
105.6791192953
 20
107.0341830522
 10
105.6791192813
 20
107.4726869425
 10
105.6791192581
 20
107.9207910428
 10
105.6791192257
 20
108.3771629093
 10
105.6791191842
 20
108.8404455144
 10
105.6791191338
 20
109.3092612809
 10
105.6791190745
 20
109.7822161789
 10
105.6791192999
 20
110.2579038706
  0
ELLIPSE
  5
BE
330
1F
100
AcDbEntity
  8
0
  6
CONTINUOUS
 62
     7
100
AcDbEllipse
 10
105.839426353
 20
110.7026517397
 30
0.0
 11
0.07592340520510275
 21
8.752935616246175
 31
0.0
210
0.0
220
0.0
230
1.0
 40
0.0161307402
 41
2.057923039089331
 42
2.064173659189785
  0
ELLIPSE
  5
BF
330
1F
100
AcDbEntity
  8
0
  6
CONTINUOUS
 62
     7
100
AcDbEllipse
 10
105.839426353
 20
110.7026517397
 30
0.0
 11
0.07592340520510275
 21
8.752935616246175
 31
0.0
210
0.0
220
0.0
230
1.0
 40
0.0161307402
 41
2.064173659189785
 42
2.070424279290136
  0
LWPOLYLINE
  5
C0
330
1F
100
AcDbEntity
  8
0
  6
CONTINUOUS
 62
     7
100
AcDbPolyline
 90
        9
 70
   128
 43
0.0
 10
105.6791192999
 20
103.6569501075
 10
105.6791192953
 20
103.9503498261
 10
105.6791192813
 20
104.2638234712
 10
105.6791192581
 20
104.5964389247
 10
105.6791192257
 20
104.9472071501
 10
105.6791191842
 20
105.3150851334
 10
105.6791191338
 20
105.6989789844
 10
105.6791190745
 20
106.0977471897
 10
105.6791192999
 20
106.5102040067
  0
SPLINE
  5
C1
330
1F
100
AcDbEntity
  8
0
  6
CONTINUOUS
 62
     7
100
AcDbSpline
210
0.0
220
0.0
230
1.0
 70
     8
 71
     3
 72
    14
 73
    10
 74
     0
 42
0.00000001
 43
0.00000001
 40
0.0
 40
0.0
 40
0.0
 40
0.0
 40
0.4393330213530294
 40
0.6862242526177197
 40
0.7797758228741076
 40
0.8877620801215654
 40
0.9315133799726077
 40
0.9756933690860093
 40
1.0
 40
1.0
 40
1.0
 40
1.0
 10
169.9871555180153
 20
106.9053582904186
 30
0.0
 10
170.6136590629243
 20
106.9023433951009
 30
0.0
 10
171.5922377400824
 20
106.897634224186
 30
0.0
 10
172.7044937693137
 20
106.7678204006078
 30
0.0
 10
173.3158644863295
 20
106.5911185978222
 30
0.0
 10
173.6341235959192
 20
106.4415834117807
 30
0.0
 10
173.8347464938701
 20
106.2636303240905
 30
0.0
 10
173.9173608702554
 20
106.1341420506537
 30
0.0
 10
173.9260369390397
 20
106.0473938764935
 30
0.0
 10
173.929116168262
 20
106.0166060255099
 30
0.0
  0
LWPOLYLINE
  5
C2
330
1F
100
AcDbEntity
  8
0
  6
CONTINUOUS
 62
     7
100
AcDbPolyline
 90
        3
 70
   128
 43
0.0
 10
109.7984224206
 20
107.4303069055
 10
122.8423236792
 20
107.31647921
 10
169.987155518
 20
106.9053582904
  0
SPLINE
  5
C3
330
1F
100
AcDbEntity
  8
0
  6
CONTINUOUS
 62
     7
100
AcDbSpline
210
0.0
220
0.0
230
1.0
 70
     8
 71
     3
 72
    14
 73
    10
 74
     0
 42
0.00000001
 43
0.00000001
 40
0.0
 40
0.0
 40
0.0
 40
0.0
 40
0.0308499065074137
 40
0.0688165367071678
 40
0.1296992433581886
 40
0.2526299003951532
 40
0.457371385913327
 40
0.6632003120895825
 40
1.0
 40
1.0
 40
1.0
 40
1.0
 10
105.6791192999314
 20
106.6065832689195
 30
0.0
 10
105.6843226231432
 20
106.6472987019119
 30
0.0
 10
105.695929617243
 20
106.7381221567059
 30
0.0
 10
105.802705580929
 20
106.8871155982137
 30
0.0
 10
106.0577329052963
 20
107.0782341909136
 30
0.0
 10
106.6000567002842
 20
107.2768423920331
 30
0.0
 10
107.3826068945936
 20
107.4023759679567
 30
0.0
 10
108.492612253167
 20
107.4428239058661
 30
0.0
 10
109.2983288303952
 20
107.4351006127323
 30
0.0
 10
109.7984224205784
 20
107.4303069054902
 30
0.0
  0
SPLINE
  5
C4
330
1F
100
AcDbEntity
  8
0
  6
CONTINUOUS
 62
     7
100
AcDbSpline
210
0.0
220
0.0
230
1.0
 70
     8
 71
     3
 72
    15
 73
    11
 74
     0
 42
0.00000001
 43
0.00000001
 40
0.0
 40
0.0
 40
0.0
 40
0.0
 40
0.4220208280464762
 40
0.5757675349065484
 40
0.729107067723834
 40
0.810751677544095
 40
0.9187236235585982
 40
0.9553715006280868
 40
0.9923845056503445
 40
1.0
 40
1.0
 40
1.0
 40
1.0
 10
109.7984224205473
 20
109.3127137778422
 30
0.0
 10
109.1712905601514
 20
109.3105291733938
 30
0.0
 10
108.3156878473826
 20
109.307548694151
 30
0.0
 10
107.2361110703551
 20
109.3948639088681
 30
0.0
 10
106.6657982223866
 20
109.5044425792561
 30
0.0
 10
106.1861959250904
 20
109.6721571347824
 30
0.0
 10
105.8861658078977
 20
109.8463078190905
 30
0.0
 10
105.7209154979253
 20
110.0622446455537
 30
0.0
 10
105.6813255927322
 20
110.1804122221952
 30
0.0
 10
105.6794409064771
 20
110.2466080800802
 30
0.0
 10
105.6791192999314
 20
110.2579038706353
 30
0.0
  0
LWPOLYLINE
  5
C5
330
1F
100
AcDbEntity
  8
0
  6
CONTINUOUS
 62
     7
100
AcDbPolyline
 90
        3
 70
   128
 43
0.0
 10
169.987155518
 20
109.2634609552
 10
154.3099430856
 20
109.2762834574
 10
109.7984224205
 20
109.3127137778
  0
SPLINE
  5
C6
330
1F
100
AcDbEntity
  8
0
  6
CONTINUOUS
 62
     7
100
AcDbSpline
210
0.0
220
0.0
230
1.0
 70
     8
 71
     3
 72
    14
 73
    10
 74
     0
 42
0.00000001
 43
0.00000001
 40
0.0
 40
0.0
 40
0.0
 40
0.0
 40
0.0324876077236421
 40
0.0725202418832806
 40
0.1366529854316153
 40
0.2657907900913782
 40
0.4813797232738116
 40
0.6981231342772889
 40
1.0
 40
1.0
 40
1.0
 40
1.0
 10
173.929116168262
 20
110.2002447059174
 30
0.0
 10
173.9236822787871
 20
110.1538005495986
 30
0.0
 10
173.9115525158806
 20
110.0501258968218
 30
0.0
 10
173.8030373547396
 20
109.8817084311471
 30
0.0
 10
173.544886008329
 20
109.6676947121768
 30
0.0
 10
172.9963545777855
 20
109.4476346903735
 30
0.0
 10
172.2049692146962
 20
109.308444304144
 30
0.0
 10
171.1574949681296
 20
109.2634076578503
 30
0.0
 10
170.4177461767175
 20
109.2634413460894
 30
0.0
 10
169.9871555180118
 20
109.2634609552341
 30
0.0
  0
SPLINE
  5
C7
330
1F
100
AcDbEntity
  8
0
  6
CONTINUOUS
 62
     7
100
AcDbSpline
210
0.0
220
0.0
230
1.0
 70
     8
 71
     3
 72
    14
 73
    10
 74
     0
 42
0.00000001
 43
0.00000001
 40
0.0
 40
0.0
 40
0.0
 40
0.0
 40
0.4393330213527497
 40
0.6862242526173017
 40
0.7797758228735051
 40
0.8877620801208806
 40
0.9315133799718386
 40
0.9756933690851508
 40
1.0
 40
1.0
 40
1.0
 40
1.0
 10
169.9871555180152
 20
111.2614865052797
 30
0.0
 10
170.6136590629242
 20
111.2636100457315
 30
0.0
 10
171.5922377400824
 20
111.2669269486016
 30
0.0
 10
172.7044937693135
 20
111.1361447683462
 30
0.0
 10
173.3158644863292
 20
110.9483812097358
 30
0.0
 10
173.6341235959187
 20
110.786717115963
 30
0.0
 10
173.8347464938696
 20
110.5906499312555
 30
0.0
 10
173.9173608702557
 20
110.4464385393489
 30
0.0
 10
173.9260369390397
 20
110.3485560213315
 30
0.0
 10
173.929116168262
 20
110.3138164731178
 30
0.0
  0
LWPOLYLINE
  5
C8
330
1F
100
AcDbEntity
  8
0
  6
CONTINUOUS
 62
     7
100
AcDbPolyline
 90
        3
 70
   128
 43
0.0
 10
109.7984224206
 20
111.3107393279
 10
122.8423236792
 20
111.3000595487
 10
169.987155518
 20
111.2614865053
  0
SPLINE
  5
C9
330
1F
100
AcDbEntity
  8
0
  6
CONTINUOUS
 62
     7
100
AcDbSpline
210
0.0
220
0.0
230
1.0
 70
     8
 71
     3
 72
    14
 73
    10
 74
     0
 42
0.00000001
 43
0.00000001
 40
0.0
 40
0.0
 40
0.0
 40
0.0
 40
0.0308499065074156
 40
0.0688165367071692
 40
0.1296992433581904
 40
0.252629900395156
 40
0.4573713859133307
 40
0.6632003120895882
 40
1.0
 40
1.0
 40
1.0
 40
1.0
 10
105.6791192999314
 20
110.3672176844295
 30
0.0
 10
105.6843226231432
 20
110.4131925604789
 30
0.0
 10
105.695929617243
 20
110.5157481952747
 30
0.0
 10
105.802705580929
 20
110.682990967464
 30
0.0
 10
106.0577329052963
 20
110.8965899233279
 30
0.0
 10
106.6000567002842
 20
111.1178864355878
 30
0.0
 10
107.3826068945937
 20
111.2604194037138
 30
0.0
 10
108.4926122531671
 20
111.3128513256794
 30
0.0
 10
109.2983288303953
 20
111.3115481717645
 30
0.0
 10
109.7984224205784
 20
111.3107393278878
 30
0.0
  0
SPLINE
  5
CA
330
1F
100
AcDbEntity
  8
0
  6
CONTINUOUS
 62
     7
100
AcDbSpline
210
0.0
220
0.0
230
1.0
 70
     8
 71
     3
 72
    15
 73
    11
 74
     0
 42
0.00000001
 43
0.00000001
 40
0.0
 40
0.0
 40
0.0
 40
0.0
 40
0.4220208280299104
 40
0.5757675349191165
 40
0.729107067765164
 40
0.810751677573977
 40
0.9187236235674622
 40
0.9553715006344979
 40
0.9923845056542715
 40
0.9999999999999999
 40
0.9999999999999999
 40
0.9999999999999999
 40
0.9999999999999999
 10
109.7984224207213
 20
113.2317488443945
 30
0.0
 10
109.1712905603257
 20
113.2245601353197
 30
0.0
 10
108.3156878475051
 20
113.2147525025482
 30
0.0
 10
107.2361110703728
 20
113.2908494686427
 30
0.0
 10
106.6657982223134
 20
113.3918627855483
 30
0.0
 10
106.1861959250101
 20
113.5484597953992
 30
0.0
 10
105.8861658078626
 20
113.7114587318726
 30
0.0
 10
105.7209154979153
 20
113.9123833202914
 30
0.0
 10
105.6813255927309
 20
114.0218696730924
 30
0.0
 10
105.6794409064769
 20
114.0829869853473
 30
0.0
 10
105.6791192999314
 20
114.0934161629473
 30
0.0
  0
LWPOLYLINE
  5
CB
330
1F
100
AcDbEntity
  8
0
  6
CONTINUOUS
 62
     7
100
AcDbPolyline
 90
        3
 70
   128
 43
0.0
 10
169.987155518
 20
113.6679469398
 10
154.3099430856
 20
113.5543869301
 10
109.7984224207
 20
113.2317488444
  0
SPLINE
  5
CC
330
1F
100
AcDbEntity
  8
0
  6
CONTINUOUS
 62
     7
100
AcDbSpline
210
0.0
220
0.0
230
1.0
 70
     8
 71
     3
 72
    14
 73
    10
 74
     0
 42
0.00000001
 43
0.00000001
 40
0.0
 40
0.0
 40
0.0
 40
0.0
 40
0.0324876077238382
 40
0.0725202418839067
 40
0.1366529854333403
 40
0.265790790096089
 40
0.4813797232860825
 40
0.6981231342971816
 40
1.0
 40
1.0
 40
1.0
 40
1.0
 10
173.929116168262
 20
114.5832493129167
 30
0.0
 10
173.9236822787866
 20
114.5402635951544
 30
0.0
 10
173.9115525158791
 20
114.4443090183763
 30
0.0
 10
173.8030373547352
 20
114.2863103817092
 30
0.0
 10
173.544886008318
 20
114.0829967051072
 30
0.0
 10
172.9963545777574
 20
113.8691714776648
 30
0.0
 10
172.2049692146421
 20
113.7294315950934
 30
0.0
 10
171.1574949680828
 20
113.6771821058303
 30
0.0
 10
170.4177461766888
 20
113.6713447371084
 30
0.0
 10
169.9871555180118
 20
113.6679469398126
 30
0.0
  0
LINE
  5
CD
330
1F
100
AcDbEntity
  8
0
  6
CONTINUOUS
 62
     7
100
AcDbLine
 10
93.9291161683
 20
102.651261563
 30
0.0
 11
93.9291161683
 21
118.751261563
 31
0.0
  0
LINE
  5
CE
330
1F
100
AcDbEntity
  8
0
  6
CONTINUOUS
 62
     7
100
AcDbLine
 10
169.987155518
 20
109.2634609552
 30
0.0
 11
169.5722424285
 21
109.2642213663
 31
0.0
  0
ARC
  5
CF
330
1F
100
AcDbEntity
  8
0
  6
CONTINUOUS
 62
     7
100
AcDbCircle
 10
154.5757881911
 20
110.0179685136
 30
0.0
 40
15.01538459231452
100
AcDbArc
 50
357.1226385768
 51
0.866511702
  0
SPLINE
  5
D0
330
1F
100
AcDbEntity
  8
0
  6
CONTINUOUS
 62
     7
100
AcDbSpline
210
0.0
220
0.0
230
1.0
 70
     8
 71
     3
 72
    10
 73
     6
 74
     0
 42
0.00000001
 43
0.00000001
 40
0.0
 40
0.0
 40
0.0
 40
0.0
 40
0.3686341043257589
 40
0.7479587163000655
 40
1.0
 40
1.0
 40
1.0
 40
1.0
 10
169.5894556589393
 20
110.2450447589608
 30
0.0
 10
170.1427108072116
 20
110.2437508242487
 30
0.0
 10
171.2652656810885
 20
110.2411254303014
 30
0.0
 10
172.725071367019
 20
110.2245185420628
 30
0.0
 10
173.5855970809353
 20
110.2082572572724
 30
0.0
 10
173.9291189706639
 20
110.2017657519167
 30
0.0
  0
LINE
  5
D1
330
1F
100
AcDbEntity
  8
0
  6
CONTINUOUS
 62
     7
100
AcDbLine
 10
169.5894556589
 20
110.245044759
 30
0.0
 11
169.5894556589
 21
110.364926292
 31
0.0
  0
SPLINE
  5
D2
330
1F
100
AcDbEntity
  8
0
  6
CONTINUOUS
 62
     7
100
AcDbSpline
210
0.0
220
0.0
230
1.0
 70
     8
 71
     3
 72
    11
 73
     7
 74
     0
 42
0.00000001
 43
0.00000001
 40
0.0
 40
0.0
 40
0.0
 40
0.0
 40
0.2519200500998879
 40
0.557162300169696
 40
0.868380933658962
 40
1.0
 40
1.0
 40
1.0
 40
1.0
 10
173.9291189706639
 20
110.3122946682863
 30
0.0
 10
173.5856979824901
 20
110.3199926285859
 30
0.0
 10
172.8261664262616
 20
110.337017923974
 30
0.0
 10
171.5666719432299
 20
110.3543737068469
 30
0.0
 10
170.4521920751131
 20
110.3629902777827
 30
0.0
 10
169.7871251238705
 20
110.3644827139715
 30
0.0
 10
169.5894556589393
 20
110.3649262919636
 30
0.0
  0
LINE
  5
D3
330
1F
100
AcDbEntity
  8
0
  6
CONTINUOUS
 62
     7
100
AcDbLine
 10
169.5722424285
 20
111.2622469163
 30
0.0
 11
169.987155518
 21
111.2614865053
 31
0.0
  0
LINE
  5
D4
330
1F
100
AcDbEntity
  8
0
  6
CONTINUOUS
 62
     7
100
AcDbLine
 10
169.5722424285
 20
111.2622469163
 30
0.0
 11
169.5730072338
 21
111.2631745967
 31
0.0
  0
SPLINE
  5
D5
330
1F
100
AcDbEntity
  8
0
  6
CONTINUOUS
 62
     7
100
AcDbSpline
210
0.0
220
0.0
230
1.0
 70
     8
 71
     3
 72
    10
 73
     6
 74
     0
 42
0.00000001
 43
0.00000001
 40
0.0
 40
0.0
 40
0.0
 40
0.0
 40
0.368634104325759
 40
0.7479587163000783
 40
1.0
 40
1.0
 40
1.0
 40
1.0
 10
169.5894556589393
 20
114.1556423786339
 30
0.0
 10
170.1427108072116
 20
114.1707643937459
 30
0.0
 10
171.2652656810886
 20
114.2014469672743
 30
0.0
 10
172.725071367019
 20
114.3631398521789
 30
0.0
 10
173.5855970809353
 20
114.5214538369162
 30
0.0
 10
173.9291189706639
 20
114.5846527841735
 30
0.0
  0
LINE
  5
D6
330
1F
100
AcDbEntity
  8
0
  6
CONTINUOUS
 62
     7
100
AcDbLine
 10
169.5894556589
 20
114.1556423786
 30
0.0
 11
169.5894556589
 21
114.2659648802
 31
0.0
  0
SPLINE
  5
D7
330
1F
100
AcDbEntity
  8
0
  6
CONTINUOUS
 62
     7
100
AcDbSpline
210
0.0
220
0.0
230
1.0
 70
     8
 71
     3
 72
    11
 73
     7
 74
     0
 42
0.00000001
 43
0.00000001
 40
0.0
 40
0.0
 40
0.0
 40
0.0
 40
0.2519200500998889
 40
0.5571623001697055
 40
0.8683809336589734
 40
1.0
 40
1.0
 40
1.0
 40
1.0
 10
173.9291189706639
 20
114.6863684216557
 30
0.0
 10
173.5856979824901
 20
114.6239182399552
 30
0.0
 10
172.8261664262616
 20
114.4857994722411
 30
0.0
 10
171.5666719432299
 20
114.3452632613945
 30
0.0
 10
170.4521920751131
 20
114.277767219893
 30
0.0
 10
169.7871251238705
 20
114.2686690226738
 30
0.0
 10
169.5894556589393
 20
114.265964880222
 30
0.0
  0
LINE
  5
D8
330
1F
100
AcDbEntity
  8
0
  6
CONTINUOUS
 62
     7
100
AcDbLine
 10
169.5894556589
 20
110.364926292
 30
0.0
 11
110.0553868332
 21
110.4133645788
 31
0.0
  0
LINE
  5
D9
330
1F
100
AcDbEntity
  8
0
  6
CONTINUOUS
 62
     7
100
AcDbLine
 10
110.0381736028
 20
109.3126596531
 30
0.0
 11
109.7984224205
 21
109.3127137778
 31
0.0
  0
LINE
  5
DA
330
1F
100
AcDbEntity
  8
0
  6
CONTINUOUS
 62
     7
100
AcDbLine
 10
169.5722424285
 20
109.2642213663
 30
0.0
 11
110.0381736028
 21
109.3126596531
 31
0.0
  0
SPLINE
  5
DB
330
1F
100
AcDbEntity
  8
0
  6
CONTINUOUS
 62
     7
100
AcDbSpline
210
0.0
220
0.0
230
1.0
 70
     8
 71
     3
 72
    10
 73
     6
 74
     0
 42
0.00000001
 43
0.00000001
 40
0.0
 40
0.0
 40
0.0
 40
0.0
 40
0.3686390953869199
 40
0.7479688599806306
 40
0.9999999999999999
 40
0.9999999999999999
 40
0.9999999999999999
 40
0.9999999999999999
 10
110.0553868332231
 20
110.4133645787972
 30
0.0
 10
109.501122079854
 20
110.4121927967954
 30
0.0
 10
108.3765186916273
 20
110.4098152506832
 30
0.0
 10
106.9027773969981
 20
110.3924475427566
 30
0.0
 10
106.0282281096286
 20
110.3744157455796
 30
0.0
 10
105.6791192999314
 20
110.3672176844295
 30
0.0
  0
LINE
  5
DC
330
1F
100
AcDbEntity
  8
0
  6
CONTINUOUS
 62
     7
100
AcDbLine
 10
109.7984224206
 20
111.3107393279
 30
0.0
 11
110.0381736028
 21
111.3106852031
 31
0.0
  0
LINE
  5
DD
330
1F
100
AcDbEntity
  8
0
  6
CONTINUOUS
 62
     7
100
AcDbLine
 10
110.0553868332
 20
110.2934830458
 30
0.0
 11
169.5894556589
 21
110.245044759
 31
0.0
  0
ARC
  5
DE
330
1F
100
AcDbEntity
  8
0
  6
CONTINUOUS
 62
     7
100
AcDbCircle
 10
95.0417193654
 20
110.0664068004
 30
0.0
 40
15.01538459229375
100
AcDbArc
 50
357.1226385768
 51
0.866511702
  0
SPLINE
  5
DF
330
1F
100
AcDbEntity
  8
0
  6
CONTINUOUS
 62
     7
100
AcDbSpline
210
0.0
220
0.0
230
1.0
 70
     8
 71
     3
 72
    11
 73
     7
 74
     0
 42
0.00000001
 43
0.00000001
 40
0.0
 40
0.0
 40
0.0
 40
0.0
 40
0.2519200500998945
 40
0.5571623001696963
 40
0.8683809336589559
 40
1.0
 40
1.0
 40
1.0
 40
1.0
 10
173.929118970664
 20
106.0152605787806
 30
0.0
 10
173.5856979824901
 20
106.0915820056337
 30
0.0
 10
172.8261664262617
 20
106.2603792955709
 30
0.0
 10
171.56667194323
 20
106.4321895465104
 30
0.0
 10
170.4521920751131
 20
106.5152121123345
 30
0.0
 10
169.7871251238705
 20
106.5269995866404
 30
0.0
 10
169.5894556589393
 20
106.530503029015
 30
0.0
  0
LINE
  5
E0
330
1F
100
AcDbEntity
  8
0
  6
CONTINUOUS
 62
     7
100
AcDbLine
 10
169.5722424285
 20
115.4999208664
 30
0.0
 11
169.987155518
 21
115.5066552996
 31
0.0
  0
SPLINE
  5
E1
330
1F
100
AcDbEntity
  8
0
  6
CONTINUOUS
 62
     7
100
AcDbSpline
210
0.0
220
0.0
230
1.0
 70
     8
 71
     3
 72
    14
 73
    10
 74
     0
 42
0.00000001
 43
0.00000001
 40
0.0
 40
0.0
 40
0.0
 40
0.0
 40
0.4393330213529217
 40
0.6862242526175837
 40
0.7797758228739007
 40
0.887762080121324
 40
0.9315133799723349
 40
0.9756933690857076
 40
1.0
 40
1.0
 40
1.0
 40
1.0
 10
169.9871555180152
 20
115.5066552996139
 30
0.0
 10
170.6136590629242
 20
115.5134966826053
 30
0.0
 10
171.5922377400823
 20
115.5241827059678
 30
0.0
 10
172.7044937693136
 20
115.4183351837731
 30
0.0
 10
173.3158644863294
 20
115.2566987448892
 30
0.0
 10
173.6341235959191
 20
115.1149252998366
 30
0.0
 10
173.8347464938699
 20
114.939577528649
 30
0.0
 10
173.9173608702556
 20
114.8092058530774
 30
0.0
 10
173.9260369390397
 20
114.7195758243484
 30
0.0
 10
173.929116168262
 20
114.6877651724827
 30
0.0
  0
ARC
  5
E2
330
1F
100
AcDbEntity
  8
0
  6
CONTINUOUS
 62
     7
100
AcDbCircle
 10
133.4594468343
 20
114.3790626477
 30
0.0
 40
36.13018583914893
100
AcDbArc
 50
359.8206476058
 51
1.7777586641
  0
SPLINE
  5
E3
330
1F
100
AcDbEntity
  8
0
  6
CONTINUOUS
 62
     7
100
AcDbSpline
210
0.0
220
0.0
230
1.0
 70
     8
 71
     3
 72
    14
 73
    10
 74
     0
 42
0.00000001
 43
0.00000001
 40
0.0
 40
0.0
 40
0.0
 40
0.0
 40
0.4393330213526306
 40
0.6862242526171227
 40
0.7797758228732533
 40
0.8877620801206063
 40
0.9315133799715205
 40
0.975693369084789
 40
1.0
 40
1.0
 40
1.0
 40
1.0
 10
169.9871555180152
 20
103.3010552723905
 30
0.0
 10
170.6136590629242
 20
103.2934990782962
 30
0.0
 10
171.5922377400824
 20
103.2816965426501
 30
0.0
 10
172.7044937693134
 20
103.1785622955709
 30
0.0
 10
173.315864486329
 20
103.0479202077574
 30
0.0
 10
173.6341235959186
 20
102.9401312069718
 30
0.0
 10
173.8347464938693
 20
102.8155380077678
 30
0.0
 10
173.9173608702559
 20
102.7264195934231
 30
0.0
 10
173.9260369390397
 20
102.6679873029067
 30
0.0
 10
173.929116168262
 20
102.6472490606264
 30
0.0
  0
LWPOLYLINE
  5
E4
330
1F
100
AcDbEntity
  8
0
  6
CONTINUOUS
 62
     7
100
AcDbPolyline
 90
        4
 70
   128
 43
0.0
 10
109.7984224206
 20
104.1977271686
 10
109.9466532572
 20
104.1955172855
 10
127.2825220898
 20
103.9371261901
 10
169.987155518
 20
103.3010552724
  0
SPLINE
  5
E5
330
1F
100
AcDbEntity
  8
0
  6
CONTINUOUS
 62
     7
100
AcDbSpline
210
0.0
220
0.0
230
1.0
 70
     8
 71
     3
 72
    14
 73
    10
 74
     0
 42
0.00000001
 43
0.00000001
 40
0.0
 40
0.0
 40
0.0
 40
0.0
 40
0.0308499065070478
 40
0.0688165367063491
 40
0.1296992433566416
 40
0.2526299003921321
 40
0.4573713859078519
 40
0.6632003120816413
 40
1.0
 40
1.0
 40
1.0
 40
1.0
 10
105.6791192999314
 20
103.6569501074854
 30
0.0
 10
105.6843226231432
 20
103.6843419065748
 30
0.0
 10
105.6959296172429
 20
103.7454444822684
 30
0.0
 10
105.802705580929
 20
103.8466786147195
 30
0.0
 10
106.0577329052963
 20
103.9774634630555
 30
0.0
 10
106.6000567002842
 20
104.1140465630332
 30
0.0
 10
107.3826068945936
 20
104.1977172824742
 30
0.0
 10
108.4926122531847
 20
104.2181700261635
 30
0.0
 10
109.2983288304307
 20
104.2055562867352
 30
0.0
 10
109.7984224206316
 20
104.1977271686376
 30
0.0
  0
SPLINE
  5
E6
330
1F
100
AcDbEntity
  8
0
  6
CONTINUOUS
 62
     7
100
AcDbSpline
210
0.0
220
0.0
230
1.0
 70
     8
 71
     3
 72
    15
 73
    11
 74
     0
 42
0.00000001
 43
0.00000001
 40
0.0
 40
0.0
 40
0.0
 40
0.0
 40
0.422020828029913
 40
0.575767534919113
 40
0.7291070677651541
 40
0.8107516775739709
 40
0.918723623567459
 40
0.9553715006344957
 40
0.9923845056542725
 40
1.0
 40
1.0
 40
1.0
 40
1.0
 10
109.7984224207213
 20
105.6686976295608
 30
0.0
 10
109.1712905603257
 20
105.6719498174419
 30
0.0
 10
108.315687847505
 20
105.6763868121943
 30
0.0
 10
107.2361110703728
 20
105.7576264263927
 30
0.0
 10
106.6657982223134
 20
105.8540670507402
 30
0.0
 10
106.1861959250102
 20
105.9996812273819
 30
0.0
 10
105.8861658078626
 20
106.1504909806711
 30
0.0
 10
105.7209154979153
 20
106.338671108378
 30
0.0
 10
105.6813255927308
 20
106.4421153710643
 30
0.0
 10
105.6794409064769
 20
106.5002788730737
 30
0.0
 10
105.6791192999314
 20
106.510204006721
 30
0.0
  0
LWPOLYLINE
  5
E7
330
1F
100
AcDbEntity
  8
0
  6
CONTINUOUS
 62
     7
100
AcDbPolyline
 90
        3
 70
   128
 43
0.0
 10
169.987155518
 20
105.1437490145
 10
154.3099430856
 20
105.2804143747
 10
109.7984224207
 20
105.6686976296
  0
SPLINE
  5
E8
330
1F
100
AcDbEntity
  8
0
  6
CONTINUOUS
 62
     7
100
AcDbSpline
210
0.0
220
0.0
230
1.0
 70
     8
 71
     3
 72
    14
 73
    10
 74
     0
 42
0.00000001
 43
0.00000001
 40
0.0
 40
0.0
 40
0.0
 40
0.0
 40
0.0324876077240695
 40
0.0725202418846461
 40
0.1366529854353771
 40
0.2657907901016657
 40
0.4813797233006123
 40
0.6981231343207279
 40
1.0
 40
1.0
 40
1.0
 40
1.0
 10
173.929116168262
 20
105.9164726320222
 30
0.0
 10
173.9236822787861
 20
105.8757688719056
 30
0.0
 10
173.9115525158773
 20
105.7849081795966
 30
0.0
 10
173.80303735473
 20
105.6394290294932
 30
0.0
 10
173.5448860083049
 20
105.4571033098984
 30
0.0
 10
172.9963545777243
 20
105.2743940799067
 30
0.0
 10
172.204969214578
 20
105.1633215530756
 30
0.0
 10
171.1574949680274
 20
105.1344178099071
 30
0.0
 10
170.4177461766548
 20
105.1403158827377
 30
0.0
 10
169.9871555180118
 20
105.1437490144905
 30
0.0
  0
LINE
  5
E9
330
1F
100
AcDbEntity
  8
0
  6
CONTINUOUS
 62
     7
100
AcDbLine
 10
169.987155518
 20
105.1437490145
 30
0.0
 11
169.5722424285
 21
105.1518536611
 31
0.0
  0
ARC
  5
EA
330
1F
100
AcDbEntity
  8
0
  6
CONTINUOUS
 62
     7
100
AcDbCircle
 10
127.7563435768
 20
106.3538929414
 30
0.0
 40
41.83317218675234
100
AcDbArc
 50
358.3534297109
 51
0.0971250272
  0
SPLINE
  5
EB
330
1F
100
AcDbEntity
  8
0
  6
CONTINUOUS
 62
     7
100
AcDbSpline
210
0.0
220
0.0
230
1.0
 70
     8
 71
     3
 72
    10
 73
     6
 74
     0
 42
0.00000001
 43
0.00000001
 40
0.0
 40
0.0
 40
0.0
 40
0.0
 40
0.3686341043257629
 40
0.7479587163000743
 40
1.0
 40
1.0
 40
1.0
 40
1.0
 10
169.5894556589393
 20
106.4248064724593
 30
0.0
 10
170.1427108072116
 20
106.4073528675619
 30
0.0
 10
171.2652656810886
 20
106.3719394976085
 30
0.0
 10
172.7250713670191
 20
106.1803220341123
 30
0.0
 10
173.5855970809353
 20
105.9927062266787
 30
0.0
 10
173.929118970664
 20
105.9178099909587
 30
0.0
  0
SPLINE
  5
EC
330
1F
100
AcDbEntity
  8
0
  6
CONTINUOUS
 62
     7
100
AcDbSpline
210
0.0
220
0.0
230
1.0
 70
     8
 71
     3
 72
    11
 73
     7
 74
     0
 42
0.00000001
 43
0.00000001
 40
0.0
 40
0.0
 40
0.0
 40
0.0
 40
0.2519047421028431
 40
0.5571741213542867
 40
0.8684213189949429
 40
1.0
 40
1.0
 40
1.0
 40
1.0
 10
105.6791192999314
 20
110.2579038706353
 30
0.0
 10
106.0281504800886
 20
110.2637634264571
 30
0.0
 10
106.8001531804187
 20
110.2767238528441
 30
0.0
 10
108.0720535936188
 20
110.2891734975348
 30
0.0
 10
109.1921659300795
 20
110.294084227852
 30
0.0
 10
109.857649078633
 20
110.2936207583889
 30
0.0
 10
110.0553868332231
 20
110.2934830457945
 30
0.0
  0
LWPOLYLINE
  5
ED
330
1F
100
AcDbEntity
  8
0
  6
CONTINUOUS
 62
     7
100
AcDbPolyline
 90
        3
 70
   128
 43
0.0
 10
109.7984224206
 20
115.0704572042
 10
122.8423236792
 20
115.1650406026
 10
169.987155518
 20
115.5066552996
  0
SPLINE
  5
EE
330
1F
100
AcDbEntity
  8
0
  6
CONTINUOUS
 62
     7
100
AcDbSpline
210
0.0
220
0.0
230
1.0
 70
     8
 71
     3
 72
    14
 73
    10
 74
     0
 42
0.00000001
 43
0.00000001
 40
0.0
 40
0.0
 40
0.0
 40
0.0
 40
0.0308499065074137
 40
0.0688165367071679
 40
0.1296992433581867
 40
0.2526299003951481
 40
0.457371385913315
 40
0.6632003120895636
 40
1.0
 40
1.0
 40
1.0
 40
1.0
 10
105.6791192999314
 20
114.1940135868695
 30
0.0
 10
105.6843226231432
 20
114.2361420179294
 30
0.0
 10
105.695929617243
 20
114.3301174314934
 30
0.0
 10
105.802705580929
 20
114.482485052234
 30
0.0
 10
106.0577329052963
 20
114.6762584784338
 30
0.0
 10
106.6000567002842
 20
114.8764128135573
 30
0.0
 10
107.3826068945936
 20
115.0077147714964
 30
0.0
 10
108.4926122531671
 20
115.0617458923375
 30
0.0
 10
109.2983288303953
 20
115.0671209832565
 30
0.0
 10
109.7984224205785
 20
115.0704572041948
 30
0.0
  0
SPLINE
  5
EF
330
1F
100
AcDbEntity
  8
0
  6
CONTINUOUS
 62
     7
100
AcDbSpline
210
0.0
220
0.0
230
1.0
 70
     8
 71
     3
 72
    15
 73
    11
 74
     0
 42
0.00000001
 43
0.00000001
 40
0.0
 40
0.0
 40
0.0
 40
0.0
 40
0.422020828029924
 40
0.5757675349191027
 40
0.7291070677651229
 40
0.8107516775739458
 40
0.9187236235674522
 40
0.9553715006344883
 40
0.9923845056542678
 40
1.0
 40
1.0
 40
1.0
 40
1.0
 10
109.7984224207212
 20
116.6495898704766
 30
0.0
 10
109.1712905603256
 20
116.6388208687716
 30
0.0
 10
108.3156878475049
 20
116.6241286044249
 30
0.0
 10
107.2361110703728
 20
116.6739353845025
 30
0.0
 10
106.6657982223135
 20
116.7463764216424
 30
0.0
 10
106.1861959250102
 20
116.8608399274551
 30
0.0
 10
105.8861658078627
 20
116.9804031776791
 30
0.0
 10
105.7209154979153
 20
117.1265199491545
 30
0.0
 10
105.6813255927308
 20
117.2056399631871
 30
0.0
 10
105.6794409064768
 20
117.2495736965723
 30
0.0
 10
105.6791192999314
 20
117.2570706346935
 30
0.0
  0
LWPOLYLINE
  5
F0
330
1F
100
AcDbEntity
  8
0
  6
CONTINUOUS
 62
     7
100
AcDbPolyline
 90
        3
 70
   128
 43
0.0
 10
169.987155518
 20
117.4848445015
 10
154.3099430856
 20
117.2673939325
 10
109.7984224207
 20
116.6495898705
  0
SPLINE
  5
F1
330
1F
100
AcDbEntity
  8
0
  6
CONTINUOUS
 62
     7
100
AcDbSpline
210
0.0
220
0.0
230
1.0
 70
     8
 71
     3
 72
    14
 73
    10
 74
     0
 42
0.00000001
 43
0.00000001
 40
0.0
 40
0.0
 40
0.0
 40
0.0
 40
0.0324876077238645
 40
0.0725202418839968
 40
0.1366529854335823
 40
0.2657907900967365
 40
0.481379723287764
 40
0.6981231342999001
 40
1.0
 40
1.0
 40
1.0
 40
1.0
 10
173.929116168262
 20
118.1973786365922
 30
0.0
 10
173.9236822787865
 20
118.1663652059746
 30
0.0
 10
173.9115525158789
 20
118.0971356859325
 30
0.0
 10
173.8030373547346
 20
117.9808494459919
 30
0.0
 10
173.5448860083164
 20
117.8285045788891
 30
0.0
 10
172.9963545777537
 20
117.6632648544986
 30
0.0
 10
172.2049692146347
 20
117.5506526731237
 30
0.0
 10
171.1574949680765
 20
117.5015389930319
 30
0.0
 10
170.4177461766849
 20
117.490986729815
 30
0.0
 10
169.9871555180119
 20
117.4848445015046
 30
0.0
  0
LINE
  5
F2
330
1F
100
AcDbEntity
  8
0
  6
CONTINUOUS
 62
     7
100
AcDbLine
 10
169.5894556589
 20
106.4248064725
 30
0.0
 11
169.5894556589
 21
106.530503029
 31
0.0
  0
LINE
  5
F3
330
1F
100
AcDbEntity
  8
0
  6
CONTINUOUS
 62
     7
100
AcDbLine
 10
110.0553868332
 20
110.4133645788
 30
0.0
 11
110.0553868332
 21
110.2934830458
 31
0.0
  0
LINE
  5
F4
330
1F
100
AcDbEntity
  8
0
  6
CONTINUOUS
 62
     7
100
AcDbLine
 10
110.0553868332
 20
113.7266580617
 30
0.0
 11
169.5894556589
 21
114.1556423786
 31
0.0
  0
LINE
  5
F5
330
1F
100
AcDbEntity
  8
0
  6
CONTINUOUS
 62
     7
100
AcDbLine
 10
169.5894556589
 20
106.530503029
 30
0.0
 11
110.0553868332
 21
107.0467701228
 31
0.0
  0
LINE
  5
F6
330
1F
100
AcDbEntity
  8
0
  6
CONTINUOUS
 62
     7
100
AcDbLine
 10
110.0381736028
 20
115.0709365495
 30
0.0
 11
169.5722424285
 21
115.4999208664
 31
0.0
  0
LINE
  5
F7
330
1F
100
AcDbEntity
  8
0
  6
CONTINUOUS
 62
     7
100
AcDbLine
 10
169.5894556589
 20
114.2659648802
 30
0.0
 11
110.0553868332
 21
113.8369805633
 31
0.0
  0
ARC
  5
F8
330
1F
100
AcDbEntity
  8
0
  6
CONTINUOUS
 62
     7
100
AcDbCircle
 10
73.9253780087
 20
113.9500783308
 30
0.0
 40
36.13018583907834
100
AcDbArc
 50
359.8206476058
 51
1.7777586641
  0
SPLINE
  5
F9
330
1F
100
AcDbEntity
  8
0
  6
CONTINUOUS
 62
     7
100
AcDbSpline
210
0.0
220
0.0
230
1.0
 70
     8
 71
     3
 72
    11
 73
     7
 74
     0
 42
0.00000001
 43
0.00000001
 40
0.0
 40
0.0
 40
0.0
 40
0.0
 40
0.2519047421028436
 40
0.5571741213542888
 40
0.8684213189949466
 40
1.0
 40
1.0
 40
1.0
 40
1.0
 10
105.6791192999314
 20
114.0934161629473
 30
0.0
 10
106.0281504800886
 20
114.0347874431543
 30
0.0
 10
106.8001531804187
 20
113.9051098310374
 30
0.0
 10
108.0720535936188
 20
113.7801894637881
 30
0.0
 10
109.1921659300795
 20
113.72706365464
 30
0.0
 10
109.857649078633
 20
113.7267509707759
 30
0.0
 10
110.0553868332231
 20
113.7266580617288
 30
0.0
  0
SPLINE
  5
FA
330
1F
100
AcDbEntity
  8
0
  6
CONTINUOUS
 62
     7
100
AcDbSpline
210
0.0
220
0.0
230
1.0
 70
     8
 71
     3
 72
    10
 73
     6
 74
     0
 42
0.00000001
 43
0.00000001
 40
0.0
 40
0.0
 40
0.0
 40
0.0
 40
0.3686390953869196
 40
0.7479688599806299
 40
0.9999999999999999
 40
0.9999999999999999
 40
0.9999999999999999
 40
0.9999999999999999
 10
110.0553868332231
 20
107.0467701228234
 30
0.0
 10
109.501122079854
 20
107.0382337714297
 30
0.0
 10
108.3765186916273
 20
107.0209135113154
 30
0.0
 10
106.9027773969981
 20
106.8519600991364
 30
0.0
 10
106.0282281096286
 20
106.6765891090554
 30
0.0
 10
105.6791192999314
 20
106.6065832689195
 30
0.0
  0
LINE
  5
FB
330
1F
100
AcDbEntity
  8
0
  6
CONTINUOUS
 62
     7
100
AcDbLine
 10
109.7984224206
 20
115.0704572042
 30
0.0
 11
110.0381736028
 21
115.0709365495
 31
0.0
  0
SPLINE
  5
FC
330
1F
100
AcDbEntity
  8
0
  6
CONTINUOUS
 62
     7
100
AcDbSpline
210
0.0
220
0.0
230
1.0
 70
     8
 71
     3
 72
    10
 73
     6
 74
     0
 42
0.00000001
 43
0.00000001
 40
0.0
 40
0.0
 40
0.0
 40
0.0
 40
0.3686390953869189
 40
0.7479688599806281
 40
1.0
 40
1.0
 40
1.0
 40
1.0
 10
110.0553868332231
 20
113.8369805633169
 30
0.0
 10
109.501122079854
 20
113.8434054365034
 30
0.0
 10
108.3765186916273
 20
113.8564415065594
 30
0.0
 10
106.9027773969981
 20
113.9940993904411
 30
0.0
 10
106.0282281096286
 20
114.1369782047444
 30
0.0
 10
105.6791192999314
 20
114.1940135868695
 30
0.0
  0
LINE
  5
FD
330
1F
100
AcDbEntity
  8
0
  6
CONTINUOUS
 62
     7
100
AcDbLine
 10
110.0553868332
 20
113.8369805633
 30
0.0
 11
110.0553868332
 21
113.7266580617
 31
0.0
  0
LINE
  5
FE
330
1F
100
AcDbEntity
  8
0
  6
CONTINUOUS
 62
     7
100
AcDbLine
 10
110.0553868332
 20
106.9410735663
 30
0.0
 11
169.5894556589
 21
106.4248064725
 31
0.0
  0
LINE
  5
FF
330
1F
100
AcDbEntity
  8
0
  6
CONTINUOUS
 62
     7
100
AcDbLine
 10
169.5722424285
 20
105.1518536611
 30
0.0
 11
110.0381736028
 21
105.6681207549
 31
0.0
  0
ARC
  5
100
330
1F
100
AcDbEntity
  8
0
  6
CONTINUOUS
 62
     7
100
AcDbCircle
 10
68.2222747512
 20
106.8701600352
 30
0.0
 40
41.83317218664165
100
AcDbArc
 50
358.3534297109
 51
0.0971250272
  0
SPLINE
  5
101
330
1F
100
AcDbEntity
  8
0
  6
CONTINUOUS
 62
     7
100
AcDbSpline
210
0.0
220
0.0
230
1.0
 70
     8
 71
     3
 72
    11
 73
     7
 74
     0
 42
0.00000001
 43
0.00000001
 40
0.0
 40
0.0
 40
0.0
 40
0.0
 40
0.2519047421028425
 40
0.5571741213542857
 40
0.8684213189949423
 40
1.0
 40
1.0
 40
1.0
 40
1.0
 10
105.6791192999314
 20
106.510204006721
 30
0.0
 10
106.0281504800886
 20
106.5793912812644
 30
0.0
 10
106.8001531804187
 20
106.7324227747601
 30
0.0
 10
108.0720535936188
 20
106.8797766265751
 30
0.0
 10
109.1921659300795
 20
106.941751265992
 30
0.0
 10
109.857649078633
 20
106.9412288067412
 30
0.0
 10
110.0553868332231
 20
106.9410735662677
 30
0.0
  0
LINE
  5
102
330
1F
100
AcDbEntity
  8
0
  6
CONTINUOUS
 62
     7
100
AcDbLine
 10
110.0553868332
 20
107.0467701228
 30
0.0
 11
110.0553868332
 21
106.9410735663
 31
0.0
  0
LINE
  5
103
330
1F
100
AcDbEntity
  8
0
  6
CONTINUOUS
 62
     7
100
AcDbLine
 10
110.0381736028
 20
105.6681207549
 30
0.0
 11
109.7984224207
 21
105.6686976296
 31
0.0
  0
LINE
  5
104
330
1F
100
AcDbEntity
  8
0
  6
CONTINUOUS
 62
     7
100
AcDbLine
 10
169.5722424285
 20
118.7871614897
 30
0.0
 11
169.987155518
 21
118.8000569301
 31
0.0
  0
SPLINE
  5
105
330
1F
100
AcDbEntity
  8
0
  6
CONTINUOUS
 62
     7
100
AcDbSpline
210
0.0
220
0.0
230
1.0
 70
     8
 71
     3
 72
    14
 73
    10
 74
     0
 42
0.00000001
 43
0.00000001
 40
0.0
 40
0.0
 40
0.0
 40
0.0
 40
0.4393330213524207
 40
0.6862242526167752
 40
0.7797758228727832
 40
0.8877620801200755
 40
0.9315133799709241
 40
0.9756933690841236
 40
1.0
 40
1.0
 40
1.0
 40
1.0
 10
169.9871555180152
 20
118.8000569301248
 30
0.0
 10
170.6136590629242
 20
118.8102611358502
 30
0.0
 10
171.5922377400823
 20
118.8261997817227
 30
0.0
 10
172.7044937693133
 20
118.766251317494
 30
0.0
 10
173.3158644863287
 20
118.6627560773988
 30
0.0
 10
173.6341235959181
 20
118.5689532505965
 30
0.0
 10
173.8347464938689
 20
118.4490546695123
 30
0.0
 10
173.9173608702561
 20
118.3583444195249
 30
0.0
 10
173.9260369390398
 20
118.2947192065119
 30
0.0
 10
173.929116168262
 20
118.272137940726
 30
0.0
  0
ARC
  5
106
330
1F
100
AcDbEntity
  8
0
  6
CONTINUOUS
 62
     7
100
AcDbCircle
 10
105.4284777728
 20
117.2914034911
 30
0.0
 40
64.16120195410254
100
AcDbArc
 50
0.15142284
 51
1.3358288567
  0
LWPOLYLINE
  5
107
330
1F
100
AcDbEntity
  8
0
  6
CONTINUOUS
 62
     7
100
AcDbPolyline
 90
        3
 70
   128
 43
0.0
 10
109.7984224206
 20
117.9648022991
 10
122.8423236792
 20
118.145915473
 10
169.987155518
 20
118.8000569301
  0
SPLINE
  5
108
330
1F
100
AcDbEntity
  8
0
  6
CONTINUOUS
 62
     7
100
AcDbSpline
210
0.0
220
0.0
230
1.0
 70
     8
 71
     3
 72
    14
 73
    10
 74
     0
 42
0.00000001
 43
0.00000001
 40
0.0
 40
0.0
 40
0.0
 40
0.0
 40
0.0308499065074137
 40
0.0688165367071674
 40
0.1296992433581911
 40
0.2526299003951559
 40
0.4573713859133324
 40
0.6632003120895903
 40
1.0
 40
1.0
 40
1.0
 40
1.0
 10
105.6791192999314
 20
117.3290271151893
 30
0.0
 10
105.6843226231432
 20
117.358965048817
 30
0.0
 10
105.695929617243
 20
117.4257472579601
 30
0.0
 10
105.802705580929
 20
117.533061451298
 30
0.0
 10
106.0577329052963
 20
117.6686301442998
 30
0.0
 10
106.6000567002842
 20
117.8079992814839
 30
0.0
 10
107.3826068945937
 20
117.9020642661534
 30
0.0
 10
108.492612253167
 20
117.9469930597392
 30
0.0
 10
109.2983288303952
 20
117.9579817928144
 30
0.0
 10
109.7984224205784
 20
117.9648022990948
 30
0.0
  0
SPLINE
  5
109
330
1F
100
AcDbEntity
  8
0
  6
CONTINUOUS
 62
     7
100
AcDbSpline
210
0.0
220
0.0
230
1.0
 70
     8
 71
     3
 72
    15
 73
    11
 74
     0
 42
0.00000001
 43
0.00000001
 40
0.0
 40
0.0
 40
0.0
 40
0.0
 40
0.4220208280299134
 40
0.575767534919112
 40
0.7291070677651522
 40
0.8107516775739675
 40
0.9187236235674605
 40
0.9553715006344965
 40
0.9923845056542716
 40
1.0
 40
1.0
 40
1.0
 40
1.0
 10
109.7984224207213
 20
118.8892915238034
 30
0.0
 10
109.1712905603257
 20
118.877075162329
 30
0.0
 10
108.315687847505
 20
118.8604082495498
 30
0.0
 10
107.2361110703728
 20
118.8740599999759
 30
0.0
 10
106.6657982223134
 20
118.9035809215136
 30
0.0
 10
106.1861959250102
 20
118.9532400221591
 30
0.0
 10
105.8861658078626
 20
119.0056866180799
 30
0.0
 10
105.7209154979153
 20
119.0680553540165
 30
0.0
 10
105.6813255927308
 20
119.1011383401583
 30
0.0
 10
105.6794409064768
 20
119.119186879965
 30
0.0
 10
105.6791192999314
 20
119.1222667180685
 30
0.0
  0
LWPOLYLINE
  5
10A
330
1F
100
AcDbEntity
  8
0
  6
CONTINUOUS
 62
     7
100
AcDbPolyline
 90
        3
 70
   128
 43
0.0
 10
169.987155518
 20
119.958170267
 10
154.3099430856
 20
119.6798978908
 10
109.7984224207
 20
118.8892915238
  0
SPLINE
  5
10B
330
1F
100
AcDbEntity
  8
0
  6
CONTINUOUS
 62
     7
100
AcDbSpline
210
0.0
220
0.0
230
1.0
 70
     8
 71
     3
 72
    14
 73
    10
 74
     0
 42
0.00000001
 43
0.00000001
 40
0.0
 40
0.0
 40
0.0
 40
0.0
 40
0.0324876077239086
 40
0.0725202418841318
 40
0.1366529854339687
 40
0.2657907900978128
 40
0.4813797232905684
 40
0.6981231343044371
 40
1.0
 40
1.0
 40
1.0
 40
1.0
 10
173.929116168262
 20
120.32681004
 30
0.0
 10
173.9236822787865
 20
120.3139114868157
 30
0.0
 10
173.9115525158785
 20
120.2851187789983
 30
0.0
 10
173.8030373547337
 20
120.2335768517616
 30
0.0
 10
173.5448860083139
 20
120.1623745634749
 30
0.0
 10
172.9963545777473
 20
120.0784480960841
 30
0.0
 10
172.2049692146224
 20
120.0152678395247
 30
0.0
 10
171.1574949680658
 20
119.9790175352855
 30
0.0
 10
170.4177461766783
 20
119.9658403827189
 30
0.0
 10
169.9871555180119
 20
119.9581702670404
 30
0.0
  0
SPLINE
  5
10C
330
1F
100
AcDbEntity
  8
0
  6
CONTINUOUS
 62
     7
100
AcDbSpline
210
0.0
220
0.0
230
1.0
 70
     8
 71
     3
 72
    14
 73
    10
 74
     0
 42
0.00000001
 43
0.00000001
 40
0.0
 40
0.0
 40
0.0
 40
0.0
 40
0.0324876077238835
 40
0.0725202418838663
 40
0.1366529854328858
 40
0.2657907900942454
 40
0.481379723280084
 40
0.6981231342869841
 40
1.0
 40
1.0
 40
1.0
 40
1.0
 10
173.929116168262
 20
102.5803866875029
 30
0.0
 10
173.923682278787
 20
102.553485202479
 30
0.0
 10
173.9115525158802
 20
102.4934345450851
 30
0.0
 10
173.8030373547384
 20
102.3997076404187
 30
0.0
 10
173.5448860083258
 20
102.2851817650481
 30
0.0
 10
172.9963545777773
 20
102.1760111306542
 30
0.0
 10
172.2049692146805
 20
102.1150557393689
 30
0.0
 10
171.157494968124
 20
102.1080096401195
 30
0.0
 10
170.4177461767252
 20
102.1186039118832
 30
0.0
 10
169.9871555180358
 20
102.1247705923971
 30
0.0
  0
LINE
  5
10D
330
1F
100
AcDbEntity
  8
0
  6
CONTINUOUS
 62
     7
100
AcDbLine
 10
169.987155518
 20
102.1247705924
 30
0.0
 11
169.5722424285
 21
102.1386142499
 31
0.0
  0
LINE
  5
10E
330
1F
100
AcDbEntity
  8
0
  6
CONTINUOUS
 62
     7
100
AcDbLine
 10
109.7984224206
 20
117.9648022991
 30
0.0
 11
110.0381736028
 21
117.9657201742
 31
0.0
  0
ARC
  5
10F
330
1F
100
AcDbEntity
  8
0
  6
CONTINUOUS
 62
     7
100
AcDbCircle
 10
45.8944089473
 20
116.4699621755
 30
0.0
 40
64.16120195389023
100
AcDbArc
 50
0.15142284
 51
1.3358288567
  0
LINE
  5
110
330
1F
100
AcDbEntity
  8
0
  6
CONTINUOUS
 62
     7
100
AcDbLine
 10
110.0381736028
 20
117.9657201742
 30
0.0
 11
169.5722424285
 21
118.7871614897
 31
0.0
  0
SPLINE
  5
111
330
1F
100
AcDbEntity
  8
0
  6
CONTINUOUS
 62
     7
100
AcDbSpline
210
0.0
220
0.0
230
1.0
 70
     8
 71
     3
 72
    15
 73
    11
 74
     0
 42
0.00000001
 43
0.00000001
 40
0.0
 40
0.0
 40
0.0
 40
0.0
 40
0.4220208280364287
 40
0.5757675349141668
 40
0.7291070677488933
 40
0.810751677562211
 40
0.9187236235639735
 40
0.9553715006319721
 40
0.9923845056527254
 40
1.0
 40
1.0
 40
1.0
 40
1.0
 10
109.7984224206528
 20
103.0214424886442
 30
0.0
 10
109.1712905602571
 20
103.0294873331596
 30
0.0
 10
108.3156878474569
 20
103.0404630006804
 30
0.0
 10
107.2361110703659
 20
103.0995365124397
 30
0.0
 10
106.6657982223422
 20
103.1637378422998
 30
0.0
 10
106.1861959250417
 20
103.2584109665012
 30
0.0
 10
105.8861658078764
 20
103.356010067578
 30
0.0
 10
105.7209154979193
 20
103.4791621143775
 30
0.0
 10
105.6813255927314
 20
103.547394658231
 30
0.0
 10
105.679440906477
 20
103.5860058094718
 30
0.0
 10
105.6791192999314
 20
103.5925944917753
 30
0.0
  0
LWPOLYLINE
  5
112
330
1F
100
AcDbEntity
  8
0
  6
CONTINUOUS
 62
     7
100
AcDbPolyline
 90
        4
 70
   128
 43
0.0
 10
169.987155518
 20
102.1247705924
 10
127.2825220898
 20
102.7608415101
 10
109.9466532572
 20
103.0192326055
 10
109.7984224207
 20
103.0214424886
  0
SPLINE
  5
113
330
1F
100
AcDbEntity
  8
0
  6
CONTINUOUS
 62
     7
100
AcDbSpline
210
0.0
220
0.0
230
1.0
 70
     8
 71
     3
 72
    14
 73
    10
 74
     0
 42
0.00000001
 43
0.00000001
 40
0.0
 40
0.0
 40
0.0
 40
0.0
 40
0.4393330213532826
 40
0.686224252618141
 40
0.779775822874694
 40
0.887762080122198
 40
0.9315133799733261
 40
0.9756933690868189
 40
1.0
 40
1.0
 40
1.0
 40
1.0
 10
169.9871555180152
 20
101.1624538677915
 30
0.0
 10
170.6136590629242
 20
101.1518529718316
 30
0.0
 10
171.5922377400823
 20
101.1352947083877
 30
0.0
 10
172.7044937693139
 20
101.0792670403
 30
0.0
 10
173.3158644863298
 20
101.02055993517
 30
0.0
 10
173.6341235959197
 20
100.9758660531908
 30
0.0
 10
173.8347464938707
 20
100.9293099536102
 30
0.0
 10
173.9173608702551
 20
100.8982123932855
 30
0.0
 10
173.9260369390396
 20
100.8796692181768
 30
0.0
 10
173.929116168262
 20
100.8730880478234
 30
0.0
  0
LWPOLYLINE
  5
114
330
1F
100
AcDbEntity
  8
0
  6
CONTINUOUS
 62
     7
100
AcDbPolyline
 90
        3
 70
   128
 43
0.0
 10
109.7984224206
 20
102.2532521792
 10
122.8423236792
 20
102.0167279662
 10
169.987155518
 20
101.1624538678
  0
SPLINE
  5
115
330
1F
100
AcDbEntity
  8
0
  6
CONTINUOUS
 62
     7
100
AcDbSpline
210
0.0
220
0.0
230
1.0
 70
     8
 71
     3
 72
    14
 73
    10
 74
     0
 42
0.00000001
 43
0.00000001
 40
0.0
 40
0.0
 40
0.0
 40
0.0
 40
0.0308499065074137
 40
0.068816536707164
 40
0.1296992433581861
 40
0.2526299003951482
 40
0.4573713859133163
 40
0.6632003120895662
 40
1.0
 40
1.0
 40
1.0
 40
1.0
 10
105.6791192999314
 20
102.1025292226262
 30
0.0
 10
105.6843226231432
 20
102.1111721060645
 30
0.0
 10
105.695929617243
 20
102.1304516881677
 30
0.0
 10
105.802705580929
 20
102.163875850075
 30
0.0
 10
106.0577329052963
 20
102.2084234108632
 30
0.0
 10
106.6000567002842
 20
102.2559294516666
 30
0.0
 10
107.3826068945936
 20
102.281165302486
 30
0.0
 10
108.4926122531671
 20
102.2775719352304
 30
0.0
 10
109.2983288303953
 20
102.2625660553
 30
0.0
 10
109.7984224205785
 20
102.2532521792046
 30
0.0
  0
LINE
  5
116
330
1F
100
AcDbEntity
  8
0
  6
CONTINUOUS
 62
     7
100
AcDbLine
 10
169.5722424285
 20
102.1386142499
 30
0.0
 11
110.0381736028
 21
103.0204571211
 31
0.0
  0
LINE
  5
117
330
1F
100
AcDbEntity
  8
0
  6
CONTINUOUS
 62
     7
100
AcDbLine
 10
110.0381736028
 20
103.0204571211
 30
0.0
 11
109.7984224207
 21
103.0214424886
 31
0.0
  0
LINE
  5
118
330
1F
100
AcDbEntity
  8
0
  6
CONTINUOUS
 62
     7
100
AcDbLine
 10
169.5722424285
 20
120.4728904655
 30
0.0
 11
169.987155518
 21
120.489392813
 31
0.0
  0
SPLINE
  5
119
330
1F
100
AcDbEntity
  8
0
  6
CONTINUOUS
 62
     7
100
AcDbSpline
210
0.0
220
0.0
230
1.0
 70
     8
 71
     3
 72
    14
 73
    10
 74
     0
 42
0.00000001
 43
0.00000001
 40
0.0
 40
0.0
 40
0.0
 40
0.0
 40
0.4393330213527931
 40
0.686224252617357
 40
0.7797758228735958
 40
0.8877620801209786
 40
0.9315133799719542
 40
0.9756933690852775
 40
0.9999999999999999
 40
0.9999999999999999
 40
0.9999999999999999
 40
0.9999999999999999
 10
169.9871555180152
 20
120.4893928129694
 30
0.0
 10
170.6136590629242
 20
120.5009387733385
 30
0.0
 10
171.5922377400823
 20
120.5189731974314
 30
0.0
 10
172.7044937693136
 20
120.5167973197287
 30
0.0
 10
173.3158644863292
 20
120.4919417800086
 30
0.0
 10
173.6341235959188
 20
120.4646883717207
 30
0.0
 10
173.8347464938697
 20
120.4239863651826
 30
0.0
 10
173.9173608702557
 20
120.3909038182792
 30
0.0
 10
173.9260369390397
 20
120.365885174734
 30
0.0
 10
173.929116168262
 20
120.3570057916604
 30
0.0
  0
LINE
  5
11A
330
1F
100
AcDbEntity
  8
0
  6
CONTINUOUS
 62
     7
100
AcDbLine
 10
109.7984224206
 20
119.4205140697
 30
0.0
 11
110.0381736028
 21
119.4216886782
 31
0.0
  0
SPLINE
  5
11B
330
1F
100
AcDbEntity
  8
0
  6
CONTINUOUS
 62
     7
100
AcDbSpline
210
0.0
220
0.0
230
1.0
 70
     8
 71
     3
 72
    14
 73
    10
 74
     0
 42
0.00000001
 43
0.00000001
 40
0.0
 40
0.0
 40
0.0
 40
0.0
 40
0.0308499065074142
 40
0.0688165367071681
 40
0.1296992433581893
 40
0.2526299003951539
 40
0.4573713859133267
 40
0.6632003120895815
 40
1.0
 40
1.0
 40
1.0
 40
1.0
 10
105.6791192999314
 20
119.1513303916875
 30
0.0
 10
105.6843226231432
 20
119.1631482529633
 30
0.0
 10
105.695929617243
 20
119.1895102221346
 30
0.0
 10
105.802705580929
 20
119.2305160959572
 30
0.0
 10
106.0577329052963
 20
119.2810290134709
 30
0.0
 10
106.6000567002842
 20
119.3320091858462
 30
0.0
 10
107.3826068945937
 20
119.3702064734008
 30
0.0
 10
108.4926122531671
 20
119.3971342411461
 30
0.0
 10
109.2983288303953
 20
119.4115601630241
 30
0.0
 10
109.7984224205784
 20
119.4205140697297
 30
0.0
  0
LWPOLYLINE
  5
11C
330
1F
100
AcDbEntity
  8
0
  6
CONTINUOUS
 62
     7
100
AcDbPolyline
 90
        3
 70
   128
 43
0.0
 10
109.7984224206
 20
119.4205140697
 10
122.8423236792
 20
119.6522853338
 10
169.987155518
 20
120.489392813
  0
SPLINE
  5
11D
330
1F
100
AcDbEntity
  8
0
  6
CONTINUOUS
 62
     7
100
AcDbSpline
210
0.0
220
0.0
230
1.0
 70
     8
 71
     3
 72
    14
 73
    10
 74
     0
 42
0.00000001
 43
0.00000001
 40
0.0
 40
0.0
 40
0.0
 40
0.0
 40
0.0324876077238729
 40
0.0725202418840237
 40
0.136652985433654
 40
0.2657907900969498
 40
0.481379723288309
 40
0.6981231343007804
 40
1.0
 40
1.0
 40
1.0
 40
1.0
 10
173.929116168262
 20
100.8527396080639
 30
0.0
 10
173.9236822787866
 20
100.8449685671664
 30
0.0
 10
173.9115525158789
 20
100.8276217138563
 30
0.0
 10
173.8030373547345
 20
100.8042108175795
 30
0.0
 10
173.544886008316
 20
100.7801680406157
 30
0.0
 10
172.9963545777523
 20
100.7661585848493
 30
0.0
 10
172.2049692146323
 20
100.7673932919265
 30
0.0
 10
171.1574949680743
 20
100.7836004029787
 30
0.0
 10
170.4177461766836
 20
100.7967925482221
 30
0.0
 10
169.9871555180118
 20
100.804471390791
 30
0.0
  0
LINE
  5
11E
330
1F
100
AcDbEntity
  8
0
  6
CONTINUOUS
 62
     7
100
AcDbLine
 10
169.987155518
 20
100.8044713908
 30
0.0
 11
169.5722424285
 21
100.821312153
 31
0.0
  0
LINE
  5
11F
330
1F
100
AcDbEntity
  8
0
  6
CONTINUOUS
 62
     7
100
AcDbLine
 10
110.0381736028
 20
119.4216886782
 30
0.0
 11
169.5722424285
 21
120.4728904655
 31
0.0
  0
SPLINE
  5
120
330
1F
100
AcDbEntity
  8
0
  6
CONTINUOUS
 62
     7
100
AcDbSpline
210
0.0
220
0.0
230
1.0
 70
     8
 71
     3
 72
    15
 73
    11
 74
     0
 42
0.00000001
 43
0.00000001
 40
0.0
 40
0.0
 40
0.0
 40
0.0
 40
0.4220208280299091
 40
0.5757675349191186
 40
0.7291070677651689
 40
0.8107516775739804
 40
0.9187236235674665
 40
0.9553715006345007
 40
0.9923845056542773
 40
1.0
 40
1.0
 40
1.0
 40
1.0
 10
109.7984224207213
 20
101.8952697022015
 30
0.0
 10
109.1712905603257
 20
101.9065138232314
 30
0.0
 10
108.3156878475051
 20
101.9218542979609
 30
0.0
 10
107.2361110703728
 20
101.9470614737858
 30
0.0
 10
106.6657982223134
 20
101.9663076484112
 30
0.0
 10
106.1861959250101
 20
101.9912885468447
 30
0.0
 10
105.8861658078626
 20
102.0163462967646
 30
0.0
 10
105.7209154979153
 20
102.0500784894212
 30
0.0
 10
105.6813255927309
 20
102.0695850223118
 30
0.0
 10
105.6794409064769
 20
102.0809964107433
 30
0.0
 10
105.6791192999314
 20
102.0829436723656
 30
0.0
  0
LWPOLYLINE
  5
121
330
1F
100
AcDbEntity
  8
0
  6
CONTINUOUS
 62
     7
100
AcDbPolyline
 90
        3
 70
   128
 43
0.0
 10
169.987155518
 20
100.8044713908
 10
154.3099430856
 20
101.0884503173
 10
109.7984224207
 20
101.8952697022
  0
LINE
  5
122
330
1F
100
AcDbEntity
  8
0
  6
CONTINUOUS
 62
     7
100
AcDbLine
 10
110.0381736028
 20
101.894071006
 30
0.0
 11
109.7984224207
 21
101.8952697022
 31
0.0
  0
LINE
  5
123
330
1F
100
AcDbEntity
  8
0
  6
CONTINUOUS
 62
     7
100
AcDbLine
 10
169.5722424285
 20
100.821312153
 30
0.0
 11
110.0381736028
 21
101.894071006
 31
0.0
  0
ARC
  5
124
330
1F
100
AcDbEntity
  8
0
  6
CONTINUOUS
 62
     7
100
AcDbCircle
 10
71.9291161683
 20
110.701261563
 30
0.0
 40
8.0
100
AcDbArc
 50
90.0
 51
270.0
  0
LINE
  5
125
330
1F
100
AcDbEntity
  8
0
  6
CONTINUOUS
 62
     8
100
AcDbLine
 10
182.2504073872
 20
100.701261563
 30
0.0
 11
182.2504073872
 21
120.701261563
 31
0.0
  0
LINE
  5
126
330
1F
100
AcDbEntity
  8
0
  6
CONTINUOUS
 62
     8
100
AcDbLine
 10
182.4459250253
 20
120.5433668262
 30
0.0
 11
182.4459250253
 21
100.8591562998
 31
0.0
  0
LINE
  5
127
330
1F
100
AcDbEntity
  8
0
  6
CONTINUOUS
 62
     8
100
AcDbLine
 10
183.9120301753
 20
102.7424221418
 30
0.0
 11
183.9120301753
 21
120.5420853767
 31
0.0
  0
LINE
  5
128
330
1F
100
AcDbEntity
  8
0
  6
CONTINUOUS
 62
     8
100
AcDbLine
 10
183.9120301753
 20
100.8604377493
 30
0.0
 11
183.9120301753
 21
102.7424221418
 31
0.0
  0
LINE
  5
129
330
1F
100
AcDbEntity
  8
0
  6
CONTINUOUS
 62
     8
100
AcDbLine
 10
184.1111138644
 20
102.6150267588
 30
0.0
 11
184.1111138644
 21
100.7029178582
 31
0.0
  0
LINE
  5
12A
330
1F
100
AcDbEntity
  8
0
  6
CONTINUOUS
 62
     8
100
AcDbLine
 10
184.1111138644
 20
120.6996052678
 30
0.0
 11
184.1111138644
 21
102.6150267588
 31
0.0
  0
LINE
  5
12B
330
1F
100
AcDbEntity
  8
0
  6
CONTINUOUS
 62
     8
100
AcDbLine
 10
95.787770199
 20
119.451261563
 30
0.0
 11
95.787770199
 21
101.951261563
 31
0.0
  0
LINE
  5
12C
330
1F
100
AcDbEntity
  8
0
  6
CONTINUOUS
 62
     8
100
AcDbLine
 10
95.6253236265
 20
103.6920304638
 30
0.0
 11
95.6253236265
 21
119.3679282297
 31
0.0
  0
LINE
  5
12D
330
1F
100
AcDbEntity
  8
0
  6
CONTINUOUS
 62
     8
100
AcDbLine
 10
95.6253236265
 20
102.0345948963
 30
0.0
 11
95.6253236265
 21
103.6920304638
 31
0.0
  0
LINE
  5
12E
330
1F
100
AcDbEntity
  8
0
  6
CONTINUOUS
 62
     8
100
AcDbLine
 10
94.8130907645
 20
102.451261563
 30
0.0
 11
94.8130907645
 21
118.951261563
 31
0.0
  0
LINE
  5
12F
330
1F
100
AcDbEntity
  8
0
  6
CONTINUOUS
 62
     8
100
AcDbLine
 10
94.1291161683
 20
118.951261563
 30
0.0
 11
94.1291161683
 21
102.451261563
 31
0.0
  0
ARC
  5
130
330
1F
100
AcDbEntity
  8
0
  6
CONTINUOUS
 62
     8
100
AcDbCircle
 10
157.8662645609
 20
110.5995298553
 30
0.0
 40
11.72553829693815
100
AcDbArc
 50
358.8535544647
 51
3.2445736745
  0
ARC
  5
131
330
1F
100
AcDbEntity
  8
0
  6
CONTINUOUS
 62
     8
100
AcDbCircle
 10
151.5763403829
 20
114.0823822098
 30
0.0
 40
18.01326425163655
100
AcDbArc
 50
358.6556588594
 51
0.2330232874
  0
ARC
  5
132
330
1F
100
AcDbEntity
  8
0
  6
CONTINUOUS
 62
     8
100
AcDbCircle
 10
98.3321957352
 20
110.6479681421
 30
0.0
 40
11.72553829692912
100
AcDbArc
 50
358.8535544647
 51
3.2445736745
  0
ARC
  5
133
330
1F
100
AcDbEntity
  8
0
  6
CONTINUOUS
 62
     8
100
AcDbCircle
 10
152.4634979861
 20
106.5925954496
 30
0.0
 40
17.12607023464943
100
AcDbArc
 50
359.7922674973
 51
1.1111347865
  0
ARC
  5
134
330
1F
100
AcDbEntity
  8
0
  6
CONTINUOUS
 62
     8
100
AcDbCircle
 10
92.1530296664
 20
113.65292188
 30
0.0
 40
17.90250901840865
100
AcDbArc
 50
358.6431057506
 51
0.2359883719
  0
ARC
  5
135
330
1F
100
AcDbEntity
  8
0
  6
CONTINUOUS
 62
     8
100
AcDbCircle
 10
93.0718790256
 20
107.1095164383
 30
0.0
 40
16.98362371677191
100
AcDbArc
 50
359.7883191895
 51
1.1275278175
  0
SPLINE
  5
136
330
1F
100
AcDbEntity
  8
0
  6
CONTINUOUS
 62
     8
100
AcDbSpline
210
0.0
220
0.0
230
1.0
 70
     8
 71
     3
 72
     9
 73
     5
 74
     0
 42
0.00000001
 43
0.00000001
 40
0.0
 40
0.0
 40
0.0
 40
0.0
 40
0.5999395169919093
 40
0.9999999999999999
 40
0.9999999999999999
 40
0.9999999999999999
 40
0.9999999999999999
 10
171.2476649299184
 20
117.5108052101514
 30
0.0
 10
171.8028194048337
 20
117.6080761586619
 30
0.0
 10
172.7281701430195
 20
117.7702107501591
 30
0.0
 10
173.5859536761024
 20
118.0760374008262
 30
0.0
 10
173.9291189706639
 20
118.1983865584088
 30
0.0
  0
SPLINE
  5
137
330
1F
100
AcDbEntity
  8
0
  6
CONTINUOUS
 62
     8
100
AcDbSpline
210
0.0
220
0.0
230
1.0
 70
     8
 71
     3
 72
    10
 73
     6
 74
     0
 42
0.00000001
 43
0.00000001
 40
0.0
 40
0.0
 40
0.0
 40
0.0
 40
0.2957303645861833
 40
0.654055959807583
 40
1.0
 40
1.0
 40
1.0
 40
1.0
 10
173.9291189706639
 20
118.2711428875398
 30
0.0
 10
173.5856430832927
 20
118.1514396647122
 30
0.0
 10
172.8259901085305
 20
117.8866964537535
 30
0.0
 10
171.5915075773895
 20
117.6112279484323
 30
0.0
 10
170.6956891962611
 20
117.5301839456717
 30
0.0
 10
170.2556545639798
 20
117.4903743495474
 30
0.0
  0
SPLINE
  5
138
330
1F
100
AcDbEntity
  8
0
  6
CONTINUOUS
 62
     8
100
AcDbSpline
210
0.0
220
0.0
230
1.0
 70
     8
 71
     3
 72
     9
 73
     5
 74
     0
 42
0.00000001
 43
0.00000001
 40
0.0
 40
0.0
 40
0.0
 40
0.0
 40
0.5439841261492917
 40
1.0
 40
1.0
 40
1.0
 40
1.0
 10
173.9291189706639
 20
102.6463464542297
 30
0.0
 10
173.5868158012792
 20
102.7792285573518
 30
0.0
 10
172.957563672531
 20
103.0235042572011
 30
0.0
 10
172.2834218798873
 20
103.167988662556
 30
0.0
 10
171.9760025212155
 20
103.2338758449217
 30
0.0
  0
SPLINE
  5
139
330
1F
100
AcDbEntity
  8
0
  6
CONTINUOUS
 62
     8
100
AcDbSpline
210
0.0
220
0.0
230
1.0
 70
     8
 71
     3
 72
    10
 73
     6
 74
     0
 42
0.00000001
 43
0.00000001
 40
0.0
 40
0.0
 40
0.0
 40
0.0
 40
0.3852133738170275
 40
0.8520320868068348
 40
1.0
 40
1.0
 40
1.0
 40
1.0
 10
105.6791192999314
 20
117.2570706346935
 30
0.0
 10
106.0283645613971
 20
117.1471029670176
 30
0.0
 10
106.8008407762946
 20
116.9038715847768
 30
0.0
 10
107.7554708799495
 20
116.7025051871546
 30
0.0
 10
108.3569020558161
 20
116.6580296657062
 30
0.0
 10
108.5016555560262
 20
116.6473252199414
 30
0.0
  0
ARC
  5
13A
330
1F
100
AcDbEntity
  8
0
  6
CONTINUOUS
 62
     8
100
AcDbCircle
 10
94.3455504323
 20
103.8015817242
 30
0.0
 40
75.24507059941085
100
AcDbArc
 50
358.7336210172
 51
359.6329995366
  0
SPLINE
  5
13B
330
1F
100
AcDbEntity
  8
0
  6
CONTINUOUS
 62
     8
100
AcDbSpline
210
0.0
220
0.0
230
1.0
 70
     8
 71
     3
 72
     9
 73
     5
 74
     0
 42
0.00000001
 43
0.00000001
 40
0.0
 40
0.0
 40
0.0
 40
0.0
 40
0.557609705741954
 40
1.0
 40
1.0
 40
1.0
 40
1.0
 10
171.509410896161
 20
103.2564860116375
 30
0.0
 10
171.9755430804029
 20
103.1681970913189
 30
0.0
 10
172.8114901226475
 20
103.0098624723022
 30
0.0
 10
173.5863350813702
 20
102.7127258408499
 30
0.0
 10
173.9291189706639
 20
102.5812754790268
 30
0.0
  0
SPLINE
  5
13C
330
1F
100
AcDbEntity
  8
0
  6
CONTINUOUS
 62
     8
100
AcDbSpline
210
0.0
220
0.0
230
1.0
 70
     8
 71
     3
 72
    10
 73
     6
 74
     0
 42
0.00000001
 43
0.00000001
 40
0.0
 40
0.0
 40
0.0
 40
0.0
 40
0.2091687610663187
 40
0.6843103567942097
 40
1.0
 40
1.0
 40
1.0
 40
1.0
 10
109.1487847382393
 20
116.6833915530929
 30
0.0
 10
108.8980025568818
 20
116.6914486585301
 30
0.0
 10
108.0775509601544
 20
116.7178080473241
 30
0.0
 10
106.9031434437715
 20
116.9463996003542
 30
0.0
 10
106.0283325425202
 20
117.219863749555
 30
0.0
 10
105.6791192999314
 20
117.3290271151893
 30
0.0
  0
SPLINE
  5
13D
330
1F
100
AcDbEntity
  8
0
  6
CONTINUOUS
 62
     8
100
AcDbSpline
210
0.0
220
0.0
230
1.0
 70
     8
 71
     3
 72
     9
 73
     5
 74
     0
 42
0.00000001
 43
0.00000001
 40
0.0
 40
0.0
 40
0.0
 40
0.0
 40
0.4843621212830741
 40
1.0
 40
1.0
 40
1.0
 40
1.0
 10
107.7730365967342
 20
104.1955427485801
 30
0.0
 10
107.4234690010622
 20
104.1382354377401
 30
0.0
 10
106.701761872631
 20
104.019920424402
 30
0.0
 10
106.0270343621485
 20
103.7804368894406
 30
0.0
 10
105.6791192999314
 20
103.6569501074854
 30
0.0
  0
SPLINE
  5
13E
330
1F
100
AcDbEntity
  8
0
  6
CONTINUOUS
 62
     8
100
AcDbSpline
210
0.0
220
0.0
230
1.0
 70
     8
 71
     3
 72
    10
 73
     6
 74
     0
 42
0.00000001
 43
0.00000001
 40
0.0
 40
0.0
 40
0.0
 40
0.0
 40
0.4492341521067879
 40
0.9936360939177957
 40
1.0
 40
1.0
 40
1.0
 40
1.0
 10
105.6791192999314
 20
103.5925944917753
 30
0.0
 10
106.0285464529087
 20
103.7086991020016
 30
0.0
 10
106.8014249835479
 20
103.9655044469429
 30
0.0
 10
107.6177280752495
 20
104.1628730322212
 30
0.0
 10
108.078892819379
 20
104.204012227602
 30
0.0
 10
108.0842214161526
 20
104.2044875765669
 30
0.0
  0
ARC
  5
13F
330
1F
100
AcDbEntity
  8
0
  6
CONTINUOUS
 62
     8
100
AcDbCircle
 10
34.9296909884
 20
104.6813171646
 30
0.0
 40
75.1268435162653
100
AcDbArc
 50
358.7332354255
 51
359.6379467568
  0
LINE
  5
140
330
1F
100
AcDbEntity
  8
0
  6
CONTINUOUS
 62
     8
100
AcDbLine
 10
173.577091519
 20
120.1785626391
 30
0.0
 11
173.9291189707
 21
120.3272227811
 31
0.0
  0
LINE
  5
141
330
1F
100
AcDbEntity
  8
0
  6
CONTINUOUS
 62
     8
100
AcDbLine
 10
173.9291189707
 20
120.3566095186
 30
0.0
 11
173.4607040322
 21
120.1591955335
 31
0.0
  0
LINE
  5
142
330
1F
100
AcDbEntity
  8
0
  6
CONTINUOUS
 62
     8
100
AcDbLine
 10
105.6791192999
 20
119.1222667181
 30
0.0
 11
106.0173418912
 21
118.9934245184
 31
0.0
  0
ARC
  5
143
330
1F
100
AcDbEntity
  8
0
  6
CONTINUOUS
 62
     8
100
AcDbCircle
 10
-19.1969945004
 20
116.8903465184
 30
0.0
 40
188.8032293999207
100
AcDbArc
 50
0.9270843515
 51
1.0872534774
  0
ARC
  5
144
330
1F
100
AcDbEntity
  8
0
  6
CONTINUOUS
 62
     8
100
AcDbCircle
 10
-78.6119350597
 20
115.8413112981
 30
0.0
 40
188.6840814710167
100
AcDbArc
 50
0.9251441601
 51
1.0872821076
  0
LINE
  5
145
330
1F
100
AcDbEntity
  8
0
  6
CONTINUOUS
 62
     8
100
AcDbLine
 10
106.1776983327
 20
118.9618962398
 30
0.0
 11
105.6791192999
 21
119.1513303917
 31
0.0
  0
LINE
  5
146
330
1F
100
AcDbEntity
  8
0
  6
CONTINUOUS
 62
     8
100
AcDbLine
 10
105.8475039191
 20
102.1679588173
 30
0.0
 11
105.6791192999
 21
102.1025292226
 31
0.0
  0
LINE
  5
147
330
1F
100
AcDbEntity
  8
0
  6
CONTINUOUS
 62
     8
100
AcDbLine
 10
173.9291189707
 20
100.872807054
 30
0.0
 11
173.7646910819
 21
100.9436453086
 31
0.0
  0
LWPOLYLINE
  5
148
330
1F
100
AcDbEntity
  8
0
  6
CONTINUOUS
 62
     8
100
AcDbPolyline
 90
        3
 70
   128
 43
0.0
 10
169.578520087
 20
101.170125261
 10
169.5756005632
 20
101.0049381695
 10
169.5722424285
 20
100.821312153
  0
LINE
  5
149
330
1F
100
AcDbEntity
  8
0
  6
CONTINUOUS
 62
     8
100
AcDbLine
 10
173.6722276608
 20
100.9635272672
 30
0.0
 11
173.9291189707
 21
100.8530037961
 31
0.0
  0
LINE
  5
14A
330
1F
100
AcDbEntity
  8
0
  6
CONTINUOUS
 62
     8
100
AcDbLine
 10
105.6791192999
 20
102.0829436724
 30
0.0
 11
105.9439268646
 21
102.1856674076
 31
0.0
  0
LWPOLYLINE
  5
14B
330
1F
100
AcDbEntity
  8
0
  6
CONTINUOUS
 62
     8
100
AcDbPolyline
 90
        3
 70
   128
 43
0.0
 10
110.0445656199
 20
102.2494696869
 10
110.0415317374
 20
102.0776970224
 10
110.0381736028
 20
101.894071006
  0
LINE
  5
14C
330
1F
100
AcDbEntity
  8
0
  6
CONTINUOUS
 62
     8
100
AcDbLine
 10
86.9291161683
 20
118.701261563
 30
0.0
 11
86.9291161683
 21
102.701261563
 31
0.0
  0
LINE
  5
14D
330
1F
100
AcDbEntity
  8
0
  6
CONTINUOUS
 62
     7
100
AcDbLine
 10
173.9291161683
 20
171.9324075086
 30
0.0
 11
182.2504073872
 21
171.9324075086
 31
0.0
  0
LINE
  5
14E
330
1F
100
AcDbEntity
  8
0
  6
CONTINUOUS
 62
     7
100
AcDbLine
 10
182.2504073872
 20
191.9324075086
 30
0.0
 11
173.9291161683
 21
191.9324075086
 31
0.0
  0
ARC
  5
14F
330
1F
100
AcDbEntity
  8
0
  6
CONTINUOUS
 62
     7
100
AcDbCircle
 10
182.2504073872
 20
191.7324075086
 30
0.0
 40
0.2000000000000298
100
AcDbArc
 50
12.153197469
 51
90.0
  0
ARC
  5
150
330
1F
100
AcDbEntity
  8
0
  6
CONTINUOUS
 62
     7
100
AcDbCircle
 10
182.2504073872
 20
172.1324075086
 30
0.0
 40
0.2000000000000238
100
AcDbArc
 50
270.0
 51
347.846802531
  0
ARC
  5
151
330
1F
100
AcDbEntity
  8
0
  6
CONTINUOUS
 62
     7
100
AcDbCircle
 10
184.1074739105
 20
191.7307843393
 30
0.0
 40
0.2000000000000281
100
AcDbArc
 50
88.9571724379
 51
167.7466437835
  0
ARC
  5
152
330
1F
100
AcDbEntity
  8
0
  6
CONTINUOUS
 62
     7
100
AcDbCircle
 10
184.1074739105
 20
172.1340306779
 30
0.0
 40
0.2000000000000221
100
AcDbArc
 50
192.2533562165
 51
271.0428275621
  0
ARC
  5
153
330
1F
100
AcDbEntity
  8
0
  6
CONTINUOUS
 62
     7
100
AcDbCircle
 10
183.9291161683
 20
181.9324075086
 30
0.0
 40
10.0
100
AcDbArc
 50
271.0428275621
 51
88.9571724379
  0
ARC
  5
154
330
1F
100
AcDbEntity
  8
0
  6
CONTINUOUS
 62
     7
100
AcDbCircle
 10
183.1791161683
 20
171.9324075086
 30
0.0
 40
0.7499999999999846
100
AcDbArc
 50
12.2533562165
 51
167.846802531
  0
ARC
  5
155
330
1F
100
AcDbEntity
  8
0
  6
CONTINUOUS
 62
     7
100
AcDbCircle
 10
183.1791161683
 20
191.9324075086
 30
0.0
 40
0.7499999999999838
100
AcDbArc
 50
192.153197469
 51
347.7466437835
  0
ARC
  5
156
330
1F
100
AcDbEntity
  8
0
  6
CONTINUOUS
 62
     7
100
AcDbCircle
 10
95.787770199
 20
190.4824075086
 30
0.0
 40
0.1999999999999909
100
AcDbArc
 50
90.0
 51
144.3146652874
  0
ARC
  5
157
330
1F
100
AcDbEntity
  8
0
  6
CONTINUOUS
 62
     7
100
AcDbCircle
 10
95.787770199
 20
173.3824075086
 30
0.0
 40
0.2000000000000074
100
AcDbArc
 50
215.6853347127
 51
270.0
  0
LINE
  5
158
330
1F
100
AcDbEntity
  8
0
  6
CONTINUOUS
 62
     7
100
AcDbLine
 10
95.787770199
 20
173.1824075086
 30
0.0
 11
105.6791192999
 21
173.1824075086
 31
0.0
  0
LINE
  5
159
330
1F
100
AcDbEntity
  8
0
  6
CONTINUOUS
 62
     7
100
AcDbLine
 10
105.6791192999
 20
190.6824075086
 30
0.0
 11
95.787770199
 21
190.6824075086
 31
0.0
  0
ARC
  5
15A
330
1F
100
AcDbEntity
  8
0
  6
CONTINUOUS
 62
     7
100
AcDbCircle
 10
94.8130907645
 20
191.1824075086
 30
0.0
 40
1.0
100
AcDbArc
 50
270.0
 51
324.3146652873
  0
ARC
  5
15B
330
1F
100
AcDbEntity
  8
0
  6
CONTINUOUS
 62
     7
100
AcDbCircle
 10
94.8130907645
 20
172.6824075086
 30
0.0
 40
1.0
100
AcDbArc
 50
35.6853347127
 51
90.0
  0
LINE
  5
15C
330
1F
100
AcDbEntity
  8
0
  6
CONTINUOUS
 62
     7
100
AcDbLine
 10
94.1291161683
 20
173.6824075086
 30
0.0
 11
94.8130907645
 21
173.6824075086
 31
0.0
  0
LINE
  5
15D
330
1F
100
AcDbEntity
  8
0
  6
CONTINUOUS
 62
     7
100
AcDbLine
 10
94.8130907645
 20
190.1824075086
 30
0.0
 11
94.1291161683
 21
190.1824075086
 31
0.0
  0
ARC
  5
15E
330
1F
100
AcDbEntity
  8
0
  6
CONTINUOUS
 62
     7
100
AcDbCircle
 10
94.1291161683
 20
189.9824075086
 30
0.0
 40
0.2000000000000028
100
AcDbArc
 50
90.0
 51
180.0
  0
ARC
  5
15F
330
1F
100
AcDbEntity
  8
0
  6
CONTINUOUS
 62
     7
100
AcDbCircle
 10
94.1291161683
 20
173.8824075086
 30
0.0
 40
0.2000000000000028
100
AcDbArc
 50
180.0
 51
270.0
  0
LINE
  5
160
330
1F
100
AcDbEntity
  8
0
  6
CONTINUOUS
 62
     7
100
AcDbLine
 10
173.7131026424
 20
171.9363638003
 30
0.0
 11
173.9291161683
 21
171.9324075086
 31
0.0
  0
LINE
  5
161
330
1F
100
AcDbEntity
  8
0
  6
CONTINUOUS
 62
     7
100
AcDbLine
 10
105.6791161683
 20
173.1824075086
 30
0.0
 11
105.8477456102
 21
173.1793190573
 31
0.0
  0
LINE
  5
162
330
1F
100
AcDbEntity
  8
0
  6
CONTINUOUS
 62
     7
100
AcDbLine
 10
105.8477456102
 20
190.6854959599
 30
0.0
 11
105.6791161683
 21
190.6824075086
 31
0.0
  0
LINE
  5
163
330
1F
100
AcDbEntity
  8
0
  6
CONTINUOUS
 62
     7
100
AcDbLine
 10
173.9291161683
 20
191.9324075086
 30
0.0
 11
173.7131026424
 21
191.9284512169
 31
0.0
  0
LINE
  5
164
330
1F
100
AcDbEntity
  8
0
  6
CONTINUOUS
 62
     7
100
AcDbLine
 10
63.9291161683
 20
221.9324075086
 30
0.0
 11
63.9291161683
 21
196.9324075086
 31
0.0
  0
LINE
  5
165
330
1F
100
AcDbEntity
  8
0
  6
CONTINUOUS
 62
     7
100
AcDbLine
 10
79.9291161683
 20
216.3985124499
 30
0.0
 11
79.9291161683
 21
221.9324075086
 31
0.0
  0
LINE
  5
166
330
1F
100
AcDbEntity
  8
0
  6
CONTINUOUS
 62
     7
100
AcDbLine
 10
79.9291161683
 20
196.9324075086
 30
0.0
 11
79.9291161683
 21
211.4324075086
 31
0.0
  0
ARC
  5
167
330
1F
100
AcDbEntity
  8
0
  6
CONTINUOUS
 62
     7
100
AcDbCircle
 10
86.9291161683
 20
196.9324075086
 30
0.0
 40
7.000000000000028
100
AcDbArc
 50
180.0
 51
270.0
  0
ARC
  5
168
330
1F
100
AcDbEntity
  8
0
  6
CONTINUOUS
 62
     7
100
AcDbCircle
 10
86.9291161683
 20
196.9324075086
 30
0.0
 40
23.0
100
AcDbArc
 50
180.0
 51
270.0
  0
LINE
  5
169
330
1F
100
AcDbEntity
  8
0
  6
CONTINUOUS
 62
     7
100
AcDbLine
 10
93.9291161683
 20
189.9324075086
 30
0.0
 11
86.9291161683
 21
189.9324075086
 31
0.0
  0
LINE
  5
16A
330
1F
100
AcDbEntity
  8
0
  6
CONTINUOUS
 62
     7
100
AcDbLine
 10
86.9291161683
 20
173.9324075086
 30
0.0
 11
93.9291161683
 21
173.9324075086
 31
0.0
  0
LINE
  5
16B
330
1F
100
AcDbEntity
  8
0
  6
CONTINUOUS
 62
     7
100
AcDbLine
 10
173.9291161683
 20
171.9324075086
 30
0.0
 11
173.9291161683
 21
172.7166508327
 31
0.0
  0
LINE
  5
16C
330
1F
100
AcDbEntity
  8
0
  6
CONTINUOUS
 62
     7
100
AcDbLine
 10
173.9291189707
 20
172.717242148
 30
0.0
 11
173.9291161683
 21
172.7166508327
 31
0.0
  0
ELLIPSE
  5
16D
330
1F
100
AcDbEntity
  8
0
  6
CONTINUOUS
 62
     7
100
AcDbEllipse
 10
174.1122663514
 20
181.9324075086
 30
0.0
 11
0.1683886257916925
 21
9.999999926429981
 31
0.0
210
0.0
220
0.0
230
1.0
 40
0.0072036521
 41
2.731821508680198
 42
2.742885379220708
  0
LINE
  5
16E
330
1F
100
AcDbEntity
  8
0
  6
CONTINUOUS
 62
     7
100
AcDbLine
 10
173.9291161683
 20
172.7613776334
 30
0.0
 11
173.9291189707
 21
172.7607706141
 31
0.0
  0
LINE
  5
16F
330
1F
100
AcDbEntity
  8
0
  6
CONTINUOUS
 62
     7
100
AcDbLine
 10
173.9291161683
 20
172.7613776334
 30
0.0
 11
173.9291161683
 21
175.3136290096
 31
0.0
  0
LINE
  5
170
330
1F
100
AcDbEntity
  8
0
  6
CONTINUOUS
 62
     7
100
AcDbLine
 10
173.9291189707
 20
175.3147707096
 30
0.0
 11
173.9291161683
 21
175.3136290096
 31
0.0
  0
ELLIPSE
  5
171
330
1F
100
AcDbEntity
  8
0
  6
CONTINUOUS
 62
     7
100
AcDbEllipse
 10
174.1122663514
 20
181.9324075086
 30
0.0
 11
0.1204636275002144
 21
9.999999861905023
 31
0.0
210
0.0
220
0.0
230
1.0
 40
0.0137958344
 41
2.283067446485128
 42
2.294131317025625
  0
LINE
  5
172
330
1F
100
AcDbEntity
  8
0
  6
CONTINUOUS
 62
     7
100
AcDbLine
 10
173.9291161683
 20
175.3992741966
 30
0.0
 11
173.9291189707
 21
175.3981212636
 31
0.0
  0
LINE
  5
173
330
1F
100
AcDbEntity
  8
0
  6
CONTINUOUS
 62
     7
100
AcDbLine
 10
173.9291161683
 20
175.3992741966
 30
0.0
 11
173.9291161683
 21
179.2215374422
 31
0.0
  0
LINE
  5
174
330
1F
100
AcDbEntity
  8
0
  6
CONTINUOUS
 62
     7
100
AcDbLine
 10
173.9291189707
 20
179.2230033993
 30
0.0
 11
173.9291161683
 21
179.2215374422
 31
0.0
  0
ELLIPSE
  5
175
330
1F
100
AcDbEntity
  8
0
  6
CONTINUOUS
 62
     7
100
AcDbEllipse
 10
174.1122663514
 20
181.9324075086
 30
0.0
 11
0.04866192431467198
 21
9.999999963087873
 31
0.0
210
0.0
220
0.0
230
1.0
 40
0.0176567287
 41
1.834188227386239
 42
1.845252097926739
  0
LINE
  5
176
330
1F
100
AcDbEntity
  8
0
  6
CONTINUOUS
 62
     7
100
AcDbLine
 10
173.9291161683
 20
179.3311379358
 30
0.0
 11
173.9291189707
 21
179.3296674416
 31
0.0
  0
LINE
  5
177
330
1F
100
AcDbEntity
  8
0
  6
CONTINUOUS
 62
     7
100
AcDbLine
 10
173.9291161683
 20
179.3311379358
 30
0.0
 11
173.9291161683
 21
183.6663669381
 31
0.0
  0
LINE
  5
178
330
1F
100
AcDbEntity
  8
0
  6
CONTINUOUS
 62
     7
100
AcDbLine
 10
173.9291189707
 20
183.6678668015
 30
0.0
 11
173.9291161683
 21
183.6663669381
 31
0.0
  0
ELLIPSE
  5
179
330
1F
100
AcDbEntity
  8
0
  6
CONTINUOUS
 62
     7
100
AcDbEllipse
 10
174.1122663514
 20
181.9324075086
 30
0.0
 11
-0.03279292557917302
 21
9.999999982541993
 31
0.0
210
0.0
220
0.0
230
1.0
 40
0.0180190493
 41
1.385244266099373
 42
1.39630813663988
  0
LINE
  5
17A
330
1F
100
AcDbEntity
  8
0
  6
CONTINUOUS
 62
     7
100
AcDbLine
 10
173.9291161683
 20
183.7782150163
 30
0.0
 11
173.9291189707
 21
183.7767182105
 31
0.0
  0
LINE
  5
17B
330
1F
100
AcDbEntity
  8
0
  6
CONTINUOUS
 62
     7
100
AcDbLine
 10
173.9291161683
 20
183.7782150163
 30
0.0
 11
173.9291161683
 21
187.7677645034
 31
0.0
  0
LINE
  5
17C
330
1F
100
AcDbEntity
  8
0
  6
CONTINUOUS
 62
     7
100
AcDbLine
 10
173.9291189707
 20
187.7690012067
 30
0.0
 11
173.9291161683
 21
187.7677645034
 31
0.0
  0
ELLIPSE
  5
17D
330
1F
100
AcDbEntity
  8
0
  6
CONTINUOUS
 62
     7
100
AcDbEllipse
 10
174.1122663514
 20
181.9324075086
 30
0.0
 11
-0.1077420125697586
 21
9.999999872681741
 31
0.0
210
0.0
220
0.0
230
1.0
 40
0.0148106883
 41
0.936344831983443
 42
0.9474087025239456
  0
LINE
  5
17E
330
1F
100
AcDbEntity
  8
0
  6
CONTINUOUS
 62
     7
100
AcDbLine
 10
173.9291161683
 20
187.8597072827
 30
0.0
 11
173.9291189707
 21
187.8584806258
 31
0.0
  0
LINE
  5
17F
330
1F
100
AcDbEntity
  8
0
  6
CONTINUOUS
 62
     7
100
AcDbLine
 10
173.9291161683
 20
187.8597072827
 30
0.0
 11
173.9291161683
 21
190.7133980499
 31
0.0
  0
LINE
  5
180
330
1F
100
AcDbEntity
  8
0
  6
CONTINUOUS
 62
     7
100
AcDbLine
 10
173.9291189707
 20
190.7141266488
 30
0.0
 11
173.9291161683
 21
190.7133980499
 31
0.0
  0
ELLIPSE
  5
181
330
1F
100
AcDbEntity
  8
0
  6
CONTINUOUS
 62
     7
100
AcDbEllipse
 10
174.1122663514
 20
181.9324075086
 30
0.0
 11
-0.1613316581664606
 21
9.999999902186035
 31
0.0
210
0.0
220
0.0
230
1.0
 40
0.0086695362
 41
0.4875655877420201
 42
0.4986294582825288
  0
LINE
  5
182
330
1F
100
AcDbEntity
  8
0
  6
CONTINUOUS
 62
     7
100
AcDbLine
 10
173.9291161683
 20
190.7672251352
 30
0.0
 11
173.9291189707
 21
190.7665115818
 31
0.0
  0
LINE
  5
183
330
1F
100
AcDbEntity
  8
0
  6
CONTINUOUS
 62
     7
100
AcDbLine
 10
173.9291161683
 20
190.7672251352
 30
0.0
 11
173.9291161683
 21
191.9198487279
 31
0.0
  0
LINE
  5
184
330
1F
100
AcDbEntity
  8
0
  6
CONTINUOUS
 62
     7
100
AcDbLine
 10
173.9291189707
 20
191.9199249146
 30
0.0
 11
173.9291161683
 21
191.9198487279
 31
0.0
  0
ELLIPSE
  5
185
330
1F
100
AcDbEntity
  8
0
  6
CONTINUOUS
 62
     7
100
AcDbEllipse
 10
174.1122663514
 20
181.9324075086
 30
0.0
 11
-0.182969493776568
 21
9.999999998892294
 31
0.0
210
0.0
220
0.0
230
1.0
 40
0.0008133507
 41
0.0388916224620291
 42
0.0499554930025701
  0
LINE
  5
186
330
1F
100
AcDbEntity
  8
0
  6
CONTINUOUS
 62
     7
100
AcDbLine
 10
173.9291161683
 20
191.9248990048
 30
0.0
 11
173.9291189707
 21
191.9248398829
 31
0.0
  0
LINE
  5
187
330
1F
100
AcDbEntity
  8
0
  6
CONTINUOUS
 62
     7
100
AcDbLine
 10
173.9291161683
 20
191.9248990048
 30
0.0
 11
173.9291161683
 21
191.9324075086
 31
0.0
  0
LINE
  5
188
330
1F
100
AcDbEntity
  8
0
  6
CONTINUOUS
 62
     7
100
AcDbLine
 10
105.6791192999
 20
190.6760289375
 30
0.0
 11
105.6791161683
 21
190.6824075086
 31
0.0
  0
ELLIPSE
  5
189
330
1F
100
AcDbEntity
  8
0
  6
CONTINUOUS
 62
     7
100
AcDbEllipse
 10
105.839426353
 20
181.9294743232
 30
0.0
 11
-0.1601520284520461
 21
8.7529360820281
 31
0.0
210
0.0
220
0.0
230
1.0
 40
0.0008133506
 41
0.038172935130579
 42
0.0444235552288682
  0
ELLIPSE
  5
18A
330
1F
100
AcDbEntity
  8
0
  6
CONTINUOUS
 62
     7
100
AcDbEllipse
 10
105.839426353
 20
181.9294743232
 30
0.0
 11
-0.1601520284520461
 21
8.7529360820281
 31
0.0
210
0.0
220
0.0
230
1.0
 40
0.0008133506
 41
0.0444235552288682
 42
0.0506741753314381
  0
LWPOLYLINE
  5
18B
330
1F
100
AcDbEntity
  8
0
  6
CONTINUOUS
 62
     7
100
AcDbPolyline
 90
        9
 70
   128
 43
0.0
 10
105.6791192999
 20
189.6652020017
 10
105.6791192953
 20
189.8769047362
 10
105.6791192813
 20
190.0649844018
 10
105.6791192581
 20
190.2288817411
 10
105.6791192257
 20
190.368109403
 10
105.6791191842
 20
190.4822533924
 10
105.6791191338
 20
190.5709743005
 10
105.6791190745
 20
190.6340083145
 10
105.6791192999
 20
190.671168002
  0
ELLIPSE
  5
18C
330
1F
100
AcDbEntity
  8
0
  6
CONTINUOUS
 62
     7
100
AcDbEllipse
 10
105.839426353
 20
181.9298213922
 30
0.0
 11
-0.1412125710055534
 21
8.752935887955973
 31
0.0
210
0.0
220
0.0
230
1.0
 40
0.0086695359
 41
0.4868468794500876
 42
0.493097499550316
  0
ELLIPSE
  5
18D
330
1F
100
AcDbEntity
  8
0
  6
CONTINUOUS
 62
     7
100
AcDbEllipse
 10
105.839426353
 20
181.9298213922
 30
0.0
 11
-0.1412125710055534
 21
8.752935887955973
 31
0.0
210
0.0
220
0.0
230
1.0
 40
0.0086695359
 41
0.493097499550316
 42
0.4993481196509034
  0
LWPOLYLINE
  5
18E
330
1F
100
AcDbEntity
  8
0
  6
CONTINUOUS
 62
     7
100
AcDbPolyline
 90
        9
 70
   128
 43
0.0
 10
105.6791192999
 20
187.12280028
 10
105.6791192953
 20
187.4990664459
 10
105.6791192813
 20
187.8587800769
 10
105.6791192581
 20
188.2008715596
 10
105.6791192257
 20
188.5243236805
 10
105.6791191842
 20
188.8281746503
 10
105.6791191338
 20
189.1115209642
 10
105.6791190745
 20
189.373520088
 10
105.6791192999
 20
189.6133929639
  0
ELLIPSE
  5
18F
330
1F
100
AcDbEntity
  8
0
  6
CONTINUOUS
 62
     7
100
AcDbEllipse
 10
105.839426353
 20
181.9306806733
 30
0.0
 11
-0.09430589842921222
 21
8.752935650428498
 31
0.0
210
0.0
220
0.0
230
1.0
 40
0.0148106886
 41
0.9356261203778077
 42
0.9418767404781426
  0
ELLIPSE
  5
190
330
1F
100
AcDbEntity
  8
0
  6
CONTINUOUS
 62
     7
100
AcDbEllipse
 10
105.839426353
 20
181.9306806733
 30
0.0
 11
-0.09430589842921222
 21
8.752935650428498
 31
0.0
210
0.0
220
0.0
230
1.0
 40
0.0148106886
 41
0.9418767404781426
 42
0.9481273605786152
  0
LWPOLYLINE
  5
191
330
1F
100
AcDbEntity
  8
0
  6
CONTINUOUS
 62
     7
100
AcDbPolyline
 90
        9
 70
   128
 43
0.0
 10
105.6791192999
 20
183.552377614
 10
105.6791192953
 20
184.0186830825
 10
105.6791192813
 20
184.4787849826
 10
105.6791192581
 20
184.9313151951
 10
105.6791192257
 20
185.3749281155
 10
105.6791191842
 20
185.8083046547
 10
105.6791191338
 20
186.2301561619
 10
105.6791190745
 20
186.6392282558
 10
105.6791192999
 20
187.0343045552
  0
ELLIPSE
  5
192
330
1F
100
AcDbEntity
  8
0
  6
CONTINUOUS
 62
     7
100
AcDbEllipse
 10
105.839426353
 20
181.9318819753
 30
0.0
 11
-0.02870343972418255
 21
8.752935592024642
 31
0.0
210
0.0
220
0.0
230
1.0
 40
0.0180190502
 41
1.384525571352267
 42
1.39077619145265
  0
ELLIPSE
  5
193
330
1F
100
AcDbEntity
  8
0
  6
CONTINUOUS
 62
     7
100
AcDbEllipse
 10
105.839426353
 20
181.9318819753
 30
0.0
 11
-0.02870343972418255
 21
8.752935592024642
 31
0.0
210
0.0
220
0.0
230
1.0
 40
0.0180190502
 41
1.39077619145265
 42
1.397026811553072
  0
LWPOLYLINE
  5
194
330
1F
100
AcDbEntity
  8
0
  6
CONTINUOUS
 62
     7
100
AcDbPolyline
 90
        9
 70
   128
 43
0.0
 10
105.6791192999
 20
179.661100001
 10
105.6791192953
 20
180.1250872552
 10
105.6791192813
 20
180.5944486003
 10
105.6791192581
 20
181.0677883842
 10
105.6791192257
 20
181.5436991246
 10
105.6791191842
 20
182.0207656946
 10
105.6791191338
 20
182.4975695304
 10
105.6791190745
 20
182.9726928493
 10
105.6791192999
 20
183.4447228659
  0
ELLIPSE
  5
195
330
1F
100
AcDbEntity
  8
0
  6
CONTINUOUS
 62
     7
100
AcDbEllipse
 10
105.839426353
 20
181.9331873656
 30
0.0
 11
0.04259347355343834
 21
8.752935593961155
 31
0.0
210
0.0
220
0.0
230
1.0
 40
0.0176567296
 41
1.833469556975807
 42
1.839720177076238
  0
ELLIPSE
  5
196
330
1F
100
AcDbEntity
  8
0
  6
CONTINUOUS
 62
     7
100
AcDbEllipse
 10
105.839426353
 20
181.9331873656
 30
0.0
 11
0.04259347355343834
 21
8.752935593961155
 31
0.0
210
0.0
220
0.0
230
1.0
 40
0.0176567296
 41
1.839720177076238
 42
1.84597079717662
  0
LWPOLYLINE
  5
197
330
1F
100
AcDbEntity
  8
0
  6
CONTINUOUS
 62
     7
100
AcDbPolyline
 90
        9
 70
   128
 43
0.0
 10
105.6791192999
 20
176.2196826956
 10
105.6791192953
 20
176.5894533694
 10
105.6791192813
 20
176.9751113888
 10
105.6791192581
 20
177.3755099947
 10
105.6791192257
 20
177.7894585964
 10
105.6791191842
 20
178.2157263121
 10
105.6791191338
 20
178.6530456292
 10
105.6791190745
 20
179.1001161728
 10
105.6791192999
 20
179.5556085726
  0
ELLIPSE
  5
198
330
1F
100
AcDbEntity
  8
0
  6
CONTINUOUS
 62
     7
100
AcDbEllipse
 10
105.839426353
 20
181.9343382957
 30
0.0
 11
0.1054410465623335
 21
8.752935683608769
 31
0.0
210
0.0
220
0.0
230
1.0
 40
0.0137958345
 41
2.282348789538949
 42
2.288599409639436
  0
ELLIPSE
  5
199
330
1F
100
AcDbEntity
  8
0
  6
CONTINUOUS
 62
     7
100
AcDbEllipse
 10
105.839426353
 20
181.9343382957
 30
0.0
 11
0.1054410465623335
 21
8.752935683608769
 31
0.0
210
0.0
220
0.0
230
1.0
 40
0.0137958345
 41
2.288599409639436
 42
2.29485002973975
  0
LWPOLYLINE
  5
19A
330
1F
100
AcDbEntity
  8
0
  6
CONTINUOUS
 62
     7
100
AcDbPolyline
 90
        9
 70
   128
 43
0.0
 10
105.6791192999
 20
173.9097406014
 10
105.6791192953
 20
174.1120570779
 10
105.6791192813
 20
174.3376274711
 10
105.6791192581
 20
174.5857810445
 10
105.6791192257
 20
174.8557799101
 10
105.6791191842
 20
175.1468212227
 10
105.6791191338
 20
175.458039567
 10
105.6791190745
 20
175.7885095312
 10
105.6791192999
 20
176.1372484582
  0
ELLIPSE
  5
19B
330
1F
100
AcDbEntity
  8
0
  6
CONTINUOUS
 62
     7
100
AcDbEllipse
 10
105.839426353
 20
181.9351068097
 30
0.0
 11
0.1473894891651213
 21
8.75293594334957
 31
0.0
210
0.0
220
0.0
230
1.0
 40
0.0072036518
 41
2.73110284419697
 42
2.737353464297613
  0
ELLIPSE
  5
19C
330
1F
100
AcDbEntity
  8
0
  6
CONTINUOUS
 62
     7
100
AcDbEllipse
 10
105.839426353
 20
181.9351068097
 30
0.0
 11
0.1473894891651213
 21
8.75293594334957
 31
0.0
210
0.0
220
0.0
230
1.0
 40
0.0072036518
 41
2.737353464297613
 42
2.743604084397769
  0
LWPOLYLINE
  5
19D
330
1F
100
AcDbEntity
  8
0
  6
CONTINUOUS
 62
     7
100
AcDbPolyline
 90
        9
 70
   128
 43
0.0
 10
105.6791161683
 20
173.1824075086
 10
105.6791192953
 20
173.1835770995
 10
105.6791192813
 20
173.2043828837
 10
105.6791192581
 20
173.251141566
 10
105.6791192257
 20
173.3237141089
 10
105.6791191842
 20
173.4218847169
 10
105.6791191338
 20
173.5453614785
 10
105.6791190745
 20
173.6937772339
 10
105.6791192999
 20
173.8666906667
  0
SPLINE
  5
19E
330
1F
100
AcDbEntity
  8
0
  6
CONTINUOUS
 62
     7
100
AcDbSpline
210
0.0
220
0.0
230
1.0
 70
     8
 71
     3
 72
    14
 73
    10
 74
     0
 42
0.00000001
 43
0.00000001
 40
0.0
 40
0.0
 40
0.0
 40
0.0
 40
0.4393330213527931
 40
0.686224252617357
 40
0.7797758228735958
 40
0.8877620801209786
 40
0.9315133799719542
 40
0.9756933690852775
 40
0.9999999999999999
 40
0.9999999999999999
 40
0.9999999999999999
 40
0.9999999999999999
 10
169.9871555180152
 20
180.2729625948562
 30
0.0
 10
170.6136590629242
 20
180.2725054559977
 30
0.0
 10
171.5922377400823
 20
180.2717914195918
 30
0.0
 10
172.7044937693136
 20
180.138142561775
 30
0.0
 10
173.3158644863292
 20
179.9512234281438
 30
0.0
 10
173.6341235959188
 20
179.7916222535719
 30
0.0
 10
173.8347464938697
 20
179.59980280327
 30
0.0
 10
173.9173608702557
 20
179.4594336221623
 30
0.0
 10
173.9260369390397
 20
179.3647442149398
 30
0.0
 10
173.929116168262
 20
179.3311379357579
 30
0.0
  0
LWPOLYLINE
  5
19F
330
1F
100
AcDbEntity
  8
0
  6
CONTINUOUS
 62
     7
100
AcDbPolyline
 90
        3
 70
   128
 43
0.0
 10
109.7984224206
 20
180.5674466436
 10
122.8423236792
 20
180.5035919354
 10
169.987155518
 20
180.2729625949
  0
SPLINE
  5
1A0
330
1F
100
AcDbEntity
  8
0
  6
CONTINUOUS
 62
     7
100
AcDbSpline
210
0.0
220
0.0
230
1.0
 70
     8
 71
     3
 72
    14
 73
    10
 74
     0
 42
0.00000001
 43
0.00000001
 40
0.0
 40
0.0
 40
0.0
 40
0.0
 40
0.0308499065074142
 40
0.0688165367071681
 40
0.1296992433581893
 40
0.2526299003951539
 40
0.4573713859133267
 40
0.6632003120895815
 40
1.0
 40
1.0
 40
1.0
 40
1.0
 10
105.6791192999314
 20
179.6611000009957
 30
0.0
 10
105.6843226231432
 20
179.7055598569289
 30
0.0
 10
105.695929617243
 20
179.8047359535272
 30
0.0
 10
105.802705580929
 20
179.9669203621104
 30
0.0
 10
106.0577329052963
 20
180.1744831693226
 30
0.0
 10
106.6000567002842
 20
180.389834842063
 30
0.0
 10
107.3826068945937
 20
180.5273150294184
 30
0.0
 10
108.4926122531671
 20
180.5749492486846
 30
0.0
 10
109.2983288303953
 20
180.5703199592079
 30
0.0
 10
109.7984224205784
 20
180.5674466436279
 30
0.0
  0
SPLINE
  5
1A1
330
1F
100
AcDbEntity
  8
0
  6
CONTINUOUS
 62
     7
100
AcDbSpline
210
0.0
220
0.0
230
1.0
 70
     8
 71
     3
 72
    15
 73
    11
 74
     0
 42
0.00000001
 43
0.00000001
 40
0.0
 40
0.0
 40
0.0
 40
0.0
 40
0.4220208280299077
 40
0.5757675349191161
 40
0.7291070677651661
 40
0.8107516775739801
 40
0.9187236235674634
 40
0.9553715006344983
 40
0.9923845056542744
 40
1.0
 40
1.0
 40
1.0
 40
1.0
 10
109.7984224207213
 20
182.5180608076777
 30
0.0
 10
109.1712905603257
 20
182.5132536248048
 30
0.0
 10
108.3156878475051
 20
182.5066951337334
 30
0.0
 10
107.2361110703728
 20
182.5905024484902
 30
0.0
 10
106.6657982223134
 20
182.6985063248206
 30
0.0
 10
106.1861959250101
 20
182.8648322456146
 30
0.0
 10
105.8861658078626
 20
183.037742271353
 30
0.0
 10
105.7209154979153
 20
183.2515331627909
 30
0.0
 10
105.6813255927308
 20
183.3682873999973
 30
0.0
 10
105.6794409064768
 20
183.4335810327584
 30
0.0
 10
105.6791192999314
 20
183.444722865851
 30
0.0
  0
LWPOLYLINE
  5
1A2
330
1F
100
AcDbEntity
  8
0
  6
CONTINUOUS
 62
     7
100
AcDbPolyline
 90
        3
 70
   128
 43
0.0
 10
169.987155518
 20
182.7165089534
 10
154.3099430856
 20
182.6648448733
 10
109.7984224207
 20
182.5180608077
  0
SPLINE
  5
1A3
330
1F
100
AcDbEntity
  8
0
  6
CONTINUOUS
 62
     7
100
AcDbSpline
210
0.0
220
0.0
230
1.0
 70
     8
 71
     3
 72
    14
 73
    10
 74
     0
 42
0.00000001
 43
0.00000001
 40
0.0
 40
0.0
 40
0.0
 40
0.0
 40
0.0324876077239682
 40
0.0725202418843319
 40
0.1366529854345034
 40
0.2657907900992751
 40
0.4813797232943872
 40
0.6981231343106269
 40
1.0
 40
1.0
 40
1.0
 40
1.0
 10
173.929116168262
 20
183.6663669381172
 30
0.0
 10
173.9236822787863
 20
183.6205020731543
 30
0.0
 10
173.9115525158781
 20
183.5181205395752
 30
0.0
 10
173.8030373547323
 20
183.3507152892662
 30
0.0
 10
173.5448860083105
 20
183.1366854156921
 30
0.0
 10
172.9963545777385
 20
182.9141637072518
 30
0.0
 10
172.2049692146055
 20
182.7711119670608
 30
0.0
 10
171.1574949680512
 20
182.7212179521675
 30
0.0
 10
170.4177461766694
 20
182.7182414856971
 30
0.0
 10
169.9871555180118
 20
182.7165089534201
 30
0.0
  0
LINE
  5
1A4
330
1F
100
AcDbEntity
  8
0
  6
CONTINUOUS
 62
     7
100
AcDbLine
 10
93.9291161683
 20
186.6669533456
 30
0.0
 11
93.9291161683
 21
189.9824075086
 31
0.0
  0
LINE
  5
1A5
330
1F
100
AcDbEntity
  8
0
  6
CONTINUOUS
 62
     7
100
AcDbLine
 10
93.9291161683
 20
173.8824075086
 30
0.0
 11
93.9291161683
 21
186.6669533456
 31
0.0
  0
SPLINE
  5
1A6
330
1F
100
AcDbEntity
  8
0
  6
CONTINUOUS
 62
     7
100
AcDbSpline
210
0.0
220
0.0
230
1.0
 70
     8
 71
     3
 72
    14
 73
    10
 74
     0
 42
0.00000001
 43
0.00000001
 40
0.0
 40
0.0
 40
0.0
 40
0.0
 40
0.4393330213524207
 40
0.6862242526167752
 40
0.7797758228727832
 40
0.8877620801200755
 40
0.9315133799709241
 40
0.9756933690841236
 40
1.0
 40
1.0
 40
1.0
 40
1.0
 10
169.9871555180152
 20
176.1903883176082
 30
0.0
 10
170.6136590629242
 20
176.1849668452717
 30
0.0
 10
171.5922377400823
 20
176.1764986773412
 30
0.0
 10
172.7044937693133
 20
176.0570292951711
 30
0.0
 10
173.3158644863287
 20
175.8994053894657
 30
0.0
 10
173.6341235959181
 20
175.7674345105877
 30
0.0
 10
173.8347464938689
 20
175.6122710963941
 30
0.0
 10
173.9173608702561
 20
175.5001568133522
 30
0.0
 10
173.9260369390398
 20
175.4256997879325
 30
0.0
 10
173.929116168262
 20
175.3992741965512
 30
0.0
  0
LWPOLYLINE
  5
1A7
330
1F
100
AcDbEntity
  8
0
  6
CONTINUOUS
 62
     7
100
AcDbPolyline
 90
        3
 70
   128
 43
0.0
 10
109.7984224206
 20
176.9194783834
 10
122.8423236792
 20
176.7613854966
 10
169.987155518
 20
176.1903883176
  0
SPLINE
  5
1A8
330
1F
100
AcDbEntity
  8
0
  6
CONTINUOUS
 62
     7
100
AcDbSpline
210
0.0
220
0.0
230
1.0
 70
     8
 71
     3
 72
    14
 73
    10
 74
     0
 42
0.00000001
 43
0.00000001
 40
0.0
 40
0.0
 40
0.0
 40
0.0
 40
0.0308499065074137
 40
0.0688165367071674
 40
0.1296992433581911
 40
0.2526299003951559
 40
0.4573713859133324
 40
0.6632003120895903
 40
1.0
 40
1.0
 40
1.0
 40
1.0
 10
105.6791192999314
 20
176.2196826956243
 30
0.0
 10
105.6843226231432
 20
176.2546120638529
 30
0.0
 10
105.695929617243
 20
176.3325286095735
 30
0.0
 10
105.802705580929
 20
176.4608599307062
 30
0.0
 10
106.0577329052963
 20
176.6259508246142
 30
0.0
 10
106.6000567002842
 20
176.7978565095931
 30
0.0
 10
107.3826068945937
 20
176.9051486964053
 30
0.0
 10
108.492612253167
 20
176.9363821244555
 30
0.0
 10
109.2983288303952
 20
176.9259521058318
 30
0.0
 10
109.7984224205784
 20
176.9194783834255
 30
0.0
  0
SPLINE
  5
1A9
330
1F
100
AcDbEntity
  8
0
  6
CONTINUOUS
 62
     7
100
AcDbSpline
210
0.0
220
0.0
230
1.0
 70
     8
 71
     3
 72
    15
 73
    11
 74
     0
 42
0.00000001
 43
0.00000001
 40
0.0
 40
0.0
 40
0.0
 40
0.0
 40
0.4220208280299134
 40
0.575767534919112
 40
0.7291070677651522
 40
0.8107516775739675
 40
0.9187236235674605
 40
0.9553715006344965
 40
0.9923845056542716
 40
1.0
 40
1.0
 40
1.0
 40
1.0
 10
109.7984224207213
 20
178.6392862232532
 30
0.0
 10
109.1712905603257
 20
178.639833742418
 30
0.0
 10
108.315687847505
 20
178.6405807286777
 30
0.0
 10
107.2361110703728
 20
178.7270254938755
 30
0.0
 10
106.6657982223134
 20
178.8326842262723
 30
0.0
 10
106.1861959250102
 20
178.9933775084517
 30
0.0
 10
105.8861658078626
 20
179.1600362088193
 30
0.0
 10
105.7209154979153
 20
179.3672909961245
 30
0.0
 10
105.6813255927308
 20
179.4809464964709
 30
0.0
 10
105.6794409064768
 20
179.5447252427421
 30
0.0
 10
105.6791192999314
 20
179.5556085726436
 30
0.0
  0
LWPOLYLINE
  5
1AA
330
1F
100
AcDbEntity
  8
0
  6
CONTINUOUS
 62
     7
100
AcDbPolyline
 90
        3
 70
   128
 43
0.0
 10
169.987155518
 20
178.3448021745
 10
154.3099430856
 20
178.4214682851
 10
109.7984224207
 20
178.6392862233
  0
SPLINE
  5
1AB
330
1F
100
AcDbEntity
  8
0
  6
CONTINUOUS
 62
     7
100
AcDbSpline
210
0.0
220
0.0
230
1.0
 70
     8
 71
     3
 72
    14
 73
    10
 74
     0
 42
0.00000001
 43
0.00000001
 40
0.0
 40
0.0
 40
0.0
 40
0.0
 40
0.0324876077239086
 40
0.0725202418841318
 40
0.1366529854339687
 40
0.2657907900978128
 40
0.4813797232905684
 40
0.6981231343044371
 40
1.0
 40
1.0
 40
1.0
 40
1.0
 10
173.929116168262
 20
179.2215374422146
 30
0.0
 10
173.9236822787865
 20
179.1768428984711
 30
0.0
 10
173.9115525158785
 20
179.0770738064923
 30
0.0
 10
173.8030373547337
 20
178.9160892804281
 30
0.0
 10
173.5448860083139
 20
178.7128232575693
 30
0.0
 10
172.9963545777473
 20
178.5062596507818
 30
0.0
 10
172.2049692146224
 20
178.3779102056934
 30
0.0
 10
171.1574949680658
 20
178.3399892535216
 30
0.0
 10
170.4177461766783
 20
178.3430314072006
 30
0.0
 10
169.9871555180119
 20
178.3448021744822
 30
0.0
  0
SPLINE
  5
1AC
330
1F
100
AcDbEntity
  8
0
  6
CONTINUOUS
 62
     7
100
AcDbSpline
210
0.0
220
0.0
230
1.0
 70
     8
 71
     3
 72
    10
 73
     6
 74
     0
 42
0.00000001
 43
0.00000001
 40
0.0
 40
0.0
 40
0.0
 40
0.0
 40
0.368634104325763
 40
0.7479587163000737
 40
1.0
 40
1.0
 40
1.0
 40
1.0
 10
169.5894556589393
 20
183.4700412013891
 30
0.0
 10
170.1427108072116
 20
183.4771330490155
 30
0.0
 10
171.2652656810886
 20
183.4915224101315
 30
0.0
 10
172.7250713670191
 20
183.5659309868341
 30
0.0
 10
173.5855970809353
 20
183.6387839117386
 30
0.0
 10
173.929118970664
 20
183.6678668014543
 30
0.0
  0
SPLINE
  5
1AD
330
1F
100
AcDbEntity
  8
0
  6
CONTINUOUS
 62
     7
100
AcDbSpline
210
0.0
220
0.0
230
1.0
 70
     8
 71
     3
 72
    14
 73
    10
 74
     0
 42
0.00000001
 43
0.00000001
 40
0.0
 40
0.0
 40
0.0
 40
0.0
 40
0.439333021353136
 40
0.6862242526178857
 40
0.7797758228743449
 40
0.8877620801218216
 40
0.9315133799728978
 40
0.9756933690863375
 40
1.0
 40
1.0
 40
1.0
 40
1.0
 10
169.9871555180153
 20
184.6842102890299
 30
0.0
 10
170.6136590629243
 20
184.6888080256067
 30
0.0
 10
171.5922377400824
 20
184.6959895443927
 30
0.0
 10
172.7044937693137
 20
184.5746320063156
 30
0.0
 10
173.3158644863296
 20
184.3954392715869
 30
0.0
 10
173.6341235959195
 20
184.239818771325
 30
0.0
 10
173.8347464938703
 20
184.0493354795582
 30
0.0
 10
173.9173608702553
 20
183.9085132382182
 30
0.0
 10
173.9260369390396
 20
183.8123458475831
 30
0.0
 10
173.929116168262
 20
183.7782150163466
 30
0.0
  0
LWPOLYLINE
  5
1AE
330
1F
100
AcDbEntity
  8
0
  6
CONTINUOUS
 62
     7
100
AcDbPolyline
 90
        3
 70
   128
 43
0.0
 10
109.7984224206
 20
184.4857621433
 10
122.8423236792
 20
184.5287928218
 10
169.987155518
 20
184.684210289
  0
SPLINE
  5
1AF
330
1F
100
AcDbEntity
  8
0
  6
CONTINUOUS
 62
     7
100
AcDbSpline
210
0.0
220
0.0
230
1.0
 70
     8
 71
     3
 72
    14
 73
    10
 74
     0
 42
0.00000001
 43
0.00000001
 40
0.0
 40
0.0
 40
0.0
 40
0.0
 40
0.0308499065074136
 40
0.0688165367071674
 40
0.1296992433581886
 40
0.2526299003951489
 40
0.4573713859133178
 40
0.6632003120895684
 40
1.0
 40
1.0
 40
1.0
 40
1.0
 10
105.6791192999314
 20
183.5523776140091
 30
0.0
 10
105.6843226231432
 20
183.597562137915
 30
0.0
 10
105.695929617243
 20
183.6983547431448
 30
0.0
 10
105.802705580929
 20
183.8622696279973
 30
0.0
 10
106.0577329052963
 20
184.0711939889545
 30
0.0
 10
106.6000567002842
 20
184.2873386095554
 30
0.0
 10
107.3826068945936
 20
184.4277771602644
 30
0.0
 10
108.4926122531671
 20
184.4823776294254
 30
0.0
 10
109.2983288303953
 20
184.4844659566511
 30
0.0
 10
109.7984224205785
 20
184.485762143287
 30
0.0
  0
SPLINE
  5
1B0
330
1F
100
AcDbEntity
  8
0
  6
CONTINUOUS
 62
     7
100
AcDbSpline
210
0.0
220
0.0
230
1.0
 70
     8
 71
     3
 72
    15
 73
    11
 74
     0
 42
0.00000001
 43
0.00000001
 40
0.0
 40
0.0
 40
0.0
 40
0.0
 40
0.4220208280464657
 40
0.5757675349065524
 40
0.7291070677238527
 40
0.8107516775441077
 40
0.9187236235586015
 40
0.9553715006280882
 40
0.9923845056503466
 40
1.0
 40
1.0
 40
1.0
 40
1.0
 10
109.7984224205474
 20
186.280839573654
 30
0.0
 10
109.1712905601515
 20
186.2716298102679
 30
0.0
 10
108.3156878473827
 20
186.2590648314577
 30
0.0
 10
107.2361110703552
 20
186.3236356292651
 30
0.0
 10
106.6657982223866
 20
186.4125931572224
 30
0.0
 10
106.1861959250903
 20
186.5516088281426
 30
0.0
 10
105.8861658078977
 20
186.696523228056
 30
0.0
 10
105.7209154979253
 20
186.8745063156174
 30
0.0
 10
105.6813255927322
 20
186.9712346811137
 30
0.0
 10
105.6794409064771
 20
187.0251109956281
 30
0.0
 10
105.6791192999314
 20
187.0343045552266
 30
0.0
  0
LWPOLYLINE
  5
1B1
330
1F
100
AcDbEntity
  8
0
  6
CONTINUOUS
 62
     7
100
AcDbPolyline
 90
        4
 70
   128
 43
0.0
 10
169.987155518
 20
186.9329148248
 10
127.265928502
 20
186.4701732734
 10
109.9306357453
 20
186.282272983
 10
109.7984224205
 20
186.2808395737
  0
SPLINE
  5
1B2
330
1F
100
AcDbEntity
  8
0
  6
CONTINUOUS
 62
     7
100
AcDbSpline
210
0.0
220
0.0
230
1.0
 70
     8
 71
     3
 72
    14
 73
    10
 74
     0
 42
0.00000001
 43
0.00000001
 40
0.0
 40
0.0
 40
0.0
 40
0.0
 40
0.0324876077239675
 40
0.0725202418841824
 40
0.1366529854338102
 40
0.2657907900968885
 40
0.4813797232871948
 40
0.6981231342985972
 40
1.0
 40
1.0
 40
1.0
 40
1.0
 10
173.929116168262
 20
187.7677645033925
 30
0.0
 10
173.9236822787867
 20
187.729813416212
 30
0.0
 10
173.9115525158792
 20
187.6450973593857
 30
0.0
 10
173.8030373547357
 20
187.5044280477472
 30
0.0
 10
173.5448860083189
 20
187.3220255648249
 30
0.0
 10
172.9963545777599
 20
187.1276189081399
 30
0.0
 10
172.2049692146468
 20
186.998198024404
 30
0.0
 10
171.1574949680934
 20
186.9462130683424
 30
0.0
 10
170.4177461767043
 20
186.9378075074111
 30
0.0
 10
169.9871555180313
 20
186.9329148248409
 30
0.0
  0
LINE
  5
1B3
330
1F
100
AcDbEntity
  8
0
  6
CONTINUOUS
 62
     7
100
AcDbLine
 10
169.5894556589
 20
183.4700412014
 30
0.0
 11
169.5894556589
 21
183.5881032815
 31
0.0
  0
SPLINE
  5
1B4
330
1F
100
AcDbEntity
  8
0
  6
CONTINUOUS
 62
     7
100
AcDbSpline
210
0.0
220
0.0
230
1.0
 70
     8
 71
     3
 72
    11
 73
     7
 74
     0
 42
0.00000001
 43
0.00000001
 40
0.0
 40
0.0
 40
0.0
 40
0.0
 40
0.2519200500998877
 40
0.5571623001697024
 40
0.8683809336589808
 40
1.0
 40
1.0
 40
1.0
 40
1.0
 10
173.929118970664
 20
183.7767182104661
 30
0.0
 10
173.5856979824901
 20
183.7486380720698
 30
0.0
 10
172.8261664262617
 20
183.6865342637713
 30
0.0
 10
171.5666719432299
 20
183.6233601426724
 30
0.0
 10
170.4521920751131
 20
183.5931633097426
 30
0.0
 10
169.7871251238705
 20
183.5892626310691
 30
0.0
 10
169.5894556589393
 20
183.5881032815256
 30
0.0
  0
LINE
  5
1B5
330
1F
100
AcDbEntity
  8
0
  6
CONTINUOUS
 62
     7
100
AcDbLine
 10
169.987155518
 20
178.3448021745
 30
0.0
 11
169.5722424285
 21
178.349348694
 31
0.0
  0
ARC
  5
1B6
330
1F
100
AcDbEntity
  8
0
  6
CONTINUOUS
 62
     7
100
AcDbCircle
 10
141.9559560828
 20
179.338673675
 30
0.0
 40
27.63400143746415
100
AcDbArc
 50
357.9483151622
 51
0.3453092847
  0
SPLINE
  5
1B7
330
1F
100
AcDbEntity
  8
0
  6
CONTINUOUS
 62
     7
100
AcDbSpline
210
0.0
220
0.0
230
1.0
 70
     8
 71
     3
 72
    10
 73
     6
 74
     0
 42
0.00000001
 43
0.00000001
 40
0.0
 40
0.0
 40
0.0
 40
0.0
 40
0.368634104325759
 40
0.7479587163000784
 40
1.0
 40
1.0
 40
1.0
 40
1.0
 10
169.5894556589393
 20
179.5052168233109
 30
0.0
 10
170.1427108072116
 20
179.4956019895497
 30
0.0
 10
171.2652656810886
 20
179.4760934887542
 30
0.0
 10
172.7250713670191
 20
179.369303874295
 30
0.0
 10
173.5855970809353
 20
179.2647437885305
 30
0.0
 10
173.9291189706639
 20
179.223003399288
 30
0.0
  0
SPLINE
  5
1B8
330
1F
100
AcDbEntity
  8
0
  6
CONTINUOUS
 62
     7
100
AcDbSpline
210
0.0
220
0.0
230
1.0
 70
     8
 71
     3
 72
    11
 73
     7
 74
     0
 42
0.00000001
 43
0.00000001
 40
0.0
 40
0.0
 40
0.0
 40
0.0
 40
0.2519200500998894
 40
0.5571623001696995
 40
0.8683809336589674
 40
1.0
 40
1.0
 40
1.0
 40
1.0
 10
173.9291189706639
 20
179.3296674416201
 30
0.0
 10
173.5856979824901
 20
179.3727574927423
 30
0.0
 10
172.8261664262617
 20
179.4680581724148
 30
0.0
 10
171.5666719432299
 20
179.5650735678347
 30
0.0
 10
170.4521920751131
 20
179.61207147179
 30
0.0
 10
169.7871251238705
 20
179.6188821858585
 30
0.0
 10
169.5894556589393
 20
179.6209064485334
 30
0.0
  0
LINE
  5
1B9
330
1F
100
AcDbEntity
  8
0
  6
CONTINUOUS
 62
     7
100
AcDbLine
 10
169.5894556589
 20
179.5052168233
 30
0.0
 11
169.5894556589
 21
179.6209064485
 31
0.0
  0
LINE
  5
1BA
330
1F
100
AcDbEntity
  8
0
  6
CONTINUOUS
 62
     7
100
AcDbLine
 10
169.5722424285
 20
184.6811464614
 30
0.0
 11
169.987155518
 21
184.684210289
 31
0.0
  0
ARC
  5
1BB
330
1F
100
AcDbEntity
  8
0
  6
CONTINUOUS
 62
     7
100
AcDbCircle
 10
147.2382815708
 20
183.7827743957
 30
0.0
 40
22.35202183160321
100
AcDbArc
 50
359.5009858916
 51
2.303451404
  0
LINE
  5
1BC
330
1F
100
AcDbEntity
  8
0
  6
CONTINUOUS
 62
     7
100
AcDbLine
 10
110.0553868332
 20
183.2748749612
 30
0.0
 11
169.5894556589
 21
183.4700412014
 31
0.0
  0
LINE
  5
1BD
330
1F
100
AcDbEntity
  8
0
  6
CONTINUOUS
 62
     7
100
AcDbLine
 10
110.0381736028
 20
184.4859802212
 30
0.0
 11
169.5722424285
 21
184.6811464614
 31
0.0
  0
LINE
  5
1BE
330
1F
100
AcDbEntity
  8
0
  6
CONTINUOUS
 62
     7
100
AcDbLine
 10
169.5894556589
 20
183.5881032815
 30
0.0
 11
110.0553868332
 21
183.3929370414
 31
0.0
  0
ARC
  5
1BF
330
1F
100
AcDbEntity
  8
0
  6
CONTINUOUS
 62
     7
100
AcDbCircle
 10
87.7042127451
 20
183.5876081555
 30
0.0
 40
22.35202183154944
100
AcDbArc
 50
359.5009858916
 51
2.303451404
  0
LINE
  5
1C0
330
1F
100
AcDbEntity
  8
0
  6
CONTINUOUS
 62
     7
100
AcDbLine
 10
169.5894556589
 20
179.6209064485
 30
0.0
 11
110.0553868332
 21
179.9105203644
 31
0.0
  0
SPLINE
  5
1C1
330
1F
100
AcDbEntity
  8
0
  6
CONTINUOUS
 62
     7
100
AcDbSpline
210
0.0
220
0.0
230
1.0
 70
     8
 71
     3
 72
    10
 73
     6
 74
     0
 42
0.00000001
 43
0.00000001
 40
0.0
 40
0.0
 40
0.0
 40
0.0
 40
0.3686390953869182
 40
0.7479688599806277
 40
0.9999999999999999
 40
0.9999999999999999
 40
0.9999999999999999
 40
0.9999999999999999
 10
110.0553868332231
 20
179.910520364386
 30
0.0
 10
109.501122079854
 20
179.9055414663186
 30
0.0
 10
108.3765186916273
 20
179.8954392803107
 30
0.0
 10
106.9027773969981
 20
179.7998829228726
 30
0.0
 10
106.0282281096286
 20
179.7006946727253
 30
0.0
 10
105.6791192999314
 20
179.6611000009957
 30
0.0
  0
LINE
  5
1C2
330
1F
100
AcDbEntity
  8
0
  6
CONTINUOUS
 62
     7
100
AcDbLine
 10
109.7984224206
 20
184.4857621433
 30
0.0
 11
110.0381736028
 21
184.4859802212
 31
0.0
  0
SPLINE
  5
1C3
330
1F
100
AcDbEntity
  8
0
  6
CONTINUOUS
 62
     7
100
AcDbSpline
210
0.0
220
0.0
230
1.0
 70
     8
 71
     3
 72
    11
 73
     7
 74
     0
 42
0.00000001
 43
0.00000001
 40
0.0
 40
0.0
 40
0.0
 40
0.0
 40
0.2519047421028427
 40
0.5571741213542866
 40
0.8684213189949428
 40
1.0
 40
1.0
 40
1.0
 40
1.0
 10
105.6791192999314
 20
183.444722865851
 30
0.0
 10
106.0281504800886
 20
183.417659755178
 30
0.0
 10
106.8001531804187
 20
183.3578003623595
 30
0.0
 10
108.0720535936188
 20
183.3001188039831
 30
0.0
 10
109.1921659300795
 20
183.2753912942727
 30
0.0
 10
109.857649078633
 20
183.2749932374946
 30
0.0
 10
110.0553868332231
 20
183.2748749612412
 30
0.0
  0
SPLINE
  5
1C4
330
1F
100
AcDbEntity
  8
0
  6
CONTINUOUS
 62
     7
100
AcDbSpline
210
0.0
220
0.0
230
1.0
 70
     8
 71
     3
 72
    10
 73
     6
 74
     0
 42
0.00000001
 43
0.00000001
 40
0.0
 40
0.0
 40
0.0
 40
0.0
 40
0.368639095386919
 40
0.7479688599806285
 40
0.9999999999999999
 40
0.9999999999999999
 40
0.9999999999999999
 40
0.9999999999999999
 10
110.0553868332231
 20
183.3929370413778
 30
0.0
 10
109.501122079854
 20
183.395631133484
 30
0.0
 10
108.3765186916273
 20
183.4010974473574
 30
0.0
 10
106.9027773969981
 20
183.462789278339
 30
0.0
 10
106.0282281096286
 20
183.5268181237368
 30
0.0
 10
105.6791192999314
 20
183.5523776140091
 30
0.0
  0
LINE
  5
1C5
330
1F
100
AcDbEntity
  8
0
  6
CONTINUOUS
 62
     7
100
AcDbLine
 10
110.0553868332
 20
183.3929370414
 30
0.0
 11
110.0553868332
 21
183.2748749612
 31
0.0
  0
LINE
  5
1C6
330
1F
100
AcDbEntity
  8
0
  6
CONTINUOUS
 62
     7
100
AcDbLine
 10
110.0553868332
 20
179.7948307392
 30
0.0
 11
169.5894556589
 21
179.5052168233
 31
0.0
  0
LINE
  5
1C7
330
1F
100
AcDbEntity
  8
0
  6
CONTINUOUS
 62
     7
100
AcDbLine
 10
169.5722424285
 20
178.349348694
 30
0.0
 11
110.0381736028
 21
178.6389626099
 31
0.0
  0
ARC
  5
1C8
330
1F
100
AcDbEntity
  8
0
  6
CONTINUOUS
 62
     7
100
AcDbCircle
 10
82.4218872571
 20
179.6282875908
 30
0.0
 40
27.63400143743882
100
AcDbArc
 50
357.9483151622
 51
0.3453092847
  0
SPLINE
  5
1C9
330
1F
100
AcDbEntity
  8
0
  6
CONTINUOUS
 62
     7
100
AcDbSpline
210
0.0
220
0.0
230
1.0
 70
     8
 71
     3
 72
    10
 73
     6
 74
     0
 42
0.00000001
 43
0.00000001
 40
0.0
 40
0.0
 40
0.0
 40
0.0
 40
0.3686341043257594
 40
0.7479587163000785
 40
1.0
 40
1.0
 40
1.0
 40
1.0
 10
169.5894556589393
 20
187.130318368773
 30
0.0
 10
170.1427108072116
 20
187.1527122703889
 30
0.0
 10
171.2652656810886
 20
187.1981495039735
 30
0.0
 10
172.725071367019
 20
187.4390187406606
 30
0.0
 10
173.5855970809353
 20
187.6748552609742
 30
0.0
 10
173.9291189706639
 20
187.7690012066618
 30
0.0
  0
LINE
  5
1CA
330
1F
100
AcDbEntity
  8
0
  6
CONTINUOUS
 62
     7
100
AcDbLine
 10
110.0381736028
 20
178.6389626099
 30
0.0
 11
109.7984224207
 21
178.6392862233
 31
0.0
  0
SPLINE
  5
1CB
330
1F
100
AcDbEntity
  8
0
  6
CONTINUOUS
 62
     7
100
AcDbSpline
210
0.0
220
0.0
230
1.0
 70
     8
 71
     3
 72
    11
 73
     7
 74
     0
 42
0.00000001
 43
0.00000001
 40
0.0
 40
0.0
 40
0.0
 40
0.0
 40
0.2519047421028437
 40
0.5571741213542878
 40
0.8684213189949443
 40
1.0
 40
1.0
 40
1.0
 40
1.0
 10
105.6791192999314
 20
179.5556085726436
 30
0.0
 10
106.0281504800886
 20
179.594096972364
 30
0.0
 10
106.8001531804187
 20
179.6792273280593
 30
0.0
 10
108.0720535936188
 20
179.7611838986472
 30
0.0
 10
109.1921659300795
 20
179.7954866244684
 30
0.0
 10
109.857649078633
 20
179.7949809826145
 30
0.0
 10
110.0553868332231
 20
179.7948307391636
 30
0.0
  0
LINE
  5
1CC
330
1F
100
AcDbEntity
  8
0
  6
CONTINUOUS
 62
     7
100
AcDbLine
 10
110.0553868332
 20
179.9105203644
 30
0.0
 11
110.0553868332
 21
179.7948307392
 31
0.0
  0
LINE
  5
1CD
330
1F
100
AcDbEntity
  8
0
  6
CONTINUOUS
 62
     7
100
AcDbLine
 10
169.5894556589
 20
187.1303183688
 30
0.0
 11
169.5894556589
 21
187.2273692609
 31
0.0
  0
SPLINE
  5
1CE
330
1F
100
AcDbEntity
  8
0
  6
CONTINUOUS
 62
     7
100
AcDbSpline
210
0.0
220
0.0
230
1.0
 70
     8
 71
     3
 72
    11
 73
     7
 74
     0
 42
0.00000001
 43
0.00000001
 40
0.0
 40
0.0
 40
0.0
 40
0.0
 40
0.2519200500998893
 40
0.5571623001696994
 40
0.8683809336589674
 40
1.0
 40
1.0
 40
1.0
 40
1.0
 10
173.9291189706639
 20
187.8584806258235
 30
0.0
 10
173.5856979824901
 20
187.7647919136985
 30
0.0
 10
172.8261664262616
 20
187.5575840383157
 30
0.0
 10
171.56667194323
 20
187.3467328101613
 30
0.0
 10
170.4521920751131
 20
187.245322093448
 30
0.0
 10
169.7871251238705
 20
187.2314825992825
 30
0.0
 10
169.5894556589393
 20
187.2273692609163
 30
0.0
  0
LINE
  5
1CF
330
1F
100
AcDbEntity
  8
0
  6
CONTINUOUS
 62
     7
100
AcDbLine
 10
169.5722424285
 20
188.5403623477
 30
0.0
 11
169.987155518
 21
188.5504296939
 31
0.0
  0
SPLINE
  5
1D0
330
1F
100
AcDbEntity
  8
0
  6
CONTINUOUS
 62
     7
100
AcDbSpline
210
0.0
220
0.0
230
1.0
 70
     8
 71
     3
 72
    14
 73
    10
 74
     0
 42
0.00000001
 43
0.00000001
 40
0.0
 40
0.0
 40
0.0
 40
0.0
 40
0.439333021352826
 40
0.686224252617428
 40
0.7797758228736903
 40
0.887762080121093
 40
0.9315133799720744
 40
0.9756933690854115
 40
1.0
 40
1.0
 40
1.0
 40
1.0
 10
169.9871555180152
 20
188.5504296938956
 30
0.0
 10
170.6136590629242
 20
188.5591716677912
 30
0.0
 10
171.5922377400823
 20
188.5728263538979
 30
0.0
 10
172.7044937693136
 20
188.4877964843291
 30
0.0
 10
173.3158644863293
 20
188.3518214672709
 30
0.0
 10
173.634123595919
 20
188.2310041899565
 30
0.0
 10
173.8347464938698
 20
188.079584608784
 30
0.0
 10
173.9173608702557
 20
187.9662008791789
 30
0.0
 10
173.9260369390397
 20
187.8876026362595
 30
0.0
 10
173.929116168262
 20
187.8597072826794
 30
0.0
  0
ARC
  5
1D1
330
1F
100
AcDbEntity
  8
0
  6
CONTINUOUS
 62
     7
100
AcDbCircle
 10
119.1107333049
 20
187.2222067734
 30
0.0
 40
50.47872261806325
100
AcDbArc
 50
0.0058596718
 51
1.4963401048
  0
SPLINE
  5
1D2
330
1F
100
AcDbEntity
  8
0
  6
CONTINUOUS
 62
     7
100
AcDbSpline
210
0.0
220
0.0
230
1.0
 70
     8
 71
     3
 72
    11
 73
     7
 74
     0
 42
0.00000001
 43
0.00000001
 40
0.0
 40
0.0
 40
0.0
 40
0.0
 40
0.2519200500998942
 40
0.5571623001696958
 40
0.868380933658956
 40
1.0
 40
1.0
 40
1.0
 40
1.0
 10
173.9291189706639
 20
175.3981212635541
 30
0.0
 10
173.5856979824901
 20
175.5038469911052
 30
0.0
 10
172.8261664262616
 20
175.7376766903535
 30
0.0
 10
171.56667194323
 20
175.9756665134135
 30
0.0
 10
170.4521920751131
 20
176.0905506429841
 30
0.0
 10
169.7871251238705
 20
176.1067238043454
 30
0.0
 10
169.5894556589393
 20
176.1115307491899
 30
0.0
  0
LINE
  5
1D3
330
1F
100
AcDbEntity
  8
0
  6
CONTINUOUS
 62
     7
100
AcDbLine
 10
110.0553868332
 20
186.48902704
 30
0.0
 11
169.5894556589
 21
187.1303183688
 31
0.0
  0
LWPOLYLINE
  5
1D4
330
1F
100
AcDbEntity
  8
0
  6
CONTINUOUS
 62
     7
100
AcDbPolyline
 90
        4
 70
   128
 43
0.0
 10
109.7984224205
 20
187.8983544427
 10
109.9306357453
 20
187.8997878521
 10
127.265928502
 20
188.0876881424
 10
169.987155518
 20
188.5504296939
  0
SPLINE
  5
1D5
330
1F
100
AcDbEntity
  8
0
  6
CONTINUOUS
 62
     7
100
AcDbSpline
210
0.0
220
0.0
230
1.0
 70
     8
 71
     3
 72
    14
 73
    10
 74
     0
 42
0.00000001
 43
0.00000001
 40
0.0
 40
0.0
 40
0.0
 40
0.0
 40
0.0308499065076305
 40
0.0688165367076505
 40
0.1296992433590963
 40
0.2526299003969124
 40
0.4573713859165083
 40
0.6632003120941938
 40
1.0
 40
1.0
 40
1.0
 40
1.0
 10
105.6791192999314
 20
187.1228002800191
 30
0.0
 10
105.6843226231432
 20
187.1597601227865
 30
0.0
 10
105.6959296172429
 20
187.2422060250416
 30
0.0
 10
105.802705580929
 20
187.3753860329344
 30
0.0
 10
106.0577329052963
 20
187.5442919156599
 30
0.0
 10
106.6000567002842
 20
187.7184193911714
 30
0.0
 10
107.3826068945936
 20
187.8340007279001
 30
0.0
 10
108.4926122531566
 20
187.8847531544076
 30
0.0
 10
109.2983288303745
 20
187.8931454795169
 30
0.0
 10
109.7984224205473
 20
187.8983544427088
 30
0.0
  0
SPLINE
  5
1D6
330
1F
100
AcDbEntity
  8
0
  6
CONTINUOUS
 62
     7
100
AcDbSpline
210
0.0
220
0.0
230
1.0
 70
     8
 71
     3
 72
    15
 73
    11
 74
     0
 42
0.00000001
 43
0.00000001
 40
0.0
 40
0.0
 40
0.0
 40
0.0
 40
0.4220208280299084
 40
0.5757675349191165
 40
0.7291070677651658
 40
0.8107516775739797
 40
0.9187236235674634
 40
0.9553715006344984
 40
0.9923845056542746
 40
1.0
 40
1.0
 40
1.0
 40
1.0
 10
109.7984224207213
 20
189.1823580391328
 30
0.0
 10
109.1712905603257
 20
189.1705698018221
 30
0.0
 10
108.3156878475051
 20
189.1544869834239
 30
0.0
 10
107.2361110703728
 20
189.1870322258519
 30
0.0
 10
106.6657982223134
 20
189.2393242760659
 30
0.0
 10
106.1861959250101
 20
189.3234959386101
 30
0.0
 10
105.8861658078626
 20
189.4117126385299
 30
0.0
 10
105.7209154979153
 20
189.5186361888802
 30
0.0
 10
105.6813255927308
 20
189.5761804435744
 30
0.0
 10
105.6794409064768
 20
189.6079685749929
 30
0.0
 10
105.6791192999314
 20
189.6133929638592
 30
0.0
  0
LWPOLYLINE
  5
1D7
330
1F
100
AcDbEntity
  8
0
  6
CONTINUOUS
 62
     7
100
AcDbPolyline
 90
        3
 70
   128
 43
0.0
 10
169.987155518
 20
190.1589088951
 10
154.3099430856
 20
189.9046732029
 10
109.7984224207
 20
189.1823580391
  0
SPLINE
  5
1D8
330
1F
100
AcDbEntity
  8
0
  6
CONTINUOUS
 62
     7
100
AcDbSpline
210
0.0
220
0.0
230
1.0
 70
     8
 71
     3
 72
    14
 73
    10
 74
     0
 42
0.00000001
 43
0.00000001
 40
0.0
 40
0.0
 40
0.0
 40
0.0
 40
0.0324876077239675
 40
0.0725202418843237
 40
0.1366529854344768
 40
0.2657907900992081
 40
0.4813797232942147
 40
0.6981231343103603
 40
1.0
 40
1.0
 40
1.0
 40
1.0
 10
173.929116168262
 20
190.7133980498911
 30
0.0
 10
173.9236822787863
 20
190.6908774187484
 30
0.0
 10
173.9115525158781
 20
190.6406058927027
 30
0.0
 10
173.8030373547323
 20
190.5545338020994
 30
0.0
 10
173.5448860083107
 20
190.4398857585892
 30
0.0
 10
172.9963545777389
 20
190.3120987762548
 30
0.0
 10
172.2049692146062
 20
190.2219421422427
 30
0.0
 10
171.1574949680517
 20
190.1781625031221
 30
0.0
 10
170.4177461766697
 20
190.1659926721599
 30
0.0
 10
169.9871555180118
 20
190.1589088950847
 30
0.0
  0
SPLINE
  5
1D9
330
1F
100
AcDbEntity
  8
0
  6
CONTINUOUS
 62
     7
100
AcDbSpline
210
0.0
220
0.0
230
1.0
 70
     8
 71
     3
 72
    10
 73
     6
 74
     0
 42
0.00000001
 43
0.00000001
 40
0.0
 40
0.0
 40
0.0
 40
0.0
 40
0.3686341043257567
 40
0.7479587163000673
 40
1.0
 40
1.0
 40
1.0
 40
1.0
 10
169.5894556589393
 20
176.0211273279971
 30
0.0
 10
170.1427108072116
 20
175.9967101485928
 30
0.0
 10
171.2652656810885
 20
175.9471676837244
 30
0.0
 10
172.725071367019
 20
175.6803308709357
 30
0.0
 10
173.5855970809353
 20
175.4190671818332
 30
0.0
 10
173.9291189706639
 20
175.3147707096342
 30
0.0
  0
LINE
  5
1DA
330
1F
100
AcDbEntity
  8
0
  6
CONTINUOUS
 62
     7
100
AcDbLine
 10
169.5894556589
 20
176.021127328
 30
0.0
 11
169.5894556589
 21
176.1115307492
 31
0.0
  0
SPLINE
  5
1DB
330
1F
100
AcDbEntity
  8
0
  6
CONTINUOUS
 62
     7
100
AcDbSpline
210
0.0
220
0.0
230
1.0
 70
     8
 71
     3
 72
    14
 73
    10
 74
     0
 42
0.00000001
 43
0.00000001
 40
0.0
 40
0.0
 40
0.0
 40
0.0
 40
0.0324876077238645
 40
0.0725202418839968
 40
0.1366529854335823
 40
0.2657907900967365
 40
0.481379723287764
 40
0.6981231342999001
 40
1.0
 40
1.0
 40
1.0
 40
1.0
 10
173.929116168262
 20
175.3136290096012
 30
0.0
 10
173.9236822787865
 20
175.2789570896081
 30
0.0
 10
173.9115525158789
 20
175.2015609314835
 30
0.0
 10
173.8030373547346
 20
175.0788820893966
 30
0.0
 10
173.5448860083164
 20
174.9266392459743
 30
0.0
 10
172.9963545777537
 20
174.7769461964997
 30
0.0
 10
172.2049692146347
 20
174.6887202282165
 30
0.0
 10
171.1574949680765
 20
174.6702830484149
 30
0.0
 10
170.4177461766849
 20
174.6787412863977
 30
0.0
 10
169.9871555180119
 20
174.6836646310608
 30
0.0
  0
LINE
  5
1DC
330
1F
100
AcDbEntity
  8
0
  6
CONTINUOUS
 62
     7
100
AcDbLine
 10
169.987155518
 20
174.6836646311
 30
0.0
 11
169.5722424285
 21
174.6949210039
 31
0.0
  0
ARC
  5
1DD
330
1F
100
AcDbEntity
  8
0
  6
CONTINUOUS
 62
     7
100
AcDbCircle
 10
113.5808023386
 20
176.0848656022
 30
0.0
 40
56.00868958767343
100
AcDbArc
 50
358.5779682324
 51
359.9347969945
  0
SPLINE
  5
1DE
330
1F
100
AcDbEntity
  8
0
  6
CONTINUOUS
 62
     7
100
AcDbSpline
210
0.0
220
0.0
230
1.0
 70
     8
 71
     3
 72
    11
 73
     7
 74
     0
 42
0.00000001
 43
0.00000001
 40
0.0
 40
0.0
 40
0.0
 40
0.0
 40
0.2519047421028425
 40
0.5571741213542869
 40
0.8684213189949427
 40
1.0
 40
1.0
 40
1.0
 40
1.0
 10
105.6791192999314
 20
187.0343045552266
 30
0.0
 10
106.0281504800886
 20
186.9470501151362
 30
0.0
 10
106.8001531804187
 20
186.754056860679
 30
0.0
 10
108.0720535936188
 20
186.5681617133925
 30
0.0
 10
109.1921659300795
 20
186.4893015547117
 30
0.0
 10
109.857649078633
 20
186.489089923036
 30
0.0
 10
110.0553868332231
 20
186.4890270400428
 30
0.0
  0
LINE
  5
1DF
330
1F
100
AcDbEntity
  8
0
  6
CONTINUOUS
 62
     7
100
AcDbLine
 10
169.5894556589
 20
176.1115307492
 30
0.0
 11
110.0553868332
 21
176.8285632331
 31
0.0
  0
SPLINE
  5
1E0
330
1F
100
AcDbEntity
  8
0
  6
CONTINUOUS
 62
     7
100
AcDbSpline
210
0.0
220
0.0
230
1.0
 70
     8
 71
     3
 72
    14
 73
    10
 74
     0
 42
0.00000001
 43
0.00000001
 40
0.0
 40
0.0
 40
0.0
 40
0.0
 40
0.4393330213529217
 40
0.6862242526175837
 40
0.7797758228739007
 40
0.887762080121324
 40
0.9315133799723349
 40
0.9756933690857076
 40
1.0
 40
1.0
 40
1.0
 40
1.0
 10
169.9871555180152
 20
173.2450913623826
 30
0.0
 10
170.6136590629242
 20
173.2357793456544
 30
0.0
 10
171.5922377400823
 20
173.2212342707132
 30
0.0
 10
172.7044937693136
 20
173.1396067405243
 30
0.0
 10
173.3158644863294
 20
173.0424974103998
 30
0.0
 10
173.6341235959191
 20
172.9642952782936
 30
0.0
 10
173.8347464938699
 20
172.8765199173432
 30
0.0
 10
173.9173608702556
 20
172.8148661411168
 30
0.0
 10
173.9260369390397
 20
172.7753886245421
 30
0.0
 10
173.929116168262
 20
172.7613776334258
 30
0.0
  0
LWPOLYLINE
  5
1E1
330
1F
100
AcDbEntity
  8
0
  6
CONTINUOUS
 62
     7
100
AcDbPolyline
 90
        3
 70
   128
 43
0.0
 10
109.7984224206
 20
174.264382216
 10
122.8423236792
 20
174.0433633857
 10
169.987155518
 20
173.2450913624
  0
SPLINE
  5
1E2
330
1F
100
AcDbEntity
  8
0
  6
CONTINUOUS
 62
     7
100
AcDbSpline
210
0.0
220
0.0
230
1.0
 70
     8
 71
     3
 72
    14
 73
    10
 74
     0
 42
0.00000001
 43
0.00000001
 40
0.0
 40
0.0
 40
0.0
 40
0.0
 40
0.0308499065074137
 40
0.0688165367071679
 40
0.1296992433581867
 40
0.2526299003951481
 40
0.457371385913315
 40
0.6632003120895636
 40
1.0
 40
1.0
 40
1.0
 40
1.0
 10
105.6791192999314
 20
173.9097406014373
 30
0.0
 10
105.6843226231432
 20
173.928221292203
 30
0.0
 10
105.695929617243
 20
173.9694459595822
 30
0.0
 10
105.802705580929
 20
174.0385066012336
 30
0.0
 10
106.0577329052963
 20
174.1284273055921
 30
0.0
 10
106.6000567002842
 20
174.2228389736144
 30
0.0
 10
107.3826068945936
 20
174.278692626433
 30
0.0
 10
108.4926122531671
 20
174.287339099789
 30
0.0
 10
109.2983288303953
 20
174.2731741451227
 30
0.0
 10
109.7984224205785
 20
174.2643822160074
 30
0.0
  0
SPLINE
  5
1E3
330
1F
100
AcDbEntity
  8
0
  6
CONTINUOUS
 62
     7
100
AcDbSpline
210
0.0
220
0.0
230
1.0
 70
     8
 71
     3
 72
    15
 73
    11
 74
     0
 42
0.00000001
 43
0.00000001
 40
0.0
 40
0.0
 40
0.0
 40
0.0
 40
0.422020828029924
 40
0.5757675349191027
 40
0.7291070677651229
 40
0.8107516775739458
 40
0.9187236235674522
 40
0.9553715006344883
 40
0.9923845056542678
 40
1.0
 40
1.0
 40
1.0
 40
1.0
 10
109.7984224207212
 20
175.4127546968763
 30
0.0
 10
109.1712905603256
 20
175.4185484751933
 30
0.0
 10
108.3156878475049
 20
175.4264529889942
 30
0.0
 10
107.2361110703728
 20
175.4984137587102
 30
0.0
 10
106.6657982223135
 20
175.5808003394027
 30
0.0
 10
106.1861959250102
 20
175.7040337076581
 30
0.0
 10
105.8861658078627
 20
175.8314322831123
 30
0.0
 10
105.7209154979153
 20
175.9911016138459
 30
0.0
 10
105.6813255927308
 20
176.0791475115954
 30
0.0
 10
105.6794409064768
 20
176.1287792084827
 30
0.0
 10
105.6791192999314
 20
176.1372484582309
 30
0.0
  0
LWPOLYLINE
  5
1E4
330
1F
100
AcDbEntity
  8
0
  6
CONTINUOUS
 62
     7
100
AcDbPolyline
 90
        3
 70
   128
 43
0.0
 10
169.987155518
 20
174.6836646311
 10
154.3099430856
 20
174.8734762691
 10
109.7984224207
 20
175.4127546969
  0
SPLINE
  5
1E5
330
1F
100
AcDbEntity
  8
0
  6
CONTINUOUS
 62
     7
100
AcDbSpline
210
0.0
220
0.0
230
1.0
 70
     8
 71
     3
 72
    10
 73
     6
 74
     0
 42
0.00000001
 43
0.00000001
 40
0.0
 40
0.0
 40
0.0
 40
0.0
 40
0.368639095386918
 40
0.747968859980627
 40
1.0
 40
1.0
 40
1.0
 40
1.0
 10
110.0553868332231
 20
176.8285632331268
 30
0.0
 10
109.501122079854
 20
176.8168974767103
 30
0.0
 10
108.3765186916273
 20
176.7932276526551
 30
0.0
 10
106.9027773969981
 20
176.5593492153097
 30
0.0
 10
106.0282281096286
 20
176.3165893190231
 30
0.0
 10
105.6791192999314
 20
176.2196826956243
 30
0.0
  0
LINE
  5
1E6
330
1F
100
AcDbEntity
  8
0
  6
CONTINUOUS
 62
     7
100
AcDbLine
 10
110.0381736028
 20
187.8990710189
 30
0.0
 11
169.5722424285
 21
188.5403623477
 31
0.0
  0
LINE
  5
1E7
330
1F
100
AcDbEntity
  8
0
  6
CONTINUOUS
 62
     7
100
AcDbLine
 10
169.5894556589
 20
187.2273692609
 30
0.0
 11
110.0553868332
 21
186.5860779322
 31
0.0
  0
ARC
  5
1E8
330
1F
100
AcDbEntity
  8
0
  6
CONTINUOUS
 62
     7
100
AcDbCircle
 10
59.5766644793
 20
186.5809154447
 30
0.0
 40
50.47872261794995
100
AcDbArc
 50
0.0058596718
 51
1.4963401048
  0
LINE
  5
1E9
330
1F
100
AcDbEntity
  8
0
  6
CONTINUOUS
 62
     7
100
AcDbLine
 10
109.7984224205
 20
187.8983544427
 30
0.0
 11
110.0381736028
 21
187.8990710189
 31
0.0
  0
SPLINE
  5
1EA
330
1F
100
AcDbEntity
  8
0
  6
CONTINUOUS
 62
     7
100
AcDbSpline
210
0.0
220
0.0
230
1.0
 70
     8
 71
     3
 72
    10
 73
     6
 74
     0
 42
0.00000001
 43
0.00000001
 40
0.0
 40
0.0
 40
0.0
 40
0.0
 40
0.3686390953869196
 40
0.7479688599806298
 40
1.0
 40
1.0
 40
1.0
 40
1.0
 10
110.0553868332231
 20
186.5860779321861
 30
0.0
 10
109.501122079854
 20
186.5959114164834
 30
0.0
 10
108.3765186916273
 20
186.6158635597356
 30
0.0
 10
106.9027773969981
 20
186.8225847554103
 30
0.0
 10
106.0282281096286
 20
187.0371489982599
 30
0.0
 10
105.6791192999314
 20
187.1228002800191
 30
0.0
  0
LINE
  5
1EB
330
1F
100
AcDbEntity
  8
0
  6
CONTINUOUS
 62
     7
100
AcDbLine
 10
110.0553868332
 20
186.5860779322
 30
0.0
 11
110.0553868332
 21
186.48902704
 31
0.0
  0
SPLINE
  5
1EC
330
1F
100
AcDbEntity
  8
0
  6
CONTINUOUS
 62
     7
100
AcDbSpline
210
0.0
220
0.0
230
1.0
 70
     8
 71
     3
 72
    11
 73
     7
 74
     0
 42
0.00000001
 43
0.00000001
 40
0.0
 40
0.0
 40
0.0
 40
0.0
 40
0.2519047421028432
 40
0.5571741213542877
 40
0.8684213189949448
 40
1.0
 40
1.0
 40
1.0
 40
1.0
 10
105.6791192999314
 20
176.1372484582309
 30
0.0
 10
106.0281504800886
 20
176.2336652687508
 30
0.0
 10
106.8001531804187
 20
176.4469242619591
 30
0.0
 10
108.0720535936188
 20
176.6522864575751
 30
0.0
 10
109.1921659300795
 20
176.7388253433837
 30
0.0
 10
109.857649078633
 20
176.7383122650245
 30
0.0
 10
110.0553868332231
 20
176.738159811934
 30
0.0
  0
LINE
  5
1ED
330
1F
100
AcDbEntity
  8
0
  6
CONTINUOUS
 62
     7
100
AcDbLine
 10
110.0553868332
 20
176.8285632331
 30
0.0
 11
110.0553868332
 21
176.7381598119
 31
0.0
  0
LINE
  5
1EE
330
1F
100
AcDbEntity
  8
0
  6
CONTINUOUS
 62
     7
100
AcDbLine
 10
110.0553868332
 20
176.7381598119
 30
0.0
 11
169.5894556589
 21
176.021127328
 31
0.0
  0
LINE
  5
1EF
330
1F
100
AcDbEntity
  8
0
  6
CONTINUOUS
 62
     7
100
AcDbLine
 10
169.5722424285
 20
174.6949210039
 30
0.0
 11
110.0381736028
 21
175.4119534878
 31
0.0
  0
ARC
  5
1F0
330
1F
100
AcDbEntity
  8
0
  6
CONTINUOUS
 62
     7
100
AcDbCircle
 10
54.046733513
 20
176.8018980862
 30
0.0
 40
56.00868958750215
100
AcDbArc
 50
358.5779682324
 51
359.9347969945
  0
LINE
  5
1F1
330
1F
100
AcDbEntity
  8
0
  6
CONTINUOUS
 62
     7
100
AcDbLine
 10
110.0381736028
 20
175.4119534878
 30
0.0
 11
109.7984224207
 21
175.4127546969
 31
0.0
  0
LINE
  5
1F2
330
1F
100
AcDbEntity
  8
0
  6
CONTINUOUS
 62
     7
100
AcDbLine
 10
169.5722424285
 20
191.0907917369
 30
0.0
 11
169.987155518
 21
191.1058686403
 31
0.0
  0
SPLINE
  5
1F3
330
1F
100
AcDbEntity
  8
0
  6
CONTINUOUS
 62
     7
100
AcDbSpline
210
0.0
220
0.0
230
1.0
 70
     8
 71
     3
 72
    14
 73
    10
 74
     0
 42
0.00000001
 43
0.00000001
 40
0.0
 40
0.0
 40
0.0
 40
0.0
 40
0.4393330213530268
 40
0.6862242526177349
 40
0.7797758228741161
 40
0.8877620801215648
 40
0.9315133799726053
 40
0.975693369086006
 40
1.0
 40
1.0
 40
1.0
 40
1.0
 10
169.9871555180152
 20
191.1058686402504
 30
0.0
 10
170.6136590629242
 20
191.1170233963214
 30
0.0
 10
171.5922377400824
 20
191.1344467717018
 30
0.0
 10
172.7044937693137
 20
191.1025857791323
 30
0.0
 10
173.3158644863295
 20
191.0367599994969
 30
0.0
 10
173.6341235959192
 20
190.9746752886286
 30
0.0
 10
173.8347464938701
 20
190.8923099231405
 30
0.0
 10
173.9173608702554
 20
190.8288217434799
 30
0.0
 10
173.9260369390397
 20
190.7833599942323
 30
0.0
 10
173.929116168262
 20
190.767225135201
 30
0.0
  0
LWPOLYLINE
  5
1F4
330
1F
100
AcDbEntity
  8
0
  6
CONTINUOUS
 62
     7
100
AcDbPolyline
 90
        3
 70
   128
 43
0.0
 10
109.7984224206
 20
190.1293177843
 10
122.8423236792
 20
190.3410690496
 10
169.987155518
 20
191.1058686403
  0
SPLINE
  5
1F5
330
1F
100
AcDbEntity
  8
0
  6
CONTINUOUS
 62
     7
100
AcDbSpline
210
0.0
220
0.0
230
1.0
 70
     8
 71
     3
 72
    14
 73
    10
 74
     0
 42
0.00000001
 43
0.00000001
 40
0.0
 40
0.0
 40
0.0
 40
0.0
 40
0.030849906507416
 40
0.0688165367071695
 40
0.1296992433581886
 40
0.2526299003951493
 40
0.4573713859133179
 40
0.6632003120895681
 40
1.0
 40
1.0
 40
1.0
 40
1.0
 10
105.6791192999314
 20
189.6652020016623
 30
0.0
 10
105.6843226231432
 20
189.6866168131481
 30
0.0
 10
105.695929617243
 20
189.7343865903545
 30
0.0
 10
105.802705580929
 20
189.8104537873787
 30
0.0
 10
106.0577329052963
 20
189.9058873103039
 30
0.0
 10
106.6000567002842
 20
190.0035095586677
 30
0.0
 10
107.3826068945936
 20
190.0713413801652
 30
0.0
 10
108.4926122531671
 20
190.1081936235123
 30
0.0
 10
109.2983288303953
 20
190.1212277435921
 30
0.0
 10
109.7984224205785
 20
190.1293177842961
 30
0.0
  0
SPLINE
  5
1F6
330
1F
100
AcDbEntity
  8
0
  6
CONTINUOUS
 62
     7
100
AcDbSpline
210
0.0
220
0.0
230
1.0
 70
     8
 71
     3
 72
    15
 73
    11
 74
     0
 42
0.00000001
 43
0.00000001
 40
0.0
 40
0.0
 40
0.0
 40
0.0
 40
0.4220208280299163
 40
0.5757675349191086
 40
0.7291070677651426
 40
0.8107516775739632
 40
0.9187236235674563
 40
0.9553715006344938
 40
0.9923845056542719
 40
1.0
 40
1.0
 40
1.0
 40
1.0
 10
109.7984224207212
 20
190.6479348872319
 30
0.0
 10
109.1712905603256
 20
190.6359029809694
 30
0.0
 10
108.315687847505
 20
190.6194877224109
 30
0.0
 10
107.2361110703728
 20
190.613561425064
 30
0.0
 10
106.6657982223134
 20
190.6188309156508
 30
0.0
 10
106.1861959250102
 20
190.631487339733
 30
0.0
 10
105.8861658078626
 20
190.6455339403373
 30
0.0
 10
105.7209154979153
 20
190.6602204330113
 30
0.0
 10
105.6813255927308
 20
190.667183231533
 30
0.0
 10
105.6794409064769
 20
190.6705871505778
 30
0.0
 10
105.6791192999314
 20
190.6711680019756
 30
0.0
  0
LWPOLYLINE
  5
1F7
330
1F
100
AcDbEntity
  8
0
  6
CONTINUOUS
 62
     7
100
AcDbPolyline
 90
        3
 70
   128
 43
0.0
 10
169.987155518
 20
191.7555434743
 10
154.3099430856
 20
191.467188153
 10
109.7984224207
 20
190.6479348872
  0
SPLINE
  5
1F8
330
1F
100
AcDbEntity
  8
0
  6
CONTINUOUS
 62
     7
100
AcDbSpline
210
0.0
220
0.0
230
1.0
 70
     8
 71
     3
 72
    14
 73
    10
 74
     0
 42
0.00000001
 43
0.00000001
 40
0.0
 40
0.0
 40
0.0
 40
0.0
 40
0.0324876077237129
 40
0.072520241883499
 40
0.1366529854322247
 40
0.2657907900930368
 40
0.4813797232781135
 40
0.6981231342842524
 40
1.0
 40
1.0
 40
1.0
 40
1.0
 10
173.929116168262
 20
191.9198487279099
 30
0.0
 10
173.9236822787869
 20
191.9172190400004
 30
0.0
 10
173.9115525158801
 20
191.9113489370091
 30
0.0
 10
173.8030373547381
 20
191.8969217005908
 30
0.0
 10
173.5448860083252
 20
191.8727355475775
 30
0.0
 10
172.9963545777756
 20
191.8368780186518
 30
0.0
 10
172.2049692146773
 20
191.8038422614275
 30
0.0
 10
171.1574949681133
 20
191.7769390336922
 30
0.0
 10
170.4177461767075
 20
191.7634153169738
 30
0.0
 10
169.9871555180119
 20
191.7555434743194
 30
0.0
  0
LINE
  5
1F9
330
1F
100
AcDbEntity
  8
0
  6
CONTINUOUS
 62
     7
100
AcDbLine
 10
109.7984224206
 20
190.1293177843
 30
0.0
 11
110.0381736028
 21
190.1303909321
 31
0.0
  0
SPLINE
  5
1FA
330
1F
100
AcDbEntity
  8
0
  6
CONTINUOUS
 62
     7
100
AcDbSpline
210
0.0
220
0.0
230
1.0
 70
     8
 71
     3
 72
    14
 73
    10
 74
     0
 42
0.00000001
 43
0.00000001
 40
0.0
 40
0.0
 40
0.0
 40
0.0
 40
0.0324876077238382
 40
0.0725202418839067
 40
0.1366529854333403
 40
0.265790790096089
 40
0.4813797232860825
 40
0.6981231342971816
 40
1.0
 40
1.0
 40
1.0
 40
1.0
 10
173.929116168262
 20
172.7166508327077
 30
0.0
 10
173.9236822787866
 20
172.6988687354427
 30
0.0
 10
173.9115525158791
 20
172.6591747694904
 30
0.0
 10
173.8030373547352
 20
172.5990996606132
 30
0.0
 10
173.544886008318
 20
172.5280335589027
 30
0.0
 10
172.9963545777574
 20
172.4648596110542
 30
0.0
 10
172.2049692146421
 20
172.4342313546153
 30
0.0
 10
171.1574949680828
 20
172.438929656762
 30
0.0
 10
170.4177461766888
 20
172.4511287212825
 30
0.0
 10
169.9871555180118
 20
172.4582295145359
 30
0.0
  0
LINE
  5
1FB
330
1F
100
AcDbEntity
  8
0
  6
CONTINUOUS
 62
     7
100
AcDbLine
 10
169.987155518
 20
172.4582295145
 30
0.0
 11
169.5722424285
 21
172.4739662779
 31
0.0
  0
LINE
  5
1FC
330
1F
100
AcDbEntity
  8
0
  6
CONTINUOUS
 62
     7
100
AcDbLine
 10
110.0381736028
 20
190.1303909321
 30
0.0
 11
169.5722424285
 21
191.0907917369
 31
0.0
  0
SPLINE
  5
1FD
330
1F
100
AcDbEntity
  8
0
  6
CONTINUOUS
 62
     7
100
AcDbSpline
210
0.0
220
0.0
230
1.0
 70
     8
 71
     3
 72
    12
 73
     8
 74
     0
 42
0.00000001
 43
0.00000001
 40
0.0
 40
0.0
 40
0.0
 40
0.0
 40
0.4918096006068153
 40
0.7681910059190529
 40
0.8729169385661728
 40
0.993801724062901
 40
1.0
 40
1.0
 40
1.0
 40
1.0
 10
169.9871555180152
 20
172.0204239128585
 30
0.0
 10
170.6129862979619
 20
172.0091202616911
 30
0.0
 10
171.5905141375755
 20
171.9914643168901
 30
0.0
 10
172.7071714915127
 20
171.9634890927587
 30
0.0
 10
173.3121991789191
 20
171.94664235363
 30
0.0
 10
173.5944509832992
 20
171.9379906035278
 30
0.0
 10
173.7075864356797
 20
171.9365329862439
 30
0.0
 10
173.7131044389778
 20
171.9364618932593
 30
0.0
  0
LWPOLYLINE
  5
1FE
330
1F
100
AcDbEntity
  8
0
  6
CONTINUOUS
 62
     7
100
AcDbPolyline
 90
        3
 70
   128
 43
0.0
 10
109.7984224206
 20
173.1280324999
 10
122.8423236792
 20
172.887863216
 10
169.987155518
 20
172.0204239129
  0
SPLINE
  5
1FF
330
1F
100
AcDbEntity
  8
0
  6
CONTINUOUS
 62
     7
100
AcDbSpline
210
0.0
220
0.0
230
1.0
 70
     8
 71
     3
 72
    12
 73
     8
 74
     0
 42
0.00000001
 43
0.00000001
 40
0.0
 40
0.0
 40
0.0
 40
0.0
 40
0.0472124491603777
 40
0.181810471021127
 40
0.4038900887335106
 40
0.631234609423526
 40
1.0
 40
1.0
 40
1.0
 40
1.0
 10
105.8477526276163
 20
173.1797022090747
 30
0.0
 10
105.8942860735076
 20
173.1789538740767
 30
0.0
 10
106.0734817701128
 20
173.1760721100318
 30
0.0
 10
106.6029316045037
 20
173.1750140619687
 30
0.0
 10
107.3787846474473
 20
173.1684800658598
 30
0.0
 10
108.4904962602681
 20
173.152413282047
 30
0.0
 10
109.298546529434
 20
173.1373505834522
 30
0.0
 10
109.7984224205784
 20
173.1280324999486
 30
0.0
  0
SPLINE
  5
200
330
1F
100
AcDbEntity
  8
0
  6
CONTINUOUS
 62
     7
100
AcDbSpline
210
0.0
220
0.0
230
1.0
 70
     8
 71
     3
 72
    15
 73
    11
 74
     0
 42
0.00000001
 43
0.00000001
 40
0.0
 40
0.0
 40
0.0
 40
0.0
 40
0.4220208280299104
 40
0.5757675349191165
 40
0.729107067765164
 40
0.810751677573977
 40
0.9187236235674622
 40
0.9553715006344979
 40
0.9923845056542715
 40
0.9999999999999999
 40
0.9999999999999999
 40
0.9999999999999999
 40
0.9999999999999999
 10
109.7984224207213
 20
173.4775203681583
 30
0.0
 10
109.1712905603257
 20
173.4874128767757
 30
0.0
 10
108.3156878475051
 20
173.5009093322171
 30
0.0
 10
107.2361110703728
 20
173.5441333934681
 30
0.0
 10
106.6657982223134
 20
173.5869301497451
 30
0.0
 10
106.1861959250101
 20
173.6482957241355
 30
0.0
 10
105.8861658078626
 20
173.7112013243666
 30
0.0
 10
105.7209154979153
 20
173.7916607293608
 30
0.0
 10
105.6813255927309
 20
173.8366584546521
 30
0.0
 10
105.6794409064769
 20
173.8623129358942
 30
0.0
 10
105.6791192999314
 20
173.8666906667079
 30
0.0
  0
LWPOLYLINE
  5
201
330
1F
100
AcDbEntity
  8
0
  6
CONTINUOUS
 62
     7
100
AcDbPolyline
 90
        3
 70
   128
 43
0.0
 10
169.987155518
 20
172.4582295145
 10
154.3099430856
 20
172.7235921571
 10
109.7984224207
 20
173.4775203682
  0
LINE
  5
202
330
1F
100
AcDbEntity
  8
0
  6
CONTINUOUS
 62
     7
100
AcDbLine
 10
110.0381736028
 20
173.4764002526
 30
0.0
 11
109.7984224207
 21
173.4775203682
 31
0.0
  0
LINE
  5
203
330
1F
100
AcDbEntity
  8
0
  6
CONTINUOUS
 62
     7
100
AcDbLine
 10
169.5722424285
 20
172.4739662779
 30
0.0
 11
110.0381736028
 21
173.4764002526
 31
0.0
  0
LINE
  5
204
330
1F
100
AcDbEntity
  8
0
  6
CONTINUOUS
 62
     7
100
AcDbLine
 10
109.7984224206
 20
190.7367825173
 30
0.0
 11
110.0381736028
 21
190.7379996866
 31
0.0
  0
SPLINE
  5
205
330
1F
100
AcDbEntity
  8
0
  6
CONTINUOUS
 62
     7
100
AcDbSpline
210
0.0
220
0.0
230
1.0
 70
     8
 71
     3
 72
    14
 73
    10
 74
     0
 42
0.00000001
 43
0.00000001
 40
0.0
 40
0.0
 40
0.0
 40
0.0
 40
0.0308499065074157
 40
0.0688165367071708
 40
0.1296992433581901
 40
0.2526299003951533
 40
0.4573713859133231
 40
0.6632003120895753
 40
1.0
 40
1.0
 40
1.0
 40
1.0
 10
105.6791192999314
 20
190.676028937456
 30
0.0
 10
105.6843226231432
 20
190.6776572516103
 30
0.0
 10
105.6959296172429
 20
190.6812895135342
 30
0.0
 10
105.802705580929
 20
190.6851778584163
 30
0.0
 10
106.0577329052963
 20
190.6882372419106
 30
0.0
 10
106.6000567002842
 20
190.6900189795799
 30
0.0
 10
107.3826068945936
 20
190.6966663616957
 30
0.0
 10
108.492612253167
 20
190.712319383124
 30
0.0
 10
109.2983288303952
 20
190.7274137308397
 30
0.0
 10
109.7984224205784
 20
190.7367825172765
 30
0.0
  0
LINE
  5
206
330
1F
100
AcDbEntity
  8
0
  6
CONTINUOUS
 62
     7
100
AcDbLine
 10
169.5722424285
 20
191.8272908094
 30
0.0
 11
169.987155518
 21
191.8443911044
 31
0.0
  0
SPLINE
  5
207
330
1F
100
AcDbEntity
  8
0
  6
CONTINUOUS
 62
     7
100
AcDbSpline
210
0.0
220
0.0
230
1.0
 70
     8
 71
     3
 72
    14
 73
    10
 74
     0
 42
0.00000001
 43
0.00000001
 40
0.0
 40
0.0
 40
0.0
 40
0.0
 40
0.4393330213529895
 40
0.6862242526176571
 40
0.7797758228740221
 40
0.887762080121467
 40
0.9315133799724948
 40
0.9756933690858857
 40
1.0
 40
1.0
 40
1.0
 40
1.0
 10
169.9871555180153
 20
191.8443911043666
 30
0.0
 10
170.6136590629243
 20
191.8557493063691
 30
0.0
 10
171.5922377400824
 20
191.8734904578453
 30
0.0
 10
172.7044937693136
 20
191.901108802603
 30
0.0
 10
173.3158644863294
 20
191.9184698633475
 30
0.0
 10
173.6341235959192
 20
191.9274143573318
 30
0.0
 10
173.83474649387
 20
191.9304166783081
 30
0.0
 10
173.9173608702555
 20
191.9293986612048
 30
0.0
 10
173.9260369390397
 20
191.9260776626186
 30
0.0
 10
173.929116168262
 20
191.9248990048476
 30
0.0
  0
LWPOLYLINE
  5
208
330
1F
100
AcDbEntity
  8
0
  6
CONTINUOUS
 62
     7
100
AcDbPolyline
 90
        3
 70
   128
 43
0.0
 10
109.7984224206
 20
190.7367825173
 10
122.8423236792
 20
190.9769518012
 10
169.987155518
 20
191.8443911044
  0
LINE
  5
209
330
1F
100
AcDbEntity
  8
0
  6
CONTINUOUS
 62
     7
100
AcDbLine
 10
110.0381736028
 20
190.7379996866
 30
0.0
 11
169.5722424285
 21
191.8272908094
 31
0.0
  0
LINE
  5
20A
330
1F
100
AcDbEntity
  8
0
  6
CONTINUOUS
 62
     7
100
AcDbLine
 10
79.608975444
 20
215.0364060539
 30
0.0
 11
79.608975444
 21
212.8885333951
 31
0.0
  0
LINE
  5
20B
330
1F
100
AcDbEntity
  8
0
  6
CONTINUOUS
 62
     7
100
AcDbLine
 10
79.7844390881
 20
211.7019391795
 30
0.0
 11
79.7844390881
 21
216.1628758377
 31
0.0
  0
LINE
  5
20C
330
1F
100
AcDbEntity
  8
0
  6
CONTINUOUS
 62
     7
100
AcDbLine
 10
79.9291161683
 20
216.3779075086
 30
0.0
 11
79.9291161683
 21
211.4869075086
 31
0.0
  0
LINE
  5
20D
330
1F
100
AcDbEntity
  8
0
  6
CONTINUOUS
 62
     7
100
AcDbLine
 10
78.4291161683
 20
231.8324075086
 30
0.0
 11
65.4291161683
 21
231.8324075086
 31
0.0
  0
LINE
  5
20E
330
1F
100
AcDbEntity
  8
0
  6
CONTINUOUS
 62
     7
100
AcDbLine
 10
78.4291161683
 20
231.8324075086
 30
0.0
 11
78.4291161683
 21
230.6824075086
 31
0.0
  0
LINE
  5
20F
330
1F
100
AcDbEntity
  8
0
  6
CONTINUOUS
 62
     7
100
AcDbLine
 10
65.4291161683
 20
230.6824075086
 30
0.0
 11
78.4291161683
 21
230.6824075086
 31
0.0
  0
LINE
  5
210
330
1F
100
AcDbEntity
  8
0
  6
CONTINUOUS
 62
     7
100
AcDbLine
 10
65.4291161683
 20
231.8324075086
 30
0.0
 11
65.4291161683
 21
230.6824075086
 31
0.0
  0
LINE
  5
211
330
1F
100
AcDbEntity
  8
0
  6
CONTINUOUS
 62
     7
100
AcDbLine
 10
66.0291161683
 20
232.4324075086
 30
0.0
 11
77.8291161683
 21
232.4324075086
 31
0.0
  0
LINE
  5
212
330
1F
100
AcDbEntity
  8
0
  6
CONTINUOUS
 62
     7
100
AcDbLine
 10
77.8291161683
 20
232.4324075086
 30
0.0
 11
78.4291161683
 21
231.8324075086
 31
0.0
  0
LINE
  5
213
330
1F
100
AcDbEntity
  8
0
  6
CONTINUOUS
 62
     7
100
AcDbLine
 10
65.4291161683
 20
231.8324075086
 30
0.0
 11
66.0291161683
 21
232.4324075086
 31
0.0
  0
LINE
  5
214
330
1F
100
AcDbEntity
  8
0
  6
CONTINUOUS
 62
     7
100
AcDbLine
 10
78.4291161683
 20
229.1824075086
 30
0.0
 11
78.4291161683
 21
221.9324075086
 31
0.0
  0
LINE
  5
215
330
1F
100
AcDbEntity
  8
0
  6
CONTINUOUS
 62
     7
100
AcDbLine
 10
79.9291161683
 20
221.9324075086
 30
0.0
 11
78.4291161683
 21
221.9324075086
 31
0.0
  0
LINE
  5
216
330
1F
100
AcDbEntity
  8
0
  6
CONTINUOUS
 62
     7
100
AcDbLine
 10
65.4291161683
 20
221.9324075086
 30
0.0
 11
63.9291161683
 21
221.9324075086
 31
0.0
  0
LINE
  5
217
330
1F
100
AcDbEntity
  8
0
  6
CONTINUOUS
 62
     7
100
AcDbLine
 10
65.4291161683
 20
229.1824075086
 30
0.0
 11
65.4291161683
 21
221.9324075086
 31
0.0
  0
LINE
  5
218
330
1F
100
AcDbEntity
  8
0
  6
CONTINUOUS
 62
     7
100
AcDbLine
 10
65.4291161683
 20
229.1824075086
 30
0.0
 11
78.4291161683
 21
229.1824075086
 31
0.0
  0
LINE
  5
219
330
1F
100
AcDbEntity
  8
0
  6
CONTINUOUS
 62
     7
100
AcDbLine
 10
79.9291161683
 20
211.4324075086
 30
0.0
 11
79.8934721293
 21
211.5492948772
 31
0.0
  0
SPLINE
  5
21A
330
1F
100
AcDbEntity
  8
0
  6
CONTINUOUS
 62
     7
100
AcDbSpline
210
0.0
220
0.0
230
1.0
 70
     8
 71
     3
 72
    11
 73
     7
 74
     0
 42
0.00000001
 43
0.00000001
 40
0.0
 40
0.0
 40
0.0
 40
0.0
 40
0.2891676936119607
 40
0.5819556417234937
 40
0.863265558452157
 40
1.0
 40
1.0
 40
1.0
 40
1.0
 10
79.64827982996111
 20
212.5866568867859
 30
0.0
 10
79.61092193591288
 20
212.8301893156061
 30
0.0
 10
79.535738443135
 20
213.3203030939617
 30
0.0
 10
79.51823098088248
 20
214.1577225685849
 30
0.0
 10
79.57079968785547
 20
214.8370445948509
 30
0.0
 10
79.63131680184094
 20
215.1576262544737
 30
0.0
 10
79.65111081082841
 20
215.2624824816447
 30
0.0
  0
SPLINE
  5
21B
330
1F
100
AcDbEntity
  8
0
  6
CONTINUOUS
 62
     7
100
AcDbSpline
210
0.0
220
0.0
230
1.0
 70
     8
 71
     3
 72
     9
 73
     5
 74
     0
 42
0.00000001
 43
0.00000001
 40
0.0
 40
0.0
 40
0.0
 40
0.0
 40
0.4684689028160656
 40
1.0
 40
1.0
 40
1.0
 40
1.0
 10
79.88884049111871
 20
216.296973594997
 30
0.0
 10
79.90178762661934
 20
216.3410409356264
 30
0.0
 10
79.92942475562147
 20
216.4351076716777
 30
0.0
 10
79.922350518787
 20
216.4112131377514
 30
0.0
 10
79.91859034192065
 20
216.398512449917
 30
0.0
  0
LINE
  5
21C
330
1F
100
AcDbEntity
  8
0
  6
CONTINUOUS
 62
     7
100
AcDbLine
 10
78.4291161683
 20
229.1824075086
 30
0.0
 11
78.4291161683
 21
230.6824075086
 31
0.0
  0
LINE
  5
21D
330
1F
100
AcDbEntity
  8
0
  6
CONTINUOUS
 62
     7
100
AcDbLine
 10
65.4291161683
 20
230.6824075086
 30
0.0
 11
65.4291161683
 21
229.1824075086
 31
0.0
  0
LINE
  5
21E
330
1F
100
AcDbEntity
  8
0
  6
CONTINUOUS
 62
     8
100
AcDbLine
 10
182.2504073872
 20
187.8138309086
 30
0.0
 11
182.2504073872
 21
191.9324075086
 31
0.0
  0
LINE
  5
21F
330
1F
100
AcDbEntity
  8
0
  6
CONTINUOUS
 62
     8
100
AcDbLine
 10
182.2504073872
 20
171.9324075086
 30
0.0
 11
182.2504073872
 21
187.8138309086
 31
0.0
  0
LINE
  5
220
330
1F
100
AcDbEntity
  8
0
  6
CONTINUOUS
 62
     8
100
AcDbLine
 10
182.4459250253
 20
187.7209663286
 30
0.0
 11
182.4459250253
 21
172.0903022455
 31
0.0
  0
LINE
  5
221
330
1F
100
AcDbEntity
  8
0
  6
CONTINUOUS
 62
     8
100
AcDbLine
 10
182.4459250253
 20
191.7745127718
 30
0.0
 11
182.4459250253
 21
187.7209663286
 31
0.0
  0
LINE
  5
222
330
1F
100
AcDbEntity
  8
0
  6
CONTINUOUS
 62
     8
100
AcDbLine
 10
183.9120301753
 20
172.0915836949
 30
0.0
 11
183.9120301753
 21
191.7732313223
 31
0.0
  0
LINE
  5
223
330
1F
100
AcDbEntity
  8
0
  6
CONTINUOUS
 62
     8
100
AcDbLine
 10
184.1111138644
 20
191.9307512134
 30
0.0
 11
184.1111138644
 21
171.9340638038
 31
0.0
  0
LINE
  5
224
330
1F
100
AcDbEntity
  8
0
  6
CONTINUOUS
 62
     8
100
AcDbLine
 10
95.6253236265
 20
173.2657408419
 30
0.0
 11
95.6253236265
 21
190.5990741753
 31
0.0
  0
LINE
  5
225
330
1F
100
AcDbEntity
  8
0
  6
CONTINUOUS
 62
     8
100
AcDbLine
 10
95.787770199
 20
187.0786529836
 30
0.0
 11
95.787770199
 21
173.1824075086
 31
0.0
  0
LINE
  5
226
330
1F
100
AcDbEntity
  8
0
  6
CONTINUOUS
 62
     8
100
AcDbLine
 10
95.787770199
 20
190.6824075086
 30
0.0
 11
95.787770199
 21
187.0786529836
 31
0.0
  0
LINE
  5
227
330
1F
100
AcDbEntity
  8
0
  6
CONTINUOUS
 62
     8
100
AcDbLine
 10
94.8130907645
 20
186.7845818136
 30
0.0
 11
94.8130907645
 21
190.1824075086
 31
0.0
  0
LINE
  5
228
330
1F
100
AcDbEntity
  8
0
  6
CONTINUOUS
 62
     8
100
AcDbLine
 10
94.8130907645
 20
173.6824075086
 30
0.0
 11
94.8130907645
 21
186.7845818136
 31
0.0
  0
LINE
  5
229
330
1F
100
AcDbEntity
  8
0
  6
CONTINUOUS
 62
     8
100
AcDbLine
 10
94.1291161683
 20
186.7845818136
 30
0.0
 11
94.1291161683
 21
173.6824075086
 31
0.0
  0
LINE
  5
22A
330
1F
100
AcDbEntity
  8
0
  6
CONTINUOUS
 62
     8
100
AcDbLine
 10
94.1291161683
 20
190.1824075086
 30
0.0
 11
94.1291161683
 21
186.7845818136
 31
0.0
  0
ARC
  5
22B
330
1F
100
AcDbEntity
  8
0
  6
CONTINUOUS
 62
     8
100
AcDbCircle
 10
161.2823801518
 20
183.2393335389
 30
0.0
 40
8.310278545679605
100
AcDbArc
 50
356.2678940879
 51
1.5908340293
  0
ARC
  5
22C
330
1F
100
AcDbEntity
  8
0
  6
CONTINUOUS
 62
     8
100
AcDbCircle
 10
160.1970759098
 20
179.7904197915
 30
0.0
 40
9.393909310020744
100
AcDbArc
 50
358.9660400187
 51
3.1776131302
  0
ARC
  5
22D
330
1F
100
AcDbEntity
  8
0
  6
CONTINUOUS
 62
     8
100
AcDbCircle
 10
101.4408798248
 20
183.0465979632
 30
0.0
 40
8.617531049307173
100
AcDbArc
 50
356.384043647
 51
1.5179334551
  0
ARC
  5
22E
330
1F
100
AcDbEntity
  8
0
  6
CONTINUOUS
 62
     8
100
AcDbCircle
 10
100.3569424398
 20
180.0782346794
 30
0.0
 40
9.699894419214768
100
AcDbArc
 50
359.0092880546
 51
3.0886603666
  0
LWPOLYLINE
  5
22F
330
1F
100
AcDbEntity
  8
0
  6
CONTINUOUS
 62
     8
100
AcDbPolyline
 90
        3
 70
   128
 43
0.0
 10
169.5894556589
 20
187.1303183688
 10
169.5891249115
 20
186.9926256148
 10
169.5885829499
 20
186.9193481783
  0
LINE
  5
230
330
1F
100
AcDbEntity
  8
0
  6
CONTINUOUS
 62
     8
100
AcDbLine
 10
169.5892765348
 20
176.2069958096
 30
0.0
 11
169.5894556589
 21
176.1115307492
 31
0.0
  0
LWPOLYLINE
  5
231
330
1F
100
AcDbEntity
  8
0
  6
CONTINUOUS
 62
     8
100
AcDbPolyline
 90
        3
 70
   128
 43
0.0
 10
110.0553868332
 20
186.48902704
 10
110.0550560858
 20
186.3513342861
 10
110.0544821826
 20
186.274864051
  0
LINE
  5
232
330
1F
100
AcDbEntity
  8
0
  6
CONTINUOUS
 62
     8
100
AcDbLine
 10
110.0551896411
 20
176.9283669885
 30
0.0
 11
110.0553868332
 21
176.8285632331
 31
0.0
  0
LINE
  5
233
330
1F
100
AcDbEntity
  8
0
  6
CONTINUOUS
 62
     8
100
AcDbLine
 10
172.9135915824
 20
190.321939736
 30
0.0
 11
173.9291189707
 21
190.7141266488
 31
0.0
  0
SPLINE
  5
234
330
1F
100
AcDbEntity
  8
0
  6
CONTINUOUS
 62
     8
100
AcDbSpline
210
0.0
220
0.0
230
1.0
 70
     8
 71
     3
 72
     9
 73
     5
 74
     0
 42
0.00000001
 43
0.00000001
 40
0.0
 40
0.0
 40
0.0
 40
0.0
 40
0.7540301350471266
 40
1.0
 40
1.0
 40
1.0
 40
1.0
 10
173.929118970664
 20
190.7665115818002
 30
0.0
 10
173.5885255243015
 20
190.6183334084452
 30
0.0
 10
173.1368281311447
 20
190.4218184862059
 30
0.0
 10
172.65274573976
 20
190.3033899961776
 30
0.0
 10
172.533676059325
 20
190.2742601564788
 30
0.0
  0
ARC
  5
235
330
1F
100
AcDbEntity
  8
0
  6
CONTINUOUS
 62
     8
100
AcDbCircle
 10
71.8232500078
 20
189.0701216871
 30
0.0
 40
97.76987586523158
100
AcDbArc
 50
0.6291497401
 51
1.1842513707
  0
SPLINE
  5
236
330
1F
100
AcDbEntity
  8
0
  6
CONTINUOUS
 62
     8
100
AcDbSpline
210
0.0
220
0.0
230
1.0
 70
     8
 71
     3
 72
     9
 73
     5
 74
     0
 42
0.00000001
 43
0.00000001
 40
0.0
 40
0.0
 40
0.0
 40
0.0
 40
0.9866578832483519
 40
1.0
 40
1.0
 40
1.0
 40
1.0
 10
105.6791192999314
 20
189.6133929638592
 30
0.0
 10
106.0239324215129
 20
189.4710368706641
 30
0.0
 10
106.3734082909463
 20
189.3267557620731
 30
0.0
 10
106.745130240178
 20
189.2431425923547
 30
0.0
 10
106.7500897978238
 20
189.2420270156823
 30
0.0
  0
ARC
  5
237
330
1F
100
AcDbEntity
  8
0
  6
CONTINUOUS
 62
     8
100
AcDbCircle
 10
12.4173336208
 20
188.1119350087
 30
0.0
 40
97.64170503991674
100
AcDbArc
 50
0.625521585
 51
1.1845065987
  0
SPLINE
  5
238
330
1F
100
AcDbEntity
  8
0
  6
CONTINUOUS
 62
     8
100
AcDbSpline
210
0.0
220
0.0
230
1.0
 70
     8
 71
     3
 72
     9
 73
     5
 74
     0
 42
0.00000001
 43
0.00000001
 40
0.0
 40
0.0
 40
0.0
 40
0.0
 40
0.3129014870514945
 40
1.0
 40
1.0
 40
1.0
 40
1.0
 10
107.2384240673435
 20
189.1939018622942
 30
0.0
 10
107.0695839455885
 20
189.2257197490051
 30
0.0
 10
106.5299888054506
 20
189.3274063437564
 30
0.0
 10
106.0256498477734
 20
189.5276291851099
 30
0.0
 10
105.6791192999314
 20
189.6652020016623
 30
0.0
  0
LINE
  5
239
330
1F
100
AcDbEntity
  8
0
  6
CONTINUOUS
 62
     8
100
AcDbLine
 10
173.9291189707
 20
172.7607706141
 30
0.0
 11
173.1921615903
 21
173.0577183823
 31
0.0
  0
ARC
  5
23A
330
1F
100
AcDbEntity
  8
0
  6
CONTINUOUS
 62
     8
100
AcDbCircle
 10
47.2650879181
 20
174.9024695297
 30
0.0
 40
122.3312620406978
100
AcDbArc
 50
358.862497407
 51
359.2300521234
  0
LINE
  5
23B
330
1F
100
AcDbEntity
  8
0
  6
CONTINUOUS
 62
     8
100
AcDbLine
 10
173.0054988833
 20
173.0882299356
 30
0.0
 11
173.9291189707
 21
172.717242148
 31
0.0
  0
LINE
  5
23C
330
1F
100
AcDbEntity
  8
0
  6
CONTINUOUS
 62
     8
100
AcDbLine
 10
106.4442032146
 20
174.1878621962
 30
0.0
 11
105.6791192999
 21
173.9097406014
 31
0.0
  0
LINE
  5
23D
330
1F
100
AcDbEntity
  8
0
  6
CONTINUOUS
 62
     8
100
AcDbLine
 10
105.6791192999
 20
173.8666906667
 30
0.0
 11
106.6194318133
 21
174.2071495815
 31
0.0
  0
ARC
  5
23E
330
1F
100
AcDbEntity
  8
0
  6
CONTINUOUS
 62
     8
100
AcDbCircle
 10
-12.1375647704
 20
175.9025724599
 30
0.0
 40
122.1998255260903
100
AcDbArc
 50
358.8623669348
 51
359.2332051543
  0
LINE
  5
23F
330
1F
100
AcDbEntity
  8
0
  6
CONTINUOUS
 62
     8
100
AcDbLine
 10
110.0381736028
 20
190.7379996866
 30
0.0
 11
110.0397694202
 21
190.6507742317
 31
0.0
  0
LINE
  5
240
330
1F
100
AcDbEntity
  8
0
  6
CONTINUOUS
 62
     8
100
AcDbLine
 10
169.5722424285
 20
191.8272908094
 30
0.0
 11
169.5738969193
 21
191.7368514487
 31
0.0
  0
LINE
  5
241
330
1F
100
AcDbEntity
  8
0
  6
CONTINUOUS
 62
     8
100
AcDbLine
 10
79.9291161683
 20
196.9324075086
 30
0.0
 11
63.9291161683
 21
196.9324075086
 31
0.0
  0
LINE
  5
242
330
1F
100
AcDbEntity
  8
0
  6
CONTINUOUS
 62
     8
100
AcDbLine
 10
86.9291161683
 20
189.9324075086
 30
0.0
 11
86.9291161683
 21
173.9324075086
 31
0.0
  0
LINE
  5
243
330
1F
100
AcDbEntity
  8
0
  6
CONTINUOUS
 62
     7
100
AcDbLine
 10
24.0156925163
 20
111.3107454219
 30
0.0
 11
24.0267195923
 21
111.3101888825
 31
0.0
  0
LINE
  5
244
330
1F
100
AcDbEntity
  8
0
  6
CONTINUOUS
 62
     7
100
AcDbLine
 10
23.4082440129
 20
107.4303719182
 30
0.0
 11
23.4179375918
 21
107.4250860246
 31
0.0
  0
LINE
  5
245
330
1F
100
AcDbEntity
  8
0
  6
CONTINUOUS
 62
     7
100
AcDbLine
 10
22.8793537417
 20
115.0704031724
 30
0.0
 11
22.8895302673
 21
115.0746862168
 31
0.0
  0
LINE
  5
246
330
1F
100
AcDbEntity
  8
0
  6
CONTINUOUS
 62
     7
100
AcDbLine
 10
20.2242935198
 20
117.9646988433
 30
0.0
 11
20.2316039092
 21
117.9729731619
 31
0.0
  0
LINE
  5
247
330
1F
100
AcDbEntity
  8
0
  6
CONTINUOUS
 62
     7
100
AcDbLine
 10
21.1773208576
 20
104.1978382235
 30
0.0
 11
21.1837610071
 21
104.1888699117
 31
0.0
  0
LINE
  5
248
330
1F
100
AcDbEntity
  8
0
  6
CONTINUOUS
 62
     7
100
AcDbLine
 10
16.5763790897
 20
119.4203816805
 30
0.0
 11
16.5793754307
 21
119.4310084431
 31
0.0
  0
LINE
  5
249
330
1F
100
AcDbEntity
  8
0
  6
CONTINUOUS
 62
     7
100
AcDbLine
 10
13.846530295
 20
101.9821414455
 30
0.0
 11
13.843533954
 21
101.9715146829
 31
0.0
  0
LINE
  5
24A
330
1F
100
AcDbEntity
  8
0
  6
CONTINUOUS
 62
     7
100
AcDbLine
 10
17.7647847417
 20
102.2533872805
 30
0.0
 11
17.7666959113
 21
102.2425128346
 31
0.0
  0
LINE
  5
24B
330
1F
100
AcDbEntity
  8
0
  6
CONTINUOUS
 62
     7
100
AcDbLine
 10
12.658124643
 20
119.1491358455
 30
0.0
 11
12.6562134734
 21
119.1600102914
 31
0.0
  0
LINE
  5
24C
330
1F
100
AcDbEntity
  8
0
  6
CONTINUOUS
 62
     7
100
AcDbLine
 10
-32.0385453077
 20
102.701261563
 30
0.0
 11
0.2114546923
 21
102.701261563
 31
0.0
  0
LINE
  5
24D
330
1F
100
AcDbEntity
  8
0
  6
CONTINUOUS
 62
     7
100
AcDbLine
 10
0.2114546923
 20
118.701261563
 30
0.0
 11
-32.0385453077
 21
118.701261563
 31
0.0
  0
LINE
  5
24E
330
1F
100
AcDbEntity
  8
0
  6
CONTINUOUS
 62
     7
100
AcDbLine
 10
0.2114546923
 20
102.701261563
 30
0.0
 11
15.2114546923
 21
102.701261563
 31
0.0
  0
LINE
  5
24F
330
1F
100
AcDbEntity
  8
0
  6
CONTINUOUS
 62
     7
100
AcDbLine
 10
15.2114546923
 20
118.701261563
 30
0.0
 11
0.2114546923
 21
118.701261563
 31
0.0
  0
LINE
  5
250
330
1F
100
AcDbEntity
  8
0
  6
CONTINUOUS
 62
     7
100
AcDbLine
 10
-32.0385453077
 20
117.701261563
 30
0.0
 11
-33.5385453077
 21
117.701261563
 31
0.0
  0
LINE
  5
251
330
1F
100
AcDbEntity
  8
0
  6
CONTINUOUS
 62
     7
100
AcDbLine
 10
-33.5385453077
 20
103.701261563
 30
0.0
 11
-32.0385453077
 21
103.701261563
 31
0.0
  0
LINE
  5
252
330
1F
100
AcDbEntity
  8
0
  6
CONTINUOUS
 62
     7
100
AcDbLine
 10
-33.5385453077
 20
118.701261563
 30
0.0
 11
-34.6885453077
 21
118.701261563
 31
0.0
  0
LINE
  5
253
330
1F
100
AcDbEntity
  8
0
  6
CONTINUOUS
 62
     7
100
AcDbLine
 10
-34.6885453077
 20
102.701261563
 30
0.0
 11
-33.5385453077
 21
102.701261563
 31
0.0
  0
LINE
  5
254
330
1F
100
AcDbEntity
  8
0
  6
CONTINUOUS
 62
     7
100
AcDbLine
 10
-34.6885453077
 20
118.701261563
 30
0.0
 11
-35.2885453077
 21
118.101261563
 31
0.0
  0
LINE
  5
255
330
1F
100
AcDbEntity
  8
0
  6
CONTINUOUS
 62
     7
100
AcDbLine
 10
-35.2885453077
 20
103.301261563
 30
0.0
 11
-34.6885453077
 21
102.701261563
 31
0.0
  0
ARC
  5
256
330
1F
100
AcDbEntity
  8
0
  6
CONTINUOUS
 62
     7
100
AcDbCircle
 10
15.2114546923
 20
110.701261563
 30
0.0
 40
8.250000000000007
100
AcDbArc
 50
255.8588897661
 51
104.1411102339
  0
ARC
  5
257
330
1F
100
AcDbEntity
  8
0
  6
CONTINUOUS
 62
     7
100
AcDbCircle
 10
15.2114546923
 20
110.701261563
 30
0.0
 40
8.000000000000002
100
AcDbArc
 50
306.0252935362
 51
90.0
  0
ARC
  5
258
330
1F
100
AcDbEntity
  8
0
  6
CONTINUOUS
 62
     7
100
AcDbCircle
 10
15.2114546923
 20
110.701261563
 30
0.0
 40
8.000000000000002
100
AcDbArc
 50
270.0
 51
306.0252935362
  0
ARC
  5
259
330
1F
100
AcDbEntity
  8
0
  6
CONTINUOUS
 62
     7
100
AcDbCircle
 10
15.2114546923
 20
110.701261563
 30
0.0
 40
8.750000000000005
100
AcDbArc
 50
246.1044918138
 51
113.8955081862
  0
SPLINE
  5
25A
330
1F
100
AcDbEntity
  8
0
  6
CONTINUOUS
 62
     7
100
AcDbSpline
210
0.0
220
0.0
230
1.0
 70
     8
 71
     3
 72
    14
 73
    10
 74
     0
 42
0.00000001
 43
0.00000001
 40
0.0
 40
0.0
 40
0.0
 40
0.0
 40
0.4393330213527497
 40
0.6862242526173017
 40
0.7797758228735051
 40
0.8877620801208806
 40
0.9315133799718386
 40
0.9756933690851508
 40
1.0
 40
1.0
 40
1.0
 40
1.0
 10
25.1234382880989
 20
111.2614865052797
 30
0.0
 10
25.1347964901015
 20
111.2636100457314
 30
0.0
 10
25.15253764157771
 20
111.2669269486016
 30
0.0
 10
25.18015598633533
 20
111.1361447683462
 30
0.0
 10
25.19751704707986
 20
110.9483812097358
 30
0.0
 10
25.20646154106411
 20
110.786717115963
 30
0.0
 10
25.20946386204048
 20
110.5906499312555
 30
0.0
 10
25.20844584493713
 20
110.4464385393489
 30
0.0
 10
25.20512484635082
 20
110.3485560213315
 30
0.0
 10
25.20394618857981
 20
110.3138164731178
 30
0.0
  0
LINE
  5
25B
330
1F
100
AcDbEntity
  8
0
  6
CONTINUOUS
 62
     7
100
AcDbLine
 10
24.015829701
 20
111.3107393279
 30
0.0
 11
25.1234382881
 21
111.2614865053
 31
0.0
  0
SPLINE
  5
25C
330
1F
100
AcDbEntity
  8
0
  6
CONTINUOUS
 62
     7
100
AcDbSpline
210
0.0
220
0.0
230
1.0
 70
     8
 71
     3
 72
    14
 73
    10
 74
     0
 42
0.00000001
 43
0.00000001
 40
0.0
 40
0.0
 40
0.0
 40
0.0
 40
0.0308499065074156
 40
0.0688165367071692
 40
0.1296992433581904
 40
0.252629900395156
 40
0.4573713859133307
 40
0.6632003120895882
 40
1.0
 40
1.0
 40
1.0
 40
1.0
 10
23.95507612118836
 20
110.3672176844295
 30
0.0
 10
23.95670443534259
 20
110.4131925604789
 30
0.0
 10
23.96033669726655
 20
110.5157481952747
 30
0.0
 10
23.96422504214864
 20
110.682990967464
 30
0.0
 10
23.96728442564294
 20
110.8965899233279
 30
0.0
 10
23.96906616331221
 20
111.1178864355878
 30
0.0
 10
23.975713545428
 20
111.2604194037138
 30
0.0
 10
23.99136656685637
 20
111.3128513256794
 30
0.0
 10
24.00646091457206
 20
111.3115481717645
 30
0.0
 10
24.01582970100882
 20
111.3107393278878
 30
0.0
  0
SPLINE
  5
25D
330
1F
100
AcDbEntity
  8
0
  6
CONTINUOUS
 62
     7
100
AcDbSpline
210
0.0
220
0.0
230
1.0
 70
     8
 71
     3
 72
    15
 73
    11
 74
     0
 42
0.00000001
 43
0.00000001
 40
0.0
 40
0.0
 40
0.0
 40
0.0
 40
0.4220208280299104
 40
0.5757675349191165
 40
0.729107067765164
 40
0.810751677573977
 40
0.9187236235674622
 40
0.9553715006344979
 40
0.9923845056542715
 40
0.9999999999999999
 40
0.9999999999999999
 40
0.9999999999999999
 40
0.9999999999999999
 10
23.66634183279916
 20
113.2317488443945
 30
0.0
 10
23.6564493241817
 20
113.2245601353197
 30
0.0
 10
23.64295286874037
 20
113.2147525025482
 30
0.0
 10
23.59972880748935
 20
113.2908494686427
 30
0.0
 10
23.55693205121231
 20
113.3918627855483
 30
0.0
 10
23.49556647682197
 20
113.5484597953992
 30
0.0
 10
23.43266087659085
 20
113.7114587318726
 30
0.0
 10
23.35220147159661
 20
113.9123833202914
 30
0.0
 10
23.30720374630534
 20
114.0218696730924
 30
0.0
 10
23.28154926506328
 20
114.0829869853473
 30
0.0
 10
23.27717153424959
 20
114.0934161629473
 30
0.0
  0
LINE
  5
25E
330
1F
100
AcDbEntity
  8
0
  6
CONTINUOUS
 62
     7
100
AcDbLine
 10
24.6856326864
 20
113.6679469398
 30
0.0
 11
23.6663418328
 21
113.2317488444
 31
0.0
  0
SPLINE
  5
25F
330
1F
100
AcDbEntity
  8
0
  6
CONTINUOUS
 62
     7
100
AcDbSpline
210
0.0
220
0.0
230
1.0
 70
     8
 71
     3
 72
    14
 73
    10
 74
     0
 42
0.00000001
 43
0.00000001
 40
0.0
 40
0.0
 40
0.0
 40
0.0
 40
0.0324876077238382
 40
0.0725202418839067
 40
0.1366529854333403
 40
0.265790790096089
 40
0.4813797232860825
 40
0.6981231342971816
 40
1.0
 40
1.0
 40
1.0
 40
1.0
 10
24.4272113682497
 20
114.5832493129167
 30
0.0
 10
24.44499346551471
 20
114.5402635951544
 30
0.0
 10
24.48468743146698
 20
114.4443090183763
 30
0.0
 10
24.54476254034421
 20
114.2863103817092
 30
0.0
 10
24.61582864205469
 20
114.0829967051072
 30
0.0
 10
24.67900258990324
 20
113.8691714776648
 30
0.0
 10
24.70963084634209
 20
113.7294315950933
 30
0.0
 10
24.70493254419537
 20
113.6771821058303
 30
0.0
 10
24.69273347967489
 20
113.6713447371083
 30
0.0
 10
24.68563268642154
 20
113.6679469398126
 30
0.0
  0
ARC
  5
260
330
1F
100
AcDbEntity
  8
0
  6
CONTINUOUS
 62
     7
100
AcDbCircle
 10
15.2114546923
 20
110.701261563
 30
0.0
 40
10.0
100
AcDbArc
 50
357.7795473853
 51
22.8424682585
  0
SPLINE
  5
261
330
1F
100
AcDbEntity
  8
0
  6
CONTINUOUS
 62
     7
100
AcDbSpline
210
0.0
220
0.0
230
1.0
 70
     8
 71
     3
 72
    14
 73
    10
 74
     0
 42
0.00000001
 43
0.00000001
 40
0.0
 40
0.0
 40
0.0
 40
0.0
 40
0.4393330213530294
 40
0.6862242526177197
 40
0.7797758228741076
 40
0.8877620801215654
 40
0.9315133799726077
 40
0.9756933690860093
 40
1.0
 40
1.0
 40
1.0
 40
1.0
 10
24.38491582398267
 20
106.9053582904186
 30
0.0
 10
24.39607058005377
 20
106.9023433951009
 30
0.0
 10
24.4134939554341
 20
106.8976342241859
 30
0.0
 10
24.38163296286461
 20
106.7678204006078
 30
0.0
 10
24.31580718322922
 20
106.5911185978222
 30
0.0
 10
24.25372247236088
 20
106.4415834117806
 30
0.0
 10
24.17135710687279
 20
106.2636303240904
 30
0.0
 10
24.1078689272122
 20
106.1341420506537
 30
0.0
 10
24.06240717796457
 20
106.0473938764935
 30
0.0
 10
24.04627231893334
 20
106.0166060255099
 30
0.0
  0
LINE
  5
262
330
1F
100
AcDbEntity
  8
0
  6
CONTINUOUS
 62
     7
100
AcDbLine
 10
23.408364968
 20
107.4303069055
 30
0.0
 11
24.384915824
 21
106.9053582904
 31
0.0
  0
SPLINE
  5
263
330
1F
100
AcDbEntity
  8
0
  6
CONTINUOUS
 62
     7
100
AcDbSpline
210
0.0
220
0.0
230
1.0
 70
     8
 71
     3
 72
    14
 73
    10
 74
     0
 42
0.00000001
 43
0.00000001
 40
0.0
 40
0.0
 40
0.0
 40
0.0
 40
0.0308499065074137
 40
0.0688165367071678
 40
0.1296992433581886
 40
0.2526299003951532
 40
0.457371385913327
 40
0.6632003120895825
 40
1.0
 40
1.0
 40
1.0
 40
1.0
 10
22.94424918539455
 20
106.6065832689195
 30
0.0
 10
22.96566399688044
 20
106.6472987019119
 30
0.0
 10
23.01343377408682
 20
106.7381221567059
 30
0.0
 10
23.08950097111103
 20
106.8871155982137
 30
0.0
 10
23.18493449403625
 20
107.0782341909136
 30
0.0
 10
23.28255674240007
 20
107.2768423920331
 30
0.0
 10
23.35038856389747
 20
107.4023759679567
 30
0.0
 10
23.38724080724454
 20
107.442823905866
 30
0.0
 10
23.40027492732445
 20
107.4351006127323
 30
0.0
 10
23.40836496802839
 20
107.4303069054901
 30
0.0
  0
SPLINE
  5
264
330
1F
100
AcDbEntity
  8
0
  6
CONTINUOUS
 62
     7
100
AcDbSpline
210
0.0
220
0.0
230
1.0
 70
     8
 71
     3
 72
    15
 73
    11
 74
     0
 42
0.00000001
 43
0.00000001
 40
0.0
 40
0.0
 40
0.0
 40
0.0
 40
0.4220208280464762
 40
0.5757675349065484
 40
0.729107067723834
 40
0.810751677544095
 40
0.9187236235585982
 40
0.9553715006280868
 40
0.9923845056503445
 40
1.0
 40
1.0
 40
1.0
 40
1.0
 10
23.92698207096108
 20
109.3127137778422
 30
0.0
 10
23.91495016469862
 20
109.3105291733938
 30
0.0
 10
23.89853490614126
 20
109.307548694151
 30
0.0
 10
23.89260860879716
 20
109.394863908868
 30
0.0
 10
23.89787809938242
 20
109.5044425792561
 30
0.0
 10
23.91053452346213
 20
109.6721571347824
 30
0.0
 10
23.92458112406709
 20
109.8463078190905
 30
0.0
 10
23.93926761674245
 20
110.0622446455537
 30
0.0
 10
23.94623041526464
 20
110.1804122221952
 30
0.0
 10
23.94963433430981
 20
110.2466080800802
 30
0.0
 10
23.95021518570792
 20
110.2579038706353
 30
0.0
  0
LINE
  5
265
330
1F
100
AcDbEntity
  8
0
  6
CONTINUOUS
 62
     7
100
AcDbLine
 10
25.0345906581
 20
109.2634609552
 30
0.0
 11
23.926982071
 21
109.3127137778
 31
0.0
  0
SPLINE
  5
266
330
1F
100
AcDbEntity
  8
0
  6
CONTINUOUS
 62
     7
100
AcDbSpline
210
0.0
220
0.0
230
1.0
 70
     8
 71
     3
 72
    14
 73
    10
 74
     0
 42
0.00000001
 43
0.00000001
 40
0.0
 40
0.0
 40
0.0
 40
0.0
 40
0.0324876077236421
 40
0.0725202418832806
 40
0.1366529854316153
 40
0.2657907900913782
 40
0.4813797232738116
 40
0.6981231342772889
 40
1.0
 40
1.0
 40
1.0
 40
1.0
 10
25.19889591164227
 20
110.2002447059174
 30
0.0
 10
25.19626622373275
 20
110.1538005495986
 30
0.0
 10
25.19039612074152
 20
110.0501258968217
 30
0.0
 10
25.17596888432337
 20
109.8817084311471
 30
0.0
 10
25.15178273131018
 20
109.6676947121768
 30
0.0
 10
25.11592520238468
 20
109.4476346903735
 30
0.0
 10
25.08288944516048
 20
109.308444304144
 30
0.0
 10
25.05598621742479
 20
109.2634076578503
 30
0.0
 10
25.04246250070632
 20
109.2634413460894
 30
0.0
 10
25.03459065805168
 20
109.2634609552341
 30
0.0
  0
ARC
  5
267
330
1F
100
AcDbEntity
  8
0
  6
CONTINUOUS
 62
     7
100
AcDbCircle
 10
15.2114546923
 20
110.701261563
 30
0.0
 40
10.0
100
AcDbArc
 50
332.065261671
 51
357.1281825442
  0
SPLINE
  5
268
330
1F
100
AcDbEntity
  8
0
  6
CONTINUOUS
 62
     7
100
AcDbSpline
210
0.0
220
0.0
230
1.0
 70
     8
 71
     3
 72
    14
 73
    10
 74
     0
 42
0.00000001
 43
0.00000001
 40
0.0
 40
0.0
 40
0.0
 40
0.0
 40
0.4393330213529217
 40
0.6862242526175837
 40
0.7797758228739007
 40
0.887762080121324
 40
0.9315133799723349
 40
0.9756933690857076
 40
1.0
 40
1.0
 40
1.0
 40
1.0
 10
23.8987708385748
 20
115.5066552996139
 30
0.0
 10
23.90808285530309
 20
115.5134966826053
 30
0.0
 10
23.92262793024429
 20
115.5241827059677
 30
0.0
 10
24.00425546043311
 20
115.418335183773
 30
0.0
 10
24.10136479055758
 20
115.2566987448892
 30
0.0
 10
24.17956692266385
 20
115.1149252998366
 30
0.0
 10
24.26734228361418
 20
114.939577528649
 30
0.0
 10
24.32899605984065
 20
114.8092058530774
 30
0.0
 10
24.36847357641535
 20
114.7195758243483
 30
0.0
 10
24.38248456753166
 20
114.6877651724827
 30
0.0
  0
LINE
  5
269
330
1F
100
AcDbEntity
  8
0
  6
CONTINUOUS
 62
     7
100
AcDbLine
 10
22.8794799849
 20
115.0704572042
 30
0.0
 11
23.8987708386
 21
115.5066552996
 31
0.0
  0
SPLINE
  5
26A
330
1F
100
AcDbEntity
  8
0
  6
CONTINUOUS
 62
     7
100
AcDbSpline
210
0.0
220
0.0
230
1.0
 70
     8
 71
     3
 72
    14
 73
    10
 74
     0
 42
0.00000001
 43
0.00000001
 40
0.0
 40
0.0
 40
0.0
 40
0.0
 40
0.0308499065074137
 40
0.0688165367071679
 40
0.1296992433581867
 40
0.2526299003951481
 40
0.457371385913315
 40
0.6632003120895636
 40
1.0
 40
1.0
 40
1.0
 40
1.0
 10
23.2341215995201
 20
114.1940135868695
 30
0.0
 10
23.21564090875444
 20
114.2361420179294
 30
0.0
 10
23.17441624137523
 20
114.3301174314934
 30
0.0
 10
23.10535559972377
 20
114.4824850522339
 30
0.0
 10
23.01543489536534
 20
114.6762584784338
 30
0.0
 10
22.92102322734306
 20
114.8764128135573
 30
0.0
 10
22.86516957452442
 20
115.0077147714964
 30
0.0
 10
22.8565231011684
 20
115.0617458923375
 30
0.0
 10
22.87068805583479
 20
115.0671209832565
 30
0.0
 10
22.87947998494996
 20
115.0704572041948
 30
0.0
  0
SPLINE
  5
26B
330
1F
100
AcDbEntity
  8
0
  6
CONTINUOUS
 62
     7
100
AcDbSpline
210
0.0
220
0.0
230
1.0
 70
     8
 71
     3
 72
    15
 73
    11
 74
     0
 42
0.00000001
 43
0.00000001
 40
0.0
 40
0.0
 40
0.0
 40
0.0
 40
0.422020828029924
 40
0.5757675349191027
 40
0.7291070677651229
 40
0.8107516775739458
 40
0.9187236235674522
 40
0.9553715006344883
 40
0.9923845056542678
 40
1.0
 40
1.0
 40
1.0
 40
1.0
 10
21.73110750408111
 20
116.6495898704766
 30
0.0
 10
21.72531372576414
 20
116.6388208687716
 30
0.0
 10
21.71740921196325
 20
116.6241286044249
 30
0.0
 10
21.64544844224721
 20
116.6739353845024
 30
0.0
 10
21.56306186155474
 20
116.7463764216424
 30
0.0
 10
21.4398284932993
 20
116.860839927455
 30
0.0
 10
21.31242991784511
 20
116.9804031776791
 30
0.0
 10
21.15276058711155
 20
117.1265199491545
 30
0.0
 10
21.06471468936202
 20
117.205639963187
 30
0.0
 10
21.01508299247475
 20
117.2495736965723
 30
0.0
 10
21.00661374272654
 20
117.2570706346934
 30
0.0
  0
LINE
  5
26C
330
1F
100
AcDbEntity
  8
0
  6
CONTINUOUS
 62
     7
100
AcDbLine
 10
22.4601975699
 20
117.4848445015
 30
0.0
 11
21.7311075041
 21
116.6495898705
 31
0.0
  0
SPLINE
  5
26D
330
1F
100
AcDbEntity
  8
0
  6
CONTINUOUS
 62
     7
100
AcDbSpline
210
0.0
220
0.0
230
1.0
 70
     8
 71
     3
 72
    14
 73
    10
 74
     0
 42
0.00000001
 43
0.00000001
 40
0.0
 40
0.0
 40
0.0
 40
0.0
 40
0.0324876077238645
 40
0.0725202418839968
 40
0.1366529854335823
 40
0.2657907900967365
 40
0.481379723287764
 40
0.6981231342999001
 40
1.0
 40
1.0
 40
1.0
 40
1.0
 10
21.83023319135624
 20
118.1973786365922
 30
0.0
 10
21.86490511134938
 20
118.1663652059746
 30
0.0
 10
21.94230126947395
 20
118.0971356859325
 30
0.0
 10
22.06498011156087
 20
117.9808494459919
 30
0.0
 10
22.21722295498313
 20
117.8285045788891
 30
0.0
 10
22.36691600445773
 20
117.6632648544986
 30
0.0
 10
22.4551419727409
 20
117.5506526731237
 30
0.0
 10
22.47357915254256
 20
117.5015389930319
 30
0.0
 10
22.46512091455978
 20
117.490986729815
 30
0.0
 10
22.46019756989659
 20
117.4848445015046
 30
0.0
  0
ARC
  5
26E
330
1F
100
AcDbEntity
  8
0
  6
CONTINUOUS
 62
     7
100
AcDbCircle
 10
15.2114546923
 20
110.701261563
 30
0.0
 40
10.00000000000001
100
AcDbArc
 50
23.4938330996
 51
48.5567539728
  0
SPLINE
  5
26F
330
1F
100
AcDbEntity
  8
0
  6
CONTINUOUS
 62
     7
100
AcDbSpline
210
0.0
220
0.0
230
1.0
 70
     8
 71
     3
 72
    14
 73
    10
 74
     0
 42
0.00000001
 43
0.00000001
 40
0.0
 40
0.0
 40
0.0
 40
0.0
 40
0.4393330213524207
 40
0.6862242526167752
 40
0.7797758228727832
 40
0.8877620801200755
 40
0.9315133799709241
 40
0.9756933690841236
 40
1.0
 40
1.0
 40
1.0
 40
1.0
 10
20.95347388334921
 20
118.8000569301248
 30
0.0
 10
20.95889535568575
 20
118.8102611358502
 30
0.0
 10
20.96736352361625
 20
118.8261997817227
 30
0.0
 10
21.08683290578628
 20
118.766251317494
 30
0.0
 10
21.24445681149172
 20
118.6627560773988
 30
0.0
 10
21.37642769036975
 20
118.5689532505965
 30
0.0
 10
21.53159110456335
 20
118.4490546695122
 30
0.0
 10
21.64370538760518
 20
118.3583444195249
 30
0.0
 10
21.71816241302496
 20
118.2947192065119
 30
0.0
 10
21.74458800440624
 20
118.272137940726
 30
0.0
  0
LINE
  5
270
330
1F
100
AcDbEntity
  8
0
  6
CONTINUOUS
 62
     7
100
AcDbLine
 10
20.2243838175
 20
117.9648022991
 30
0.0
 11
20.9534738833
 21
118.8000569301
 31
0.0
  0
SPLINE
  5
271
330
1F
100
AcDbEntity
  8
0
  6
CONTINUOUS
 62
     7
100
AcDbSpline
210
0.0
220
0.0
230
1.0
 70
     8
 71
     3
 72
    14
 73
    10
 74
     0
 42
0.00000001
 43
0.00000001
 40
0.0
 40
0.0
 40
0.0
 40
0.0
 40
0.0308499065074137
 40
0.0688165367071674
 40
0.1296992433581911
 40
0.2526299003951559
 40
0.4573713859133324
 40
0.6632003120895903
 40
1.0
 40
1.0
 40
1.0
 40
1.0
 10
20.9241795053331
 20
117.3290271151893
 30
0.0
 10
20.88925013710451
 20
117.3589650488169
 30
0.0
 10
20.81133359138393
 20
117.4257472579601
 30
0.0
 10
20.68300227025123
 20
117.533061451298
 30
0.0
 10
20.51791137634326
 20
117.6686301442998
 30
0.0
 10
20.34600569136435
 20
117.8079992814839
 30
0.0
 10
20.23871350455216
 20
117.9020642661534
 30
0.0
 10
20.20748007650196
 20
117.9469930597392
 30
0.0
 10
20.21791009512558
 20
117.9579817928144
 30
0.0
 10
20.22438381753194
 20
117.9648022990948
 30
0.0
  0
SPLINE
  5
272
330
1F
100
AcDbEntity
  8
0
  6
CONTINUOUS
 62
     7
100
AcDbSpline
210
0.0
220
0.0
230
1.0
 70
     8
 71
     3
 72
    15
 73
    11
 74
     0
 42
0.00000001
 43
0.00000001
 40
0.0
 40
0.0
 40
0.0
 40
0.0
 40
0.4220208280299134
 40
0.575767534919112
 40
0.7291070677651522
 40
0.8107516775739675
 40
0.9187236235674605
 40
0.9553715006344965
 40
0.9923845056542716
 40
1.0
 40
1.0
 40
1.0
 40
1.0
 10
18.50457597770422
 20
118.8892915238033
 30
0.0
 10
18.50402845853942
 20
118.8770751623289
 30
0.0
 10
18.50328147227974
 20
118.8604082495498
 30
0.0
 10
18.41683670708188
 20
118.8740599999759
 30
0.0
 10
18.31117797468514
 20
118.9035809215135
 30
0.0
 10
18.15048469250576
 20
118.9532400221591
 30
0.0
 10
17.98382599213817
 20
119.0056866180799
 30
0.0
 10
17.7765712048329
 20
119.0680553540165
 30
0.0
 10
17.66291570448653
 20
119.1011383401583
 30
0.0
 10
17.59913695821535
 20
119.119186879965
 30
0.0
 10
17.58825362831382
 20
119.1222667180685
 30
0.0
  0
LINE
  5
273
330
1F
100
AcDbEntity
  8
0
  6
CONTINUOUS
 62
     7
100
AcDbLine
 10
18.7990600265
 20
119.958170267
 30
0.0
 11
18.5045759777
 21
118.8892915238
 31
0.0
  0
SPLINE
  5
274
330
1F
100
AcDbEntity
  8
0
  6
CONTINUOUS
 62
     7
100
AcDbSpline
210
0.0
220
0.0
230
1.0
 70
     8
 71
     3
 72
    14
 73
    10
 74
     0
 42
0.00000001
 43
0.00000001
 40
0.0
 40
0.0
 40
0.0
 40
0.0
 40
0.0324876077239086
 40
0.0725202418841318
 40
0.1366529854339687
 40
0.2657907900978128
 40
0.4813797232905684
 40
0.6981231343044371
 40
1.0
 40
1.0
 40
1.0
 40
1.0
 10
17.92232475874285
 20
120.3268100399999
 30
0.0
 10
17.96701930248634
 20
120.3139114868157
 30
0.0
 10
18.06678839446516
 20
120.2851187789983
 30
0.0
 10
18.22777292052935
 20
120.2335768517616
 30
0.0
 10
18.43103894338807
 20
120.1623745634749
 30
0.0
 10
18.63760255017566
 20
120.0784480960841
 30
0.0
 10
18.76595199526405
 20
120.0152678395247
 30
0.0
 10
18.80387294743584
 20
119.9790175352855
 30
0.0
 10
18.8008307937568
 20
119.9658403827189
 30
0.0
 10
18.79906002647519
 20
119.9581702670404
 30
0.0
  0
ARC
  5
275
330
1F
100
AcDbEntity
  8
0
  6
CONTINUOUS
 62
     7
100
AcDbCircle
 10
15.2114546923
 20
110.701261563
 30
0.0
 40
9.999999999999995
100
AcDbArc
 50
49.2081188138
 51
74.2710396871
  0
SPLINE
  5
276
330
1F
100
AcDbEntity
  8
0
  6
CONTINUOUS
 62
     7
100
AcDbSpline
210
0.0
220
0.0
230
1.0
 70
     8
 71
     3
 72
    14
 73
    10
 74
     0
 42
0.00000001
 43
0.00000001
 40
0.0
 40
0.0
 40
0.0
 40
0.0
 40
0.4393330213526306
 40
0.6862242526171227
 40
0.7797758228732533
 40
0.8877620801206063
 40
0.9315133799715205
 40
0.975693369084789
 40
1.0
 40
1.0
 40
1.0
 40
1.0
 10
21.82947687762791
 20
103.3010552723905
 30
0.0
 10
21.8382188515235
 20
103.2934990782962
 30
0.0
 10
21.85187353763024
 20
103.2816965426501
 30
0.0
 10
21.76684366806146
 20
103.1785622955709
 30
0.0
 10
21.63086865100324
 20
103.0479202077574
 30
0.0
 10
21.51005137368907
 20
102.9401312069718
 30
0.0
 10
21.35863179251663
 20
102.8155380077678
 30
0.0
 10
21.24524806291117
 20
102.726419593423
 30
0.0
 10
21.16664981999099
 20
102.6679873029067
 30
0.0
 10
21.13875446641024
 20
102.6472490606263
 30
0.0
  0
LINE
  5
277
330
1F
100
AcDbEntity
  8
0
  6
CONTINUOUS
 62
     7
100
AcDbLine
 10
21.1774016264
 20
104.1977271686
 30
0.0
 11
21.8294768776
 21
103.3010552724
 31
0.0
  0
SPLINE
  5
278
330
1F
100
AcDbEntity
  8
0
  6
CONTINUOUS
 62
     7
100
AcDbSpline
210
0.0
220
0.0
230
1.0
 70
     8
 71
     3
 72
    14
 73
    10
 74
     0
 42
0.00000001
 43
0.00000001
 40
0.0
 40
0.0
 40
0.0
 40
0.0
 40
0.0308499065070478
 40
0.0688165367063491
 40
0.1296992433566416
 40
0.2526299003921321
 40
0.4573713859078519
 40
0.6632003120816413
 40
1.0
 40
1.0
 40
1.0
 40
1.0
 10
20.40184746375144
 20
103.6569501074854
 30
0.0
 10
20.43880730651879
 20
103.6843419065748
 30
0.0
 10
20.52125320877396
 20
103.7454444822684
 30
0.0
 10
20.65443321666674
 20
103.8466786147195
 30
0.0
 10
20.82333909939214
 20
103.9774634630555
 30
0.0
 10
20.99746657490375
 20
104.1140465630332
 30
0.0
 10
21.11304791163247
 20
104.1977172824742
 30
0.0
 10
21.16380033814114
 20
104.2181700261635
 30
0.0
 10
21.17219266325024
 20
104.2055562867352
 30
0.0
 10
21.17740162644208
 20
104.1977271686376
 30
0.0
  0
SPLINE
  5
279
330
1F
100
AcDbEntity
  8
0
  6
CONTINUOUS
 62
     7
100
AcDbSpline
210
0.0
220
0.0
230
1.0
 70
     8
 71
     3
 72
    15
 73
    11
 74
     0
 42
0.00000001
 43
0.00000001
 40
0.0
 40
0.0
 40
0.0
 40
0.0
 40
0.422020828029913
 40
0.575767534919113
 40
0.7291070677651541
 40
0.8107516775739709
 40
0.918723623567459
 40
0.9553715006344957
 40
0.9923845056542725
 40
1.0
 40
1.0
 40
1.0
 40
1.0
 10
22.46140522286512
 20
105.6686976295608
 30
0.0
 10
22.44961698555438
 20
105.6719498174419
 30
0.0
 10
22.43353416715621
 20
105.6763868121943
 30
0.0
 10
22.46607940958421
 20
105.7576264263926
 30
0.0
 10
22.51837145979818
 20
105.8540670507402
 30
0.0
 10
22.60254312234243
 20
105.9996812273819
 30
0.0
 10
22.69075982226222
 20
106.1504909806711
 30
0.0
 10
22.79768337261243
 20
106.338671108378
 30
0.0
 10
22.85522762730677
 20
106.4421153710643
 30
0.0
 10
22.88701575872523
 20
106.5002788730737
 30
0.0
 10
22.89244014759154
 20
106.510204006721
 30
0.0
  0
LINE
  5
27A
330
1F
100
AcDbEntity
  8
0
  6
CONTINUOUS
 62
     7
100
AcDbLine
 10
23.4379560788
 20
105.1437490145
 30
0.0
 11
22.4614052229
 21
105.6686976296
 31
0.0
  0
SPLINE
  5
27B
330
1F
100
AcDbEntity
  8
0
  6
CONTINUOUS
 62
     7
100
AcDbSpline
210
0.0
220
0.0
230
1.0
 70
     8
 71
     3
 72
    14
 73
    10
 74
     0
 42
0.00000001
 43
0.00000001
 40
0.0
 40
0.0
 40
0.0
 40
0.0
 40
0.0324876077240695
 40
0.0725202418846461
 40
0.1366529854353771
 40
0.2657907901016657
 40
0.4813797233006123
 40
0.6981231343207279
 40
1.0
 40
1.0
 40
1.0
 40
1.0
 10
23.99244523362257
 20
105.9164726320222
 30
0.0
 10
23.96992460247979
 20
105.8757688719056
 30
0.0
 10
23.91965307643393
 20
105.7849081795966
 30
0.0
 10
23.83358098583036
 20
105.6394290294932
 30
0.0
 10
23.71893294231953
 20
105.4571033098983
 30
0.0
 10
23.59114595998447
 20
105.2743940799067
 30
0.0
 10
23.5009893259725
 20
105.1633215530756
 30
0.0
 10
23.45720968685415
 20
105.1344178099071
 30
0.0
 10
23.44503985589197
 20
105.1403158827376
 30
0.0
 10
23.43795607881699
 20
105.1437490144905
 30
0.0
  0
ARC
  5
27C
330
1F
100
AcDbEntity
  8
0
  6
CONTINUOUS
 62
     7
100
AcDbCircle
 10
15.2114546923
 20
110.701261563
 30
0.0
 40
10.00000000000002
100
AcDbArc
 50
306.3509759567
 51
331.4138968299
  0
SPLINE
  5
27D
330
1F
100
AcDbEntity
  8
0
  6
CONTINUOUS
 62
     7
100
AcDbSpline
210
0.0
220
0.0
230
1.0
 70
     8
 71
     3
 72
    15
 73
    11
 74
     0
 42
0.00000001
 43
0.00000001
 40
0.0
 40
0.0
 40
0.0
 40
0.0
 40
0.4220208280364287
 40
0.5757675349141668
 40
0.7291070677488933
 40
0.810751677562211
 40
0.9187236235639735
 40
0.9553715006319721
 40
0.9923845056527254
 40
1.0
 40
1.0
 40
1.0
 40
1.0
 10
19.55988675738744
 20
103.0214424886442
 30
0.0
 10
19.55067699400123
 20
103.0294873331596
 30
0.0
 10
19.53811201519039
 20
103.0404630006804
 30
0.0
 10
19.60268281299259
 20
103.0995365124397
 30
0.0
 10
19.69164034096145
 20
103.1637378422998
 30
0.0
 10
19.8306560118947
 20
103.2584109665012
 30
0.0
 10
19.97557041180571
 20
103.356010067578
 30
0.0
 10
20.15355349935906
 20
103.4791621143775
 30
0.0
 10
20.25028186485203
 20
103.547394658231
 30
0.0
 10
20.30415817936311
 20
103.5860058094718
 30
0.0
 10
20.3133517389589
 20
103.5925944917753
 30
0.0
  0
LINE
  5
27E
330
1F
100
AcDbEntity
  8
0
  6
CONTINUOUS
 62
     7
100
AcDbLine
 10
20.2119620086
 20
102.1247705924
 30
0.0
 11
19.5598867574
 21
103.0214424886
 31
0.0
  0
SPLINE
  5
27F
330
1F
100
AcDbEntity
  8
0
  6
CONTINUOUS
 62
     7
100
AcDbSpline
210
0.0
220
0.0
230
1.0
 70
     8
 71
     3
 72
    14
 73
    10
 74
     0
 42
0.00000001
 43
0.00000001
 40
0.0
 40
0.0
 40
0.0
 40
0.0
 40
0.0324876077238835
 40
0.0725202418838663
 40
0.1366529854328858
 40
0.2657907900942454
 40
0.481379723280084
 40
0.6981231342869841
 40
1.0
 40
1.0
 40
1.0
 40
1.0
 10
21.04681168712649
 20
102.5803866875029
 30
0.0
 10
21.00886059994613
 20
102.5534852024789
 30
0.0
 10
20.92414454312014
 20
102.4934345450851
 30
0.0
 10
20.78347523148223
 20
102.3997076404187
 30
0.0
 10
20.60107274856088
 20
102.2851817650481
 30
0.0
 10
20.40666609187695
 20
102.1760111306542
 30
0.0
 10
20.2772452081403
 20
102.1150557393688
 30
0.0
 10
20.22526025207492
 20
102.1080096401195
 30
0.0
 10
20.21685469114355
 20
102.1186039118832
 30
0.0
 10
20.21196200857325
 20
102.1247705923971
 30
0.0
  0
ARC
  5
280
330
1F
100
AcDbEntity
  8
0
  6
CONTINUOUS
 62
     7
100
AcDbCircle
 10
15.2114546923
 20
110.701261563
 30
0.0
 40
10.00000000000002
100
AcDbArc
 50
280.6366902425
 51
305.6996111157
  0
SPLINE
  5
281
330
1F
100
AcDbEntity
  8
0
  6
CONTINUOUS
 62
     7
100
AcDbSpline
210
0.0
220
0.0
230
1.0
 70
     8
 71
     3
 72
    14
 73
    10
 74
     0
 42
0.00000001
 43
0.00000001
 40
0.0
 40
0.0
 40
0.0
 40
0.0
 40
0.4393330213532826
 40
0.686224252618141
 40
0.779775822874694
 40
0.887762080122198
 40
0.9315133799733261
 40
0.9756933690868189
 40
1.0
 40
1.0
 40
1.0
 40
1.0
 10
17.96325747276233
 20
101.1624538677915
 30
0.0
 10
17.96785520933912
 20
101.1518529718316
 30
0.0
 10
17.97503672812507
 20
101.1352947083877
 30
0.0
 10
17.853679190048
 20
101.0792670403
 30
0.0
 10
17.6744864553192
 20
101.02055993517
 30
0.0
 10
17.51886595505727
 20
100.9758660531908
 30
0.0
 10
17.32838266329022
 20
100.9293099536102
 30
0.0
 10
17.1875604219507
 20
100.8982123932855
 30
0.0
 10
17.09139303131622
 20
100.8796692181768
 30
0.0
 10
17.05726220008048
 20
100.8730880478234
 30
0.0
  0
LINE
  5
282
330
1F
100
AcDbEntity
  8
0
  6
CONTINUOUS
 62
     7
100
AcDbLine
 10
17.764809327
 20
102.2532521792
 30
0.0
 11
17.9632574728
 21
101.1624538678
 31
0.0
  0
SPLINE
  5
283
330
1F
100
AcDbEntity
  8
0
  6
CONTINUOUS
 62
     7
100
AcDbSpline
210
0.0
220
0.0
230
1.0
 70
     8
 71
     3
 72
    14
 73
    10
 74
     0
 42
0.00000001
 43
0.00000001
 40
0.0
 40
0.0
 40
0.0
 40
0.0
 40
0.0308499065074137
 40
0.068816536707164
 40
0.1296992433581861
 40
0.2526299003951482
 40
0.4573713859133163
 40
0.6632003120895662
 40
1.0
 40
1.0
 40
1.0
 40
1.0
 10
16.83142479774146
 20
102.1025292226262
 30
0.0
 10
16.87660932164747
 20
102.1111721060645
 30
0.0
 10
16.97740192687714
 20
102.1304516881677
 30
0.0
 10
17.14131681172974
 20
102.163875850075
 30
0.0
 10
17.35024117268691
 20
102.2084234108632
 30
0.0
 10
17.56638579328777
 20
102.2559294516666
 30
0.0
 10
17.70682434399674
 20
102.281165302486
 30
0.0
 10
17.76142481315783
 20
102.2775719352304
 30
0.0
 10
17.76351314038345
 20
102.2625660553
 30
0.0
 10
17.76480932701936
 20
102.2532521792046
 30
0.0
  0
SPLINE
  5
284
330
1F
100
AcDbEntity
  8
0
  6
CONTINUOUS
 62
     7
100
AcDbSpline
210
0.0
220
0.0
230
1.0
 70
     8
 71
     3
 72
    14
 73
    10
 74
     0
 42
0.00000001
 43
0.00000001
 40
0.0
 40
0.0
 40
0.0
 40
0.0
 40
0.4393330213529303
 40
0.6862242526175846
 40
0.7797758228739029
 40
0.8877620801213287
 40
0.9315133799723466
 40
0.9756933690857199
 40
0.9999999999999999
 40
0.9999999999999999
 40
0.9999999999999999
 40
0.9999999999999999
 10
13.55200977858861
 20
100.9131303130273
 30
0.0
 10
13.55155263973005
 20
100.9015843526582
 30
0.0
 10
13.55083860332418
 20
100.8835499285653
 30
0.0
 10
13.41718974550739
 20
100.885725806268
 30
0.0
 10
13.23027061187613
 20
100.9105813459881
 30
0.0
 10
13.07066943730413
 20
100.9378347542761
 30
0.0
 10
12.87884998700205
 20
100.9785367608142
 30
0.0
 10
12.73848080589475
 20
101.0116193077174
 30
0.0
 10
12.6437913986729
 20
101.0366379512625
 30
0.0
 10
12.61018511949158
 20
101.0455173343359
 30
0.0
  0
LINE
  5
285
330
1F
100
AcDbEntity
  8
0
  6
CONTINUOUS
 62
     7
100
AcDbLine
 10
13.8464938274
 20
101.9820090563
 30
0.0
 11
13.5520097786
 21
100.913130313
 31
0.0
  0
SPLINE
  5
286
330
1F
100
AcDbEntity
  8
0
  6
CONTINUOUS
 62
     7
100
AcDbSpline
210
0.0
220
0.0
230
1.0
 70
     8
 71
     3
 72
    14
 73
    10
 74
     0
 42
0.00000001
 43
0.00000001
 40
0.0
 40
0.0
 40
0.0
 40
0.0
 40
0.0308499065074129
 40
0.0688165367071659
 40
0.1296992433581869
 40
0.252629900395146
 40
0.4573713859133161
 40
0.6632003120895676
 40
1.0
 40
1.0
 40
1.0
 40
1.0
 10
12.94014718472805
 20
102.2511927343092
 30
0.0
 10
12.98460704066133
 20
102.2393748730334
 30
0.0
 10
13.08378313725961
 20
102.2130129038621
 30
0.0
 10
13.24596754584281
 20
102.1720070300395
 30
0.0
 10
13.45353035305499
 20
102.1214941125258
 30
0.0
 10
13.66888202579537
 20
102.0705139401505
 30
0.0
 10
13.80636221315086
 20
102.032316652596
 30
0.0
 10
13.85399643241696
 20
102.0053888848505
 30
0.0
 10
13.84936714294026
 20
101.9909629629726
 30
0.0
 10
13.84649382736029
 20
101.982009056267
 30
0.0
  0
SPLINE
  5
287
330
1F
100
AcDbEntity
  8
0
  6
CONTINUOUS
 62
     7
100
AcDbSpline
210
0.0
220
0.0
230
1.0
 70
     8
 71
     3
 72
    15
 73
    11
 74
     0
 42
0.00000001
 43
0.00000001
 40
0.0
 40
0.0
 40
0.0
 40
0.0
 40
0.4220208280299091
 40
0.5757675349191186
 40
0.7291070677651689
 40
0.8107516775739804
 40
0.9187236235674665
 40
0.9553715006345007
 40
0.9923845056542773
 40
1.0
 40
1.0
 40
1.0
 40
1.0
 10
15.79710799141004
 20
101.8952697022015
 30
0.0
 10
15.79230080853718
 20
101.9065138232314
 30
0.0
 10
15.78574231746571
 20
101.9218542979609
 30
0.0
 10
15.86954963222255
 20
101.9470614737858
 30
0.0
 10
15.97755350855298
 20
101.9663076484112
 30
0.0
 10
16.14387942934696
 20
101.9912885468447
 30
0.0
 10
16.3167894550854
 20
102.0163462967646
 30
0.0
 10
16.53058034652331
 20
102.0500784894212
 30
0.0
 10
16.6473345837297
 20
102.0695850223118
 30
0.0
 10
16.71262821649078
 20
102.0809964107433
 30
0.0
 10
16.72377004958338
 20
102.0829436723656
 30
0.0
  0
LINE
  5
288
330
1F
100
AcDbEntity
  8
0
  6
CONTINUOUS
 62
     7
100
AcDbLine
 10
15.9955561372
 20
100.8044713908
 30
0.0
 11
15.7971079914
 21
101.8952697022
 31
0.0
  0
SPLINE
  5
289
330
1F
100
AcDbEntity
  8
0
  6
CONTINUOUS
 62
     7
100
AcDbSpline
210
0.0
220
0.0
230
1.0
 70
     8
 71
     3
 72
    14
 73
    10
 74
     0
 42
0.00000001
 43
0.00000001
 40
0.0
 40
0.0
 40
0.0
 40
0.0
 40
0.0324876077238729
 40
0.0725202418840237
 40
0.136652985433654
 40
0.2657907900969498
 40
0.481379723288309
 40
0.6981231343007804
 40
1.0
 40
1.0
 40
1.0
 40
1.0
 10
16.94541412185119
 20
100.8527396080639
 30
0.0
 10
16.89954925688844
 20
100.8449685671664
 30
0.0
 10
16.79716772330965
 20
100.8276217138563
 30
0.0
 10
16.62976247300114
 20
100.8042108175795
 30
0.0
 10
16.41573259942787
 20
100.7801680406156
 30
0.0
 10
16.19321089098849
 20
100.7661585848492
 30
0.0
 10
16.05015915079656
 20
100.7673932919265
 30
0.0
 10
16.00026513589983
 20
100.7836004029787
 30
0.0
 10
15.99728866942951
 20
100.7967925482221
 30
0.0
 10
15.99555613715252
 20
100.804471390791
 30
0.0
  0
ARC
  5
28A
330
1F
100
AcDbEntity
  8
0
  6
CONTINUOUS
 62
     7
100
AcDbCircle
 10
15.2114546923
 20
110.701261563
 30
0.0
 40
10.00000000000001
100
AcDbArc
 50
254.9224045282
 51
279.9853254013
  0
SPLINE
  5
28B
330
1F
100
AcDbEntity
  8
0
  6
CONTINUOUS
 62
     7
100
AcDbSpline
210
0.0
220
0.0
230
1.0
 70
     8
 71
     3
 72
    14
 73
    10
 74
     0
 42
0.00000001
 43
0.00000001
 40
0.0
 40
0.0
 40
0.0
 40
0.0
 40
0.0308499065074142
 40
0.0688165367071681
 40
0.1296992433581893
 40
0.2526299003951539
 40
0.4573713859133267
 40
0.6632003120895815
 40
1.0
 40
1.0
 40
1.0
 40
1.0
 10
17.48276219996177
 20
119.1513303916875
 30
0.0
 10
17.4383023440285
 20
119.1631482529632
 30
0.0
 10
17.33912624743023
 20
119.1895102221346
 30
0.0
 10
17.17694183884702
 20
119.2305160959572
 30
0.0
 10
16.96937903163485
 20
119.2810290134709
 30
0.0
 10
16.7540273588944
 20
119.3320091858462
 30
0.0
 10
16.61654717153899
 20
119.3702064734007
 30
0.0
 10
16.56891295227284
 20
119.3971342411461
 30
0.0
 10
16.57354224174955
 20
119.4115601630241
 30
0.0
 10
16.57641555732953
 20
119.4205140697297
 30
0.0
  0
SPLINE
  5
28C
330
1F
100
AcDbEntity
  8
0
  6
CONTINUOUS
 62
     7
100
AcDbSpline
210
0.0
220
0.0
230
1.0
 70
     8
 71
     3
 72
    14
 73
    10
 74
     0
 42
0.00000001
 43
0.00000001
 40
0.0
 40
0.0
 40
0.0
 40
0.0
 40
0.4393330213527931
 40
0.686224252617357
 40
0.7797758228735958
 40
0.8877620801209786
 40
0.9315133799719542
 40
0.9756933690852775
 40
0.9999999999999999
 40
0.9999999999999999
 40
0.9999999999999999
 40
0.9999999999999999
 10
16.87089960610122
 20
120.4893928129694
 30
0.0
 10
16.87135674495975
 20
120.5009387733385
 30
0.0
 10
16.87207078136563
 20
120.5189731974314
 30
0.0
 10
17.00571963918246
 20
120.5167973197287
 30
0.0
 10
17.19263877281362
 20
120.4919417800086
 30
0.0
 10
17.35223994738554
 20
120.4646883717207
 30
0.0
 10
17.54405939768747
 20
120.4239863651826
 30
0.0
 10
17.68442857879512
 20
120.3909038182792
 30
0.0
 10
17.77911798601762
 20
120.365885174734
 30
0.0
 10
17.81272426519956
 20
120.3570057916604
 30
0.0
  0
LINE
  5
28D
330
1F
100
AcDbEntity
  8
0
  6
CONTINUOUS
 62
     7
100
AcDbLine
 10
16.5764155573
 20
119.4205140697
 30
0.0
 11
16.8708996061
 21
120.489392813
 31
0.0
  0
SPLINE
  5
28E
330
1F
100
AcDbEntity
  8
0
  6
CONTINUOUS
 62
     7
100
AcDbSpline
210
0.0
220
0.0
230
1.0
 70
     8
 71
     3
 72
    15
 73
    11
 74
     0
 42
0.00000001
 43
0.00000001
 40
0.0
 40
0.0
 40
0.0
 40
0.0
 40
0.4220208280299077
 40
0.5757675349191161
 40
0.7291070677651661
 40
0.8107516775739801
 40
0.9187236235674634
 40
0.9553715006344983
 40
0.9923845056542744
 40
1.0
 40
1.0
 40
1.0
 40
1.0
 10
14.62580139327976
 20
119.5072534237952
 30
0.0
 10
14.63060857615261
 20
119.4960093027653
 30
0.0
 10
14.63716706722408
 20
119.4806688280358
 30
0.0
 10
14.55335975246727
 20
119.455461652211
 30
0.0
 10
14.44535587613684
 20
119.4362154775854
 30
0.0
 10
14.27902995534284
 20
119.4112345791521
 30
0.0
 10
14.10611992960445
 20
119.3861768292322
 30
0.0
 10
13.89232903816648
 20
119.3524446365754
 30
0.0
 10
13.77557480096014
 20
119.332938103685
 30
0.0
 10
13.71028116819904
 20
119.3215267152535
 30
0.0
 10
13.69913933510643
 20
119.3195794536311
 30
0.0
  0
LINE
  5
28F
330
1F
100
AcDbEntity
  8
0
  6
CONTINUOUS
 62
     7
100
AcDbLine
 10
14.4273532475
 20
120.5980517352
 30
0.0
 11
14.6258013933
 21
119.5072534238
 31
0.0
  0
SPLINE
  5
290
330
1F
100
AcDbEntity
  8
0
  6
CONTINUOUS
 62
     7
100
AcDbSpline
210
0.0
220
0.0
230
1.0
 70
     8
 71
     3
 72
    14
 73
    10
 74
     0
 42
0.00000001
 43
0.00000001
 40
0.0
 40
0.0
 40
0.0
 40
0.0
 40
0.0324876077239682
 40
0.0725202418843319
 40
0.1366529854345034
 40
0.2657907900992751
 40
0.4813797232943872
 40
0.6981231343106269
 40
1.0
 40
1.0
 40
1.0
 40
1.0
 10
13.47749526284024
 20
120.5497835179331
 30
0.0
 10
13.5233601278031
 20
120.5575545588307
 30
0.0
 10
13.62574166138224
 20
120.5749014121407
 30
0.0
 10
13.79314691169122
 20
120.5983123084175
 30
0.0
 10
14.00717678526535
 20
120.6223550853814
 30
0.0
 10
14.22969849370562
 20
120.6363645411477
 30
0.0
 10
14.37275023389665
 20
120.63512983407
 30
0.0
 10
14.42264424878992
 20
120.6189227230176
 30
0.0
 10
14.42562071526028
 20
120.6057305777744
 30
0.0
 10
14.4273532475373
 20
120.5980517352057
 30
0.0
  0
ARC
  5
291
330
1F
100
AcDbEntity
  8
0
  6
CONTINUOUS
 62
     7
100
AcDbCircle
 10
15.2114546923
 20
110.701261563
 30
0.0
 40
9.999999999999998
100
AcDbArc
 50
74.9224045282
 51
99.9853254013
  0
SPLINE
  5
292
330
1F
100
AcDbEntity
  8
0
  6
CONTINUOUS
 62
     7
100
AcDbSpline
210
0.0
220
0.0
230
1.0
 70
     8
 71
     3
 72
    14
 73
    10
 74
     0
 42
0.00000001
 43
0.00000001
 40
0.0
 40
0.0
 40
0.0
 40
0.0
 40
0.0308499065074136
 40
0.0688165367071674
 40
0.1296992433581886
 40
0.2526299003951489
 40
0.4573713859133178
 40
0.6632003120895684
 40
1.0
 40
1.0
 40
1.0
 40
1.0
 10
13.59148458694836
 20
119.2999939033705
 30
0.0
 10
13.54630006304236
 20
119.2913510199322
 30
0.0
 10
13.44550745781266
 20
119.272071437829
 30
0.0
 10
13.28159257296008
 20
119.2386472759217
 30
0.0
 10
13.07266821200294
 20
119.1940997151335
 30
0.0
 10
12.85652359140205
 20
119.1465936743302
 30
0.0
 10
12.71608504069305
 20
119.1213578235107
 30
0.0
 10
12.66148457153199
 20
119.1249511907663
 30
0.0
 10
12.65939624430637
 20
119.1399570706968
 30
0.0
 10
12.65810005767044
 20
119.1492709467921
 30
0.0
  0
SPLINE
  5
293
330
1F
100
AcDbEntity
  8
0
  6
CONTINUOUS
 62
     7
100
AcDbSpline
210
0.0
220
0.0
230
1.0
 70
     8
 71
     3
 72
    14
 73
    10
 74
     0
 42
0.00000001
 43
0.00000001
 40
0.0
 40
0.0
 40
0.0
 40
0.0
 40
0.439333021353136
 40
0.6862242526178857
 40
0.7797758228743449
 40
0.8877620801218216
 40
0.9315133799728978
 40
0.9756933690863375
 40
1.0
 40
1.0
 40
1.0
 40
1.0
 10
12.45965191192751
 20
120.2400692582053
 30
0.0
 10
12.45505417535071
 20
120.2506701541652
 30
0.0
 10
12.44787265656476
 20
120.2672284176091
 30
0.0
 10
12.56923019464182
 20
120.3232560856968
 30
0.0
 10
12.74842292937053
 20
120.3819631908267
 30
0.0
 10
12.90404342963238
 20
120.4266570728059
 30
0.0
 10
13.09452672139927
 20
120.4732131723865
 30
0.0
 10
13.23534896273919
 20
120.5043107327112
 30
0.0
 10
13.33151635337436
 20
120.5228539078201
 30
0.0
 10
13.36564718461081
 20
120.5294350781736
 30
0.0
  0
LINE
  5
294
330
1F
100
AcDbEntity
  8
0
  6
CONTINUOUS
 62
     7
100
AcDbLine
 10
12.6581000577
 20
119.1492709468
 30
0.0
 11
12.4596519119
 21
120.2400692582
 31
0.0
  0
LINE
  5
295
330
1F
100
AcDbEntity
  8
0
  6
CONTINUOUS
 62
     7
100
AcDbLine
 10
10.2109473761
 20
119.2777525336
 30
0.0
 11
10.630181542
 21
118.701261563
 31
0.0
  0
SPLINE
  5
296
330
1F
100
AcDbEntity
  8
0
  6
CONTINUOUS
 62
     7
100
AcDbSpline
210
0.0
220
0.0
230
1.0
 70
     8
 71
     3
 72
    14
 73
    10
 74
     0
 42
0.00000001
 43
0.00000001
 40
0.0
 40
0.0
 40
0.0
 40
0.0
 40
0.0324876077239675
 40
0.0725202418841824
 40
0.1366529854338102
 40
0.2657907900968885
 40
0.4813797232871948
 40
0.6981231342985972
 40
1.0
 40
1.0
 40
1.0
 40
1.0
 10
9.37609769756493
 20
118.822136438495
 30
0.0
 10
9.41404878474541
 20
118.849037923519
 30
0.0
 10
9.498764841571763
 20
118.9090885809131
 30
0.0
 10
9.639434153210225
 20
119.0028154855798
 30
0.0
 10
9.821836636132558
 20
119.1173413609508
 30
0.0
 10
10.01624329281753
 20
119.226511995345
 30
0.0
 10
10.14566417655338
 20
119.2874673866295
 30
0.0
 10
10.19764913261505
 20
119.2945134858766
 30
0.0
 10
10.20605469354637
 20
119.2839192141131
 30
0.0
 10
10.21094737611655
 20
119.2777525335996
 30
0.0
  0
ARC
  5
297
330
1F
100
AcDbEntity
  8
0
  6
CONTINUOUS
 62
     7
100
AcDbCircle
 10
15.2114546923
 20
110.701261563
 30
0.0
 40
9.99999999999999
100
AcDbArc
 50
100.6366902425
 51
125.6996111156
  0
SPLINE
  5
298
330
1F
100
AcDbEntity
  8
0
  6
CONTINUOUS
 62
     7
100
AcDbSpline
210
0.0
220
0.0
230
1.0
 70
     8
 71
     3
 72
    10
 73
     6
 74
     0
 42
0.00000001
 43
0.00000001
 40
0.0
 40
0.0
 40
0.0
 40
0.0
 40
0.608649499104219
 40
0.9506912235793902
 40
1.0
 40
1.0
 40
1.0
 40
1.0
 10
9.469435501340605
 20
102.6024661958719
 30
0.0
 10
9.460587864596013
 20
102.5949920441623
 30
0.0
 10
9.446768136468581
 20
102.5833176561204
 30
0.0
 10
9.356927175899983
 20
102.6222773665468
 30
0.0
 10
9.251667879338232
 20
102.6924234100669
 30
0.0
 10
9.238405580942084
 20
102.7012615629984
 30
0.0
  0
LINE
  5
299
330
1F
100
AcDbEntity
  8
0
  6
CONTINUOUS
 62
     7
100
AcDbLine
 10
9.5556735395
 20
102.701261563
 30
0.0
 11
9.4694355013
 21
102.6024661959
 31
0.0
  0
SPLINE
  5
29A
330
1F
100
AcDbEntity
  8
0
  6
CONTINUOUS
 62
     7
100
AcDbSpline
210
0.0
220
0.0
230
1.0
 70
     8
 71
     3
 72
    15
 73
    11
 74
     0
 42
0.00000001
 43
0.00000001
 40
0.0
 40
0.0
 40
0.0
 40
0.0
 40
0.4220208280299067
 40
0.5757675349191196
 40
0.7291070677651734
 40
0.810751677573983
 40
0.9187236235674656
 40
0.9553715006345008
 40
0.9923845056542785
 40
1.0
 40
1.0
 40
1.0
 40
1.0
 10
11.9183334069856
 20
102.5132316021933
 30
0.0
 10
11.91888092615041
 20
102.5254479636677
 30
0.0
 10
11.91962791241009
 20
102.5421148764469
 30
0.0
 10
12.00607267760792
 20
102.5284631260208
 30
0.0
 10
12.11173141000468
 20
102.4989422044831
 30
0.0
 10
12.27242469218405
 20
102.4492831038375
 30
0.0
 10
12.43908339255174
 20
102.3968365079169
 30
0.0
 10
12.64633817985691
 20
102.3344677719802
 30
0.0
 10
12.75999368020331
 20
102.3013847858383
 30
0.0
 10
12.82377242647444
 20
102.2833362460317
 30
0.0
 10
12.83465575637599
 20
102.2802564079282
 30
0.0
  0
LINE
  5
29B
330
1F
100
AcDbEntity
  8
0
  6
CONTINUOUS
 62
     7
100
AcDbLine
 10
11.6238493582
 20
101.444352859
 30
0.0
 11
11.918333407
 21
102.5132316022
 31
0.0
  0
SPLINE
  5
29C
330
1F
100
AcDbEntity
  8
0
  6
CONTINUOUS
 62
     7
100
AcDbSpline
210
0.0
220
0.0
230
1.0
 70
     8
 71
     3
 72
    14
 73
    10
 74
     0
 42
0.00000001
 43
0.00000001
 40
0.0
 40
0.0
 40
0.0
 40
0.0
 40
0.0324876077237703
 40
0.0725202418836843
 40
0.1366529854327327
 40
0.2657907900944337
 40
0.4813797232817632
 40
0.6981231342901738
 40
1.0
 40
1.0
 40
1.0
 40
1.0
 10
12.50058462594925
 20
101.0757130859961
 30
0.0
 10
12.45589008220589
 20
101.0886116391804
 30
0.0
 10
12.35612099022754
 20
101.1174043469975
 30
0.0
 10
12.19513646416399
 20
101.168946274234
 30
0.0
 10
11.99187044130635
 20
101.2401485625201
 30
0.0
 10
11.78530683451988
 20
101.3240750299103
 30
0.0
 10
11.65695738943005
 20
101.3872552864696
 30
0.0
 10
11.61903643725368
 20
101.4235055907108
 30
0.0
 10
11.62207859093285
 20
101.4366827432775
 30
0.0
 10
11.62384935821463
 20
101.4443528589563
 30
0.0
  0
ARC
  5
29D
330
1F
100
AcDbEntity
  8
0
  6
CONTINUOUS
 62
     7
100
AcDbCircle
 10
15.2114546923
 20
110.701261563
 30
0.0
 40
10.0
100
AcDbArc
 50
233.1301023542
 51
254.2710396871
  0
LINE
  5
29E
330
1F
100
AcDbEntity
  8
0
  6
CONTINUOUS
 62
     7
100
AcDbLine
 10
9.2841549183
 20
118.7552740654
 30
0.0
 11
9.2114546923
 21
118.701261563
 31
0.0
  0
ARC
  5
29F
330
1F
100
AcDbEntity
  8
0
  6
CONTINUOUS
 62
     7
100
AcDbCircle
 10
25.0593239859
 20
110.2032111494
 30
0.0
 40
0.9399212013622098
100
AcDbArc
 50
177.4490613507
 51
267.4490605451
  0
ARC
  5
2A0
330
1F
100
AcDbEntity
  8
0
  6
CONTINUOUS
 62
     7
100
AcDbCircle
 10
25.0646618451
 20
110.3232501307
 30
0.0
 40
0.9399212013622175
100
AcDbArc
 50
87.4586693844
 51
177.4586685788
  0
ARC
  5
2A1
330
1F
100
AcDbEntity
  8
0
  6
CONTINUOUS
 62
     7
100
AcDbCircle
 10
24.3001743167
 20
114.5253639971
 30
0.0
 40
0.9399212013622653
100
AcDbArc
 50
203.163347065
 51
293.1633462594
  0
ARC
  5
2A2
330
1F
100
AcDbEntity
  8
0
  6
CONTINUOUS
 62
     7
100
AcDbCircle
 10
24.2529005996
 20
114.6358313925
 30
0.0
 40
0.9399212013622626
100
AcDbArc
 50
113.1729550987
 51
203.1729542931
  0
ARC
  5
2A3
330
1F
100
AcDbEntity
  8
0
  6
CONTINUOUS
 62
     7
100
AcDbCircle
 10
23.9248745723
 20
106.085538669
 30
0.0
 40
0.939921201362243
100
AcDbArc
 50
61.7443836701
 51
151.7443828645
  0
ARC
  5
2A4
330
1F
100
AcDbEntity
  8
0
  6
CONTINUOUS
 62
     7
100
AcDbCircle
 10
23.8679823653
 20
105.9797032942
 30
0.0
 40
0.9399212013622236
100
AcDbArc
 50
151.7347756364
 51
241.7347748308
  0
ARC
  5
2A5
330
1F
100
AcDbEntity
  8
0
  6
CONTINUOUS
 62
     7
100
AcDbCircle
 10
21.0592876291
 20
102.7620277347
 30
0.0
 40
0.9399212013621976
100
AcDbArc
 50
36.0300979558
 51
126.0300971503
  0
ARC
  5
2A6
330
1F
100
AcDbEntity
  8
0
  6
CONTINUOUS
 62
     7
100
AcDbCircle
 10
21.7408922601
 20
118.0901064582
 30
0.0
 40
0.9399212013622213
100
AcDbArc
 50
228.8776327793
 51
318.8776319737
  0
ARC
  5
2A7
330
1F
100
AcDbEntity
  8
0
  6
CONTINUOUS
 62
     7
100
AcDbCircle
 10
20.9621092737
 20
102.6913579604
 30
0.0
 40
0.939921201362267
100
AcDbArc
 50
126.0204899221
 51
216.0204891165
  0
ARC
  5
2A8
330
1F
100
AcDbEntity
  8
0
  6
CONTINUOUS
 62
     7
100
AcDbCircle
 10
21.6503701062
 20
118.1691228452
 30
0.0
 40
0.9399212013622297
100
AcDbArc
 50
138.887240813
 51
228.8872400074
  0
ARC
  5
2A9
330
1F
100
AcDbEntity
  8
0
  6
CONTINUOUS
 62
     7
100
AcDbCircle
 10
17.0354656539
 20
101.0109794283
 30
0.0
 40
0.9399212013622441
100
AcDbArc
 50
10.3158122416
 51
100.315811436
  0
ARC
  5
2AA
330
1F
100
AcDbEntity
  8
0
  6
CONTINUOUS
 62
     7
100
AcDbCircle
 10
16.9172485151
 20
100.98947227
 30
0.0
 40
0.9399212013622034
100
AcDbArc
 50
100.3062042078
 51
190.3062034022
  0
ARC
  5
2AB
330
1F
100
AcDbEntity
  8
0
  6
CONTINUOUS
 62
     7
100
AcDbCircle
 10
17.8883750149
 20
120.1913975696
 30
0.0
 40
0.9399212013621995
100
AcDbArc
 50
254.5919184935
 51
344.5919176879
  0
ARC
  5
2AC
330
1F
100
AcDbEntity
  8
0
  6
CONTINUOUS
 62
     7
100
AcDbCircle
 10
17.7725334469
 20
120.2233127837
 30
0.0
 40
0.9399212013622309
100
AcDbArc
 50
164.6015265273
 51
254.6015257217
  0
ARC
  5
2AD
330
1F
100
AcDbEntity
  8
0
  6
CONTINUOUS
 62
     7
100
AcDbCircle
 10
12.6503759378
 20
101.1792103423
 30
0.0
 40
0.939921201362194
100
AcDbArc
 50
344.6015265273
 51
74.6015257217
  0
ARC
  5
2AE
330
1F
100
AcDbEntity
  8
0
  6
CONTINUOUS
 62
     7
100
AcDbCircle
 10
13.5056608696
 20
120.413050856
 30
0.0
 40
0.9399212013622017
100
AcDbArc
 50
280.3062042078
 51
10.3062034022
  0
ARC
  5
2AF
330
1F
100
AcDbEntity
  8
0
  6
CONTINUOUS
 62
     7
100
AcDbCircle
 10
13.3874437308
 20
120.3915436977
 30
0.0
 40
0.9399212013622119
100
AcDbArc
 50
190.3158122416
 51
280.315811436
  0
ARC
  5
2B0
330
1F
100
AcDbEntity
  8
0
  6
CONTINUOUS
 62
     7
100
AcDbCircle
 10
12.5345343697
 20
101.2111255564
 30
0.0
 40
0.9399212013622389
100
AcDbArc
 50
74.5919184935
 51
164.5919176879
  0
LINE
  5
2B1
330
1F
100
AcDbEntity
  8
0
  6
CONTINUOUS
 62
     7
100
AcDbLine
 10
24.1203342022
 20
110.245044759
 30
0.0
 11
24.12566506
 21
110.364926292
 31
0.0
  0
LINE
  5
2B2
330
1F
100
AcDbEntity
  8
0
  6
CONTINUOUS
 62
     7
100
AcDbLine
 10
23.4360228314
 20
114.1556423786
 30
0.0
 11
23.3888111205
 21
114.2659648802
 31
0.0
  0
LINE
  5
2B3
330
1F
100
AcDbEntity
  8
0
  6
CONTINUOUS
 62
     7
100
AcDbLine
 10
23.0401327258
 20
106.4248064725
 30
0.0
 11
23.0969503106
 21
106.530503029
 31
0.0
  0
LINE
  5
2B4
330
1F
100
AcDbEntity
  8
0
  6
CONTINUOUS
 62
     7
100
AcDbLine
 10
20.4093655525
 20
103.4515725639
 30
0.0
 11
20.5064164446
 21
103.5221496447
 31
0.0
  0
LINE
  5
2B5
330
1F
100
AcDbEntity
  8
0
  6
CONTINUOUS
 62
     7
100
AcDbLine
 10
21.122734873
 20
117.3820575126
 30
0.0
 11
21.0323314518
 21
117.4609702583
 31
0.0
  0
LINE
  5
2B6
330
1F
100
AcDbEntity
  8
0
  6
CONTINUOUS
 62
     7
100
AcDbLine
 10
17.6386453776
 20
119.2852590741
 30
0.0
 11
17.5229557524
 21
119.3171324269
 31
0.0
  0
LINE
  5
2B7
330
1F
100
AcDbEntity
  8
0
  6
CONTINUOUS
 62
     7
100
AcDbLine
 10
16.7490883851
 20
101.9142284732
 30
0.0
 11
16.8671504653
 21
101.9357074219
 31
0.0
  0
LINE
  5
2B8
330
1F
100
AcDbEntity
  8
0
  6
CONTINUOUS
 62
     7
100
AcDbLine
 10
13.6738209996
 20
119.4882946527
 30
0.0
 11
13.5557589194
 21
119.4668157041
 31
0.0
  0
LINE
  5
2B9
330
1F
100
AcDbEntity
  8
0
  6
CONTINUOUS
 62
     7
100
AcDbLine
 10
12.784264007
 20
102.1172640519
 30
0.0
 11
12.8999536323
 21
102.0853906991
 31
0.0
  0
LINE
  5
2BA
330
1F
100
AcDbEntity
  8
0
  6
CONTINUOUS
 62
     7
100
AcDbLine
 10
21.7445880044
 20
118.2721379407
 30
0.0
 11
21.7457409374
 21
118.2711428875
 31
0.0
  0
SPLINE
  5
2BB
330
1F
100
AcDbEntity
  8
0
  6
CONTINUOUS
 62
     7
100
AcDbSpline
210
0.0
220
0.0
230
1.0
 70
     8
 71
     3
 72
    11
 73
     7
 74
     0
 42
0.00000001
 43
0.00000001
 40
0.0
 40
0.0
 40
0.0
 40
0.0
 40
0.2519200500998942
 40
0.5571623001696958
 40
0.868380933658956
 40
1.0
 40
1.0
 40
1.0
 40
1.0
 10
21.74574093740329
 20
118.2711428875397
 30
0.0
 10
21.6400152098522
 20
118.1509135882261
 30
0.0
 10
21.40618551060389
 20
117.885006873271
 30
0.0
 10
21.16819568754391
 20
117.6144135888267
 30
0.0
 10
21.0533115579733
 20
117.4841733536918
 30
0.0
 10
21.03713839661202
 20
117.4662865326061
 30
0.0
 10
21.0323314517675
 20
117.4609702582871
 30
0.0
  0
SPLINE
  5
2BC
330
1F
100
AcDbEntity
  8
0
  6
CONTINUOUS
 62
     7
100
AcDbSpline
210
0.0
220
0.0
230
1.0
 70
     8
 71
     3
 72
    10
 73
     6
 74
     0
 42
0.00000001
 43
0.00000001
 40
0.0
 40
0.0
 40
0.0
 40
0.0
 40
0.3686341043257567
 40
0.7479587163000673
 40
1.0
 40
1.0
 40
1.0
 40
1.0
 10
21.12273487296035
 20
117.3820575125699
 30
0.0
 10
21.1471520523646
 20
117.4106003769537
 30
0.0
 10
21.19669451723302
 20
117.4685138579734
 30
0.0
 10
21.46353133002168
 20
117.7764812571329
 30
0.0
 10
21.72479501912425
 20
118.0780144851269
 30
0.0
 10
21.82909149132324
 20
118.1983865584088
 30
0.0
  0
LINE
  5
2BD
330
1F
100
AcDbEntity
  8
0
  6
CONTINUOUS
 62
     7
100
AcDbLine
 10
21.8290914913
 20
118.1983865584
 30
0.0
 11
21.8302331914
 21
118.1973786366
 31
0.0
  0
LINE
  5
2BE
330
1F
100
AcDbEntity
  8
0
  6
CONTINUOUS
 62
     7
100
AcDbLine
 10
25.2039461886
 20
110.3138164731
 30
0.0
 11
25.2038870666
 21
110.3122946683
 31
0.0
  0
SPLINE
  5
2BF
330
1F
100
AcDbEntity
  8
0
  6
CONTINUOUS
 62
     7
100
AcDbSpline
210
0.0
220
0.0
230
1.0
 70
     8
 71
     3
 72
    11
 73
     7
 74
     0
 42
0.00000001
 43
0.00000001
 40
0.0
 40
0.0
 40
0.0
 40
0.0
 40
0.2519200500998879
 40
0.557162300169696
 40
0.868380933658962
 40
1.0
 40
1.0
 40
1.0
 40
1.0
 10
25.20388706663784
 20
110.3122946682863
 30
0.0
 10
25.04396910239717
 20
110.3199926285859
 30
0.0
 10
24.69028442839261
 20
110.337017923974
 30
0.0
 10
24.33034185204555
 20
110.3543737068468
 30
0.0
 10
24.15688685275039
 20
110.3629902777827
 30
0.0
 10
24.13281857173172
 20
110.3644827139714
 30
0.0
 10
24.125665060011
 20
110.3649262919636
 30
0.0
  0
LINE
  5
2C0
330
1F
100
AcDbEntity
  8
0
  6
CONTINUOUS
 62
     7
100
AcDbLine
 10
24.3824845675
 20
114.6877651725
 30
0.0
 11
24.3830915869
 21
114.6863684217
 31
0.0
  0
SPLINE
  5
2C1
330
1F
100
AcDbEntity
  8
0
  6
CONTINUOUS
 62
     7
100
AcDbSpline
210
0.0
220
0.0
230
1.0
 70
     8
 71
     3
 72
    11
 73
     7
 74
     0
 42
0.00000001
 43
0.00000001
 40
0.0
 40
0.0
 40
0.0
 40
0.0
 40
0.2519200500998889
 40
0.5571623001697055
 40
0.8683809336589734
 40
1.0
 40
1.0
 40
1.0
 40
1.0
 10
24.3830915868737
 20
114.6863684216557
 30
0.0
 10
24.23567045987615
 20
114.6239182399552
 30
0.0
 10
23.90962458072125
 20
114.485799472241
 30
0.0
 10
23.57779713323181
 20
114.3452632613945
 30
0.0
 10
23.41778098886876
 20
114.277767219893
 30
0.0
 10
23.39544867317307
 20
114.2686690226738
 30
0.0
 10
23.38881112053873
 20
114.265964880222
 30
0.0
  0
SPLINE
  5
2C2
330
1F
100
AcDbEntity
  8
0
  6
CONTINUOUS
 62
     7
100
AcDbSpline
210
0.0
220
0.0
230
1.0
 70
     8
 71
     3
 72
    10
 73
     6
 74
     0
 42
0.00000001
 43
0.00000001
 40
0.0
 40
0.0
 40
0.0
 40
0.0
 40
0.3686341043257629
 40
0.7479587163000743
 40
1.0
 40
1.0
 40
1.0
 40
1.0
 10
23.04013272584142
 20
106.4248064724593
 30
0.0
 10
23.07339329458846
 20
106.4073528675619
 30
0.0
 10
23.14087899927912
 20
106.3719394976085
 30
0.0
 10
23.50050178955758
 20
106.1803220341123
 30
0.0
 10
23.85261159008709
 20
105.9927062266787
 30
0.0
 10
23.99317383257883
 20
105.9178099909587
 30
0.0
  0
LINE
  5
2C3
330
1F
100
AcDbEntity
  8
0
  6
CONTINUOUS
 62
     7
100
AcDbLine
 10
23.9931738326
 20
105.917809991
 30
0.0
 11
23.9924452336
 21
105.916472632
 31
0.0
  0
SPLINE
  5
2C4
330
1F
100
AcDbEntity
  8
0
  6
CONTINUOUS
 62
     7
100
AcDbSpline
210
0.0
220
0.0
230
1.0
 70
     8
 71
     3
 72
    10
 73
     6
 74
     0
 42
0.00000001
 43
0.00000001
 40
0.0
 40
0.0
 40
0.0
 40
0.0
 40
0.3686341043257589
 40
0.7479587163000655
 40
1.0
 40
1.0
 40
1.0
 40
1.0
 10
24.12033420220817
 20
110.2450447589608
 30
0.0
 10
24.15787377453199
 20
110.2437508242487
 30
0.0
 10
24.23404157885685
 20
110.2411254303014
 30
0.0
 10
24.6411902186279
 20
110.2245185420628
 30
0.0
 10
25.03983363503516
 20
110.2082572572724
 30
0.0
 10
25.19897209832279
 20
110.2017657519167
 30
0.0
  0
LINE
  5
2C5
330
1F
100
AcDbEntity
  8
0
  6
CONTINUOUS
 62
     7
100
AcDbLine
 10
25.1989720983
 20
110.2017657519
 30
0.0
 11
25.1988959116
 21
110.2002447059
 31
0.0
  0
LINE
  5
2C6
330
1F
100
AcDbEntity
  8
0
  6
CONTINUOUS
 62
     7
100
AcDbLine
 10
24.0462723189
 20
106.0166060255
 30
0.0
 11
24.0455587655
 21
106.0152605788
 31
0.0
  0
SPLINE
  5
2C7
330
1F
100
AcDbEntity
  8
0
  6
CONTINUOUS
 62
     7
100
AcDbSpline
210
0.0
220
0.0
230
1.0
 70
     8
 71
     3
 72
    11
 73
     7
 74
     0
 42
0.00000001
 43
0.00000001
 40
0.0
 40
0.0
 40
0.0
 40
0.0
 40
0.2519200500998945
 40
0.5571623001696963
 40
0.8683809336589559
 40
1.0
 40
1.0
 40
1.0
 40
1.0
 10
24.04555876553248
 20
106.0152605787805
 30
0.0
 10
23.90481767813167
 20
106.0915820056337
 30
0.0
 10
23.59354579662191
 20
106.2603792955708
 30
0.0
 10
23.27677913306876
 20
106.4321895465104
 30
0.0
 10
23.12424016873786
 20
106.5152121123345
 30
0.0
 10
23.10320294063006
 20
106.5269995866404
 30
0.0
 10
23.09695031055134
 20
106.530503029015
 30
0.0
  0
SPLINE
  5
2C8
330
1F
100
AcDbEntity
  8
0
  6
CONTINUOUS
 62
     7
100
AcDbSpline
210
0.0
220
0.0
230
1.0
 70
     8
 71
     3
 72
    10
 73
     6
 74
     0
 42
0.00000001
 43
0.00000001
 40
0.0
 40
0.0
 40
0.0
 40
0.0
 40
0.368634104325759
 40
0.7479587163000783
 40
1.0
 40
1.0
 40
1.0
 40
1.0
 10
23.43602283140954
 20
114.1556423786339
 30
0.0
 10
23.47040623461872
 20
114.1707643937459
 30
0.0
 10
23.54017017079448
 20
114.2014469672743
 30
0.0
 10
23.91420387860101
 20
114.3631398521789
 30
0.0
 10
24.28042469322596
 20
114.5214538369161
 30
0.0
 10
24.42662005295018
 20
114.5846527841735
 30
0.0
  0
LINE
  5
2C9
330
1F
100
AcDbEntity
  8
0
  6
CONTINUOUS
 62
     7
100
AcDbLine
 10
24.426620053
 20
114.5846527842
 30
0.0
 11
24.4272113682
 21
114.5832493129
 31
0.0
  0
SPLINE
  5
2CA
330
1F
100
AcDbEntity
  8
0
  6
CONTINUOUS
 62
     7
100
AcDbSpline
210
0.0
220
0.0
230
1.0
 70
     8
 71
     3
 72
    10
 73
     6
 74
     0
 42
0.00000001
 43
0.00000001
 40
0.0
 40
0.0
 40
0.0
 40
0.0
 40
0.3686341043257594
 40
0.7479587163000726
 40
1.0
 40
1.0
 40
1.0
 40
1.0
 10
20.40936555250537
 20
103.4515725639189
 30
0.0
 10
20.43175945412119
 20
103.4214161893404
 30
0.0
 10
20.47719668770585
 20
103.3602288956168
 30
0.0
 10
20.71806592439292
 20
103.0315530455424
 30
0.0
 10
20.95390244470652
 20
102.7097423270846
 30
0.0
 10
21.04804839039413
 20
102.5812754790268
 30
0.0
  0
LINE
  5
2CB
330
1F
100
AcDbEntity
  8
0
  6
CONTINUOUS
 62
     7
100
AcDbLine
 10
21.0480483904
 20
102.581275479
 30
0.0
 11
21.0468116871
 21
102.5803866875
 31
0.0
  0
LINE
  5
2CC
330
1F
100
AcDbEntity
  8
0
  6
CONTINUOUS
 62
     7
100
AcDbLine
 10
21.1387544664
 20
102.6472490606
 30
0.0
 11
21.1375278096
 21
102.6463464542
 31
0.0
  0
SPLINE
  5
2CD
330
1F
100
AcDbEntity
  8
0
  6
CONTINUOUS
 62
     7
100
AcDbSpline
210
0.0
220
0.0
230
1.0
 70
     8
 71
     3
 72
    11
 73
     7
 74
     0
 42
0.00000001
 43
0.00000001
 40
0.0
 40
0.0
 40
0.0
 40
0.0
 40
0.251920050099889
 40
0.5571623001696988
 40
0.8683809336589674
 40
1.0
 40
1.0
 40
1.0
 40
1.0
 10
21.13752780955586
 20
102.6463464542297
 30
0.0
 10
21.04383909743081
 20
102.7761749530272
 30
0.0
 10
20.83663122204801
 20
103.0633118640785
 30
0.0
 10
20.62577999389364
 20
103.3555474557717
 30
0.0
 10
20.52436927718033
 20
103.4965323791178
 30
0.0
 10
20.51052978301483
 20
103.5162802376906
 30
0.0
 10
20.50641644464866
 20
103.5221496447185
 30
0.0
  0
SPLINE
  5
2CE
330
1F
100
AcDbEntity
  8
0
  6
CONTINUOUS
 62
     7
100
AcDbSpline
210
0.0
220
0.0
230
1.0
 70
     8
 71
     3
 72
    10
 73
     6
 74
     0
 42
0.00000001
 43
0.00000001
 40
0.0
 40
0.0
 40
0.0
 40
0.0
 40
0.3686341043257628
 40
0.7479587163000735
 40
1.0
 40
1.0
 40
1.0
 40
1.0
 10
16.74908838512147
 20
101.9142284732469
 30
0.0
 10
16.75618023274789
 20
101.8773421688165
 30
0.0
 10
16.77056959386394
 20
101.8024998452574
 30
0.0
 10
16.84497817056652
 20
101.4018638916568
 30
0.0
 10
16.91783109547092
 20
101.0095968217149
 30
0.0
 10
16.94691398518672
 20
100.8530037961195
 30
0.0
  0
LINE
  5
2CF
330
1F
100
AcDbEntity
  8
0
  6
CONTINUOUS
 62
     7
100
AcDbLine
 10
16.9469139852
 20
100.8530037961
 30
0.0
 11
16.9454141219
 21
100.8527396081
 31
0.0
  0
SPLINE
  5
2D0
330
1F
100
AcDbEntity
  8
0
  6
CONTINUOUS
 62
     7
100
AcDbSpline
210
0.0
220
0.0
230
1.0
 70
     8
 71
     3
 72
    10
 73
     6
 74
     0
 42
0.00000001
 43
0.00000001
 40
0.0
 40
0.0
 40
0.0
 40
0.0
 40
0.368634104325759
 40
0.7479587163000784
 40
1.0
 40
1.0
 40
1.0
 40
1.0
 10
17.63864537764648
 20
119.2852590741078
 30
0.0
 10
17.64826021140772
 20
119.3215695234171
 30
0.0
 10
17.66776871220318
 20
119.3952434367498
 30
0.0
 10
17.7745583266624
 20
119.7884886297885
 30
0.0
 10
17.87911841242695
 20
120.1735187471726
 30
0.0
 10
17.92085880166942
 20
120.3272227810989
 30
0.0
  0
LINE
  5
2D1
330
1F
100
AcDbEntity
  8
0
  6
CONTINUOUS
 62
     7
100
AcDbLine
 10
17.9208588017
 20
120.3272227811
 30
0.0
 11
17.9223247587
 21
120.32681004
 31
0.0
  0
LINE
  5
2D2
330
1F
100
AcDbEntity
  8
0
  6
CONTINUOUS
 62
     7
100
AcDbLine
 10
17.8127242652
 20
120.3570057917
 30
0.0
 11
17.8141947593
 21
120.3566095186
 31
0.0
  0
SPLINE
  5
2D3
330
1F
100
AcDbEntity
  8
0
  6
CONTINUOUS
 62
     7
100
AcDbSpline
210
0.0
220
0.0
230
1.0
 70
     8
 71
     3
 72
    11
 73
     7
 74
     0
 42
0.00000001
 43
0.00000001
 40
0.0
 40
0.0
 40
0.0
 40
0.0
 40
0.2519200500998894
 40
0.5571623001696995
 40
0.8683809336589674
 40
1.0
 40
1.0
 40
1.0
 40
1.0
 10
17.81419475933731
 20
120.3566095185964
 30
0.0
 10
17.77110470821513
 20
120.2024139889144
 30
0.0
 10
17.6758040285426
 20
119.861385412747
 30
0.0
 10
17.57878863312272
 20
119.514329373298
 30
0.0
 10
17.53179072916748
 20
119.3471406203899
 30
0.0
 10
17.52498001509895
 20
119.3240078797211
 30
0.0
 10
17.52295575242405
 20
119.3171324268636
 30
0.0
  0
LINE
  5
2D4
330
1F
100
AcDbEntity
  8
0
  6
CONTINUOUS
 62
     7
100
AcDbLine
 10
17.0572622001
 20
100.8730880478
 30
0.0
 11
17.0557653942
 21
100.872807054
 31
0.0
  0
SPLINE
  5
2D5
330
1F
100
AcDbEntity
  8
0
  6
CONTINUOUS
 62
     7
100
AcDbSpline
210
0.0
220
0.0
230
1.0
 70
     8
 71
     3
 72
    11
 73
     7
 74
     0
 42
0.00000001
 43
0.00000001
 40
0.0
 40
0.0
 40
0.0
 40
0.0
 40
0.2519200500998877
 40
0.5571623001696963
 40
0.8683809336589683
 40
1.0
 40
1.0
 40
1.0
 40
1.0
 10
17.0557653941985
 20
100.8728070540215
 30
0.0
 10
17.02768525580223
 20
101.0304284983344
 30
0.0
 10
16.96558144750371
 20
101.379034043763
 30
0.0
 10
16.90240732640473
 20
101.7338141332408
 30
0.0
 10
16.87221049347494
 20
101.9048376209733
 30
0.0
 10
16.86830981480143
 20
101.9286345582312
 30
0.0
 10
16.86715046525804
 20
101.935707421867
 30
0.0
  0
LINE
  5
2D6
330
1F
100
AcDbEntity
  8
0
  6
CONTINUOUS
 62
     7
100
AcDbLine
 10
13.3656471846
 20
120.5294350782
 30
0.0
 11
13.3671439905
 21
120.529716072
 31
0.0
  0
SPLINE
  5
2D7
330
1F
100
AcDbEntity
  8
0
  6
CONTINUOUS
 62
     7
100
AcDbSpline
210
0.0
220
0.0
230
1.0
 70
     8
 71
     3
 72
    11
 73
     7
 74
     0
 42
0.00000001
 43
0.00000001
 40
0.0
 40
0.0
 40
0.0
 40
0.0
 40
0.2519200500998877
 40
0.5571623001697024
 40
0.8683809336589808
 40
1.0
 40
1.0
 40
1.0
 40
1.0
 10
13.36714399049132
 20
120.5297160719753
 30
0.0
 10
13.39522412888762
 20
120.3720946276623
 30
0.0
 10
13.45732793718614
 20
120.0234890822337
 30
0.0
 10
13.52050205828506
 20
119.6687089927559
 30
0.0
 10
13.55069889121489
 20
119.4976855050234
 30
0.0
 10
13.55459956988836
 20
119.4738885677655
 30
0.0
 10
13.55575891943178
 20
119.4668157041298
 30
0.0
  0
LINE
  5
2D8
330
1F
100
AcDbEntity
  8
0
  6
CONTINUOUS
 62
     7
100
AcDbLine
 10
12.6101851195
 20
101.0455173343
 30
0.0
 11
12.6087146254
 21
101.0459136074
 31
0.0
  0
SPLINE
  5
2D9
330
1F
100
AcDbEntity
  8
0
  6
CONTINUOUS
 62
     7
100
AcDbSpline
210
0.0
220
0.0
230
1.0
 70
     8
 71
     3
 72
    11
 73
     7
 74
     0
 42
0.00000001
 43
0.00000001
 40
0.0
 40
0.0
 40
0.0
 40
0.0
 40
0.2519200500998893
 40
0.5571623001697
 40
0.8683809336589614
 40
1.0
 40
1.0
 40
1.0
 40
1.0
 10
12.60871462535253
 20
101.0459136074002
 30
0.0
 10
12.6518046764747
 20
101.2001091370823
 30
0.0
 10
12.74710535614724
 20
101.5411377132497
 30
0.0
 10
12.84412075156709
 20
101.8881937526987
 30
0.0
 10
12.89111865552238
 20
102.0553825056068
 30
0.0
 10
12.89792936959087
 20
102.0785152462756
 30
0.0
 10
12.89995363226579
 20
102.0853906991332
 30
0.0
  0
SPLINE
  5
2DA
330
1F
100
AcDbEntity
  8
0
  6
CONTINUOUS
 62
     7
100
AcDbSpline
210
0.0
220
0.0
230
1.0
 70
     8
 71
     3
 72
    10
 73
     6
 74
     0
 42
0.00000001
 43
0.00000001
 40
0.0
 40
0.0
 40
0.0
 40
0.0
 40
0.3686341043257595
 40
0.747958716300078
 40
1.0
 40
1.0
 40
1.0
 40
1.0
 10
12.78426400704334
 20
102.1172640518889
 30
0.0
 10
12.77464917328211
 20
102.0809536025796
 30
0.0
 10
12.75514067248663
 20
102.0072796892469
 30
0.0
 10
12.64835105802743
 20
101.6140344962082
 30
0.0
 10
12.54379097226288
 20
101.2290043788241
 30
0.0
 10
12.5020505830204
 20
101.0753003448978
 30
0.0
  0
LINE
  5
2DB
330
1F
100
AcDbEntity
  8
0
  6
CONTINUOUS
 62
     7
100
AcDbLine
 10
12.502050583
 20
101.0753003449
 30
0.0
 11
12.5005846259
 21
101.075713086
 31
0.0
  0
SPLINE
  5
2DC
330
1F
100
AcDbEntity
  8
0
  6
CONTINUOUS
 62
     7
100
AcDbSpline
210
0.0
220
0.0
230
1.0
 70
     8
 71
     3
 72
    10
 73
     6
 74
     0
 42
0.00000001
 43
0.00000001
 40
0.0
 40
0.0
 40
0.0
 40
0.0
 40
0.368634104325763
 40
0.7479587163000737
 40
1.0
 40
1.0
 40
1.0
 40
1.0
 10
13.67382099956836
 20
119.4882946527498
 30
0.0
 10
13.66672915194195
 20
119.5251809571803
 30
0.0
 10
13.65233979082589
 20
119.6000232807394
 30
0.0
 10
13.57793121412335
 20
120.00065923434
 30
0.0
 10
13.50507828921889
 20
120.3929263042818
 30
0.0
 10
13.47599539950312
 20
120.5495193298772
 30
0.0
  0
LINE
  5
2DD
330
1F
100
AcDbEntity
  8
0
  6
CONTINUOUS
 62
     7
100
AcDbLine
 10
13.4759953995
 20
120.5495193299
 30
0.0
 11
13.4774952628
 21
120.5497835179
 31
0.0
  0
LINE
  5
2DE
330
1F
100
AcDbEntity
  8
0
  6
CONTINUOUS
 62
     7
100
AcDbLine
 10
9.2841549183
 20
118.7552740654
 30
0.0
 11
9.2853815751
 21
118.7561766718
 31
0.0
  0
LINE
  5
2DF
330
1F
100
AcDbEntity
  8
0
  6
CONTINUOUS
 62
     7
100
AcDbLine
 10
9.3748609943
 20
118.821247647
 30
0.0
 11
9.3760976976
 21
118.8221364385
 31
0.0
  0
ARC
  5
2E0
330
1F
100
AcDbEntity
  8
0
  6
CONTINUOUS
 62
     7
100
AcDbCircle
 10
15.2114546923
 20
110.701261563
 30
0.0
 40
10.00000000000001
100
AcDbArc
 50
357.1369084212
 51
357.7708215083
  0
ARC
  5
2E1
330
1F
100
AcDbEntity
  8
0
  6
CONTINUOUS
 62
     7
100
AcDbCircle
 10
15.2114546923
 20
110.701261563
 30
0.0
 40
9.999999999999993
100
AcDbArc
 50
48.5654798498
 51
49.1993929369
  0
ARC
  5
2E2
330
1F
100
AcDbEntity
  8
0
  6
CONTINUOUS
 62
     7
100
AcDbCircle
 10
15.2114546923
 20
110.701261563
 30
0.0
 40
10.0
100
AcDbArc
 50
22.8511941355
 51
23.4851072226
  0
ARC
  5
2E3
330
1F
100
AcDbEntity
  8
0
  6
CONTINUOUS
 62
     7
100
AcDbCircle
 10
15.2114546923
 20
110.701261563
 30
0.0
 40
10.00000000000001
100
AcDbArc
 50
331.4226227069
 51
332.056535794
  0
ARC
  5
2E4
330
1F
100
AcDbEntity
  8
0
  6
CONTINUOUS
 62
     7
100
AcDbCircle
 10
15.2114546923
 20
110.701261563
 30
0.0
 40
10.00000000000001
100
AcDbArc
 50
305.7083369927
 51
306.3422500797
  0
ARC
  5
2E5
330
1F
100
AcDbEntity
  8
0
  6
CONTINUOUS
 62
     7
100
AcDbCircle
 10
15.2114546923
 20
110.701261563
 30
0.0
 40
9.999999999999993
100
AcDbArc
 50
74.2797655641
 51
74.9136786511
  0
ARC
  5
2E6
330
1F
100
AcDbEntity
  8
0
  6
CONTINUOUS
 62
     7
100
AcDbCircle
 10
15.2114546923
 20
110.701261563
 30
0.0
 40
10.00000000000002
100
AcDbArc
 50
279.9940512784
 51
280.6279643654
  0
ARC
  5
2E7
330
1F
100
AcDbEntity
  8
0
  6
CONTINUOUS
 62
     7
100
AcDbCircle
 10
15.2114546923
 20
110.701261563
 30
0.0
 40
9.999999999999998
100
AcDbArc
 50
99.9940512784
 51
100.6279643654
  0
ARC
  5
2E8
330
1F
100
AcDbEntity
  8
0
  6
CONTINUOUS
 62
     7
100
AcDbCircle
 10
15.2114546923
 20
110.701261563
 30
0.0
 40
10.00000000000002
100
AcDbArc
 50
254.2797655641
 51
254.9136786511
  0
ARC
  5
2E9
330
1F
100
AcDbEntity
  8
0
  6
CONTINUOUS
 62
     7
100
AcDbCircle
 10
15.2114546923
 20
110.701261563
 30
0.0
 40
9.999999999999982
100
AcDbArc
 50
125.7083369927
 51
126.3422500797
  0
LINE
  5
2EA
330
1F
100
AcDbEntity
  8
0
  6
CONTINUOUS
 62
     7
100
AcDbLine
 10
-32.0385453077
 20
102.701261563
 30
0.0
 11
-32.0385453077
 21
106.0375720365
 31
0.0
  0
LINE
  5
2EB
330
1F
100
AcDbEntity
  8
0
  6
CONTINUOUS
 62
     7
100
AcDbLine
 10
-32.0385453077
 20
106.0375720365
 30
0.0
 11
-24.7885453077
 21
106.0375720365
 31
0.0
  0
LINE
  5
2EC
330
1F
100
AcDbEntity
  8
0
  6
CONTINUOUS
 62
     7
100
AcDbLine
 10
-24.7885453077
 20
115.3649510895
 30
0.0
 11
-24.7885453077
 21
106.0375720365
 31
0.0
  0
LINE
  5
2ED
330
1F
100
AcDbEntity
  8
0
  6
CONTINUOUS
 62
     7
100
AcDbLine
 10
-32.0385453077
 20
115.3649510895
 30
0.0
 11
-24.7885453077
 21
115.3649510895
 31
0.0
  0
LINE
  5
2EE
330
1F
100
AcDbEntity
  8
0
  6
CONTINUOUS
 62
     7
100
AcDbLine
 10
-32.0385453077
 20
115.3649510895
 30
0.0
 11
-32.0385453077
 21
118.701261563
 31
0.0
  0
ARC
  5
2EF
330
1F
100
AcDbEntity
  8
0
  6
CONTINUOUS
 62
     7
100
AcDbCircle
 10
15.2114546923
 20
110.701261563
 30
0.0
 40
8.0
100
AcDbArc
 50
270.0
 51
90.0
  0
LINE
  5
2F0
330
1F
100
AcDbEntity
  8
0
  6
CONTINUOUS
 62
     7
100
AcDbLine
 10
-34.6885453077
 20
112.201261563
 30
0.0
 11
-25.7885453077
 21
112.201261563
 31
0.0
  0
LINE
  5
2F1
330
1F
100
AcDbEntity
  8
0
  6
CONTINUOUS
 62
     7
100
AcDbLine
 10
-34.6885453077
 20
115.3649510895
 30
0.0
 11
-34.6885453077
 21
112.201261563
 31
0.0
  0
LINE
  5
2F2
330
1F
100
AcDbEntity
  8
0
  6
CONTINUOUS
 62
     7
100
AcDbLine
 10
-34.6885453077
 20
115.3649510895
 30
0.0
 11
-33.5385453077
 21
115.3649510895
 31
0.0
  0
LINE
  5
2F3
330
1F
100
AcDbEntity
  8
0
  6
CONTINUOUS
 62
     7
100
AcDbLine
 10
-33.5385453077
 20
113.2993377744
 30
0.0
 11
-33.5385453077
 21
115.3649510895
 31
0.0
  0
LINE
  5
2F4
330
1F
100
AcDbEntity
  8
0
  6
CONTINUOUS
 62
     7
100
AcDbLine
 10
-33.5385453077
 20
113.2993377744
 30
0.0
 11
-32.0385453077
 21
113.2993377744
 31
0.0
  0
LINE
  5
2F5
330
1F
100
AcDbEntity
  8
0
  6
CONTINUOUS
 62
     7
100
AcDbLine
 10
-32.0385453077
 20
113.2993377744
 30
0.0
 11
-32.0385453077
 21
115.3649510895
 31
0.0
  0
LINE
  5
2F6
330
1F
100
AcDbEntity
  8
0
  6
CONTINUOUS
 62
     7
100
AcDbLine
 10
-32.0385453077
 20
106.0375720365
 30
0.0
 11
-32.0385453077
 21
108.1031853516
 31
0.0
  0
LINE
  5
2F7
330
1F
100
AcDbEntity
  8
0
  6
CONTINUOUS
 62
     7
100
AcDbLine
 10
-32.0385453077
 20
108.1031853516
 30
0.0
 11
-33.5385453077
 21
108.1031853516
 31
0.0
  0
LINE
  5
2F8
330
1F
100
AcDbEntity
  8
0
  6
CONTINUOUS
 62
     7
100
AcDbLine
 10
-33.5385453077
 20
106.0375720365
 30
0.0
 11
-33.5385453077
 21
108.1031853516
 31
0.0
  0
LINE
  5
2F9
330
1F
100
AcDbEntity
  8
0
  6
CONTINUOUS
 62
     7
100
AcDbLine
 10
-34.6885453077
 20
106.0375720365
 30
0.0
 11
-33.5385453077
 21
106.0375720365
 31
0.0
  0
LINE
  5
2FA
330
1F
100
AcDbEntity
  8
0
  6
CONTINUOUS
 62
     7
100
AcDbLine
 10
-34.6885453077
 20
109.201261563
 30
0.0
 11
-34.6885453077
 21
106.0375720365
 31
0.0
  0
LINE
  5
2FB
330
1F
100
AcDbEntity
  8
0
  6
CONTINUOUS
 62
     7
100
AcDbLine
 10
-25.7885453077
 20
109.201261563
 30
0.0
 11
-34.6885453077
 21
109.201261563
 31
0.0
  0
LINE
  5
2FC
330
1F
100
AcDbEntity
  8
0
  6
CONTINUOUS
 62
     7
100
AcDbLine
 10
-25.7885453077
 20
112.201261563
 30
0.0
 11
-25.7885453077
 21
109.201261563
 31
0.0
  0
LINE
  5
2FD
330
1F
100
AcDbEntity
  8
0
  6
CONTINUOUS
 62
     7
100
AcDbLine
 10
-34.6885453077
 20
118.701261563
 30
0.0
 11
-34.6885453077
 21
115.3649510895
 31
0.0
  0
LINE
  5
2FE
330
1F
100
AcDbEntity
  8
0
  6
CONTINUOUS
 62
     7
100
AcDbLine
 10
-33.5385453077
 20
115.3649510895
 30
0.0
 11
-33.5385453077
 21
118.701261563
 31
0.0
  0
LINE
  5
2FF
330
1F
100
AcDbEntity
  8
0
  6
CONTINUOUS
 62
     7
100
AcDbLine
 10
-34.6885453077
 20
106.0375720365
 30
0.0
 11
-34.6885453077
 21
102.701261563
 31
0.0
  0
LINE
  5
300
330
1F
100
AcDbEntity
  8
0
  6
CONTINUOUS
 62
     7
100
AcDbLine
 10
-33.5385453077
 20
102.701261563
 30
0.0
 11
-33.5385453077
 21
106.0375720365
 31
0.0
  0
LINE
  5
301
330
1F
100
AcDbEntity
  8
0
  6
CONTINUOUS
 62
     7
100
AcDbLine
 10
-35.2885453077
 20
115.1678038498
 30
0.0
 11
-35.2885453077
 21
118.101261563
 31
0.0
  0
LINE
  5
302
330
1F
100
AcDbEntity
  8
0
  6
CONTINUOUS
 62
     7
100
AcDbLine
 10
-34.6885453077
 20
115.3649510895
 30
0.0
 11
-35.2885453077
 21
115.1678038498
 31
0.0
  0
LINE
  5
303
330
1F
100
AcDbEntity
  8
0
  6
CONTINUOUS
 62
     7
100
AcDbLine
 10
-35.2885453077
 20
112.201261563
 30
0.0
 11
-35.2885453077
 21
115.1678038498
 31
0.0
  0
LINE
  5
304
330
1F
100
AcDbEntity
  8
0
  6
CONTINUOUS
 62
     7
100
AcDbLine
 10
-34.6885453077
 20
112.201261563
 30
0.0
 11
-35.2885453077
 21
112.201261563
 31
0.0
  0
LINE
  5
305
330
1F
100
AcDbEntity
  8
0
  6
CONTINUOUS
 62
     7
100
AcDbLine
 10
-34.6885453077
 20
106.0375720365
 30
0.0
 11
-35.2885453077
 21
106.2347192762
 31
0.0
  0
LINE
  5
306
330
1F
100
AcDbEntity
  8
0
  6
CONTINUOUS
 62
     7
100
AcDbLine
 10
-35.2885453077
 20
106.2347192762
 30
0.0
 11
-35.2885453077
 21
109.201261563
 31
0.0
  0
LINE
  5
307
330
1F
100
AcDbEntity
  8
0
  6
CONTINUOUS
 62
     7
100
AcDbLine
 10
-35.2885453077
 20
109.201261563
 30
0.0
 11
-34.6885453077
 21
109.201261563
 31
0.0
  0
LINE
  5
308
330
1F
100
AcDbEntity
  8
0
  6
CONTINUOUS
 62
     7
100
AcDbLine
 10
-35.2885453077
 20
103.301261563
 30
0.0
 11
-35.2885453077
 21
106.2347192762
 31
0.0
  0
ARC
  5
309
330
1F
100
AcDbEntity
  8
0
  6
CONTINUOUS
 62
     8
100
AcDbCircle
 10
15.2114546923
 20
110.701261563
 30
0.0
 40
8.050000000000006
100
AcDbArc
 50
263.6107521022
 51
96.3892478978
  0
ARC
  5
30A
330
1F
100
AcDbEntity
  8
0
  6
CONTINUOUS
 62
     8
100
AcDbCircle
 10
15.2114546923
 20
110.701261563
 30
0.0
 40
8.666666666666673
100
AcDbArc
 50
306.0252935362
 51
112.619864948
  0
ARC
  5
30B
330
1F
100
AcDbEntity
  8
0
  6
CONTINUOUS
 62
     8
100
AcDbCircle
 10
15.2114546923
 20
110.701261563
 30
0.0
 40
8.666666666666675
100
AcDbArc
 50
247.380135052
 51
306.0252935362
  0
LINE
  5
30C
330
1F
100
AcDbEntity
  8
0
  6
CONTINUOUS
 62
     8
100
AcDbLine
 10
23.9499455313
 20
110.2526215538
 30
0.0
 11
24.1203342022
 21
110.245044759
 31
0.0
  0
LINE
  5
30D
330
1F
100
AcDbEntity
  8
0
  6
CONTINUOUS
 62
     8
100
AcDbLine
 10
24.12566506
 20
110.364926292
 30
0.0
 11
23.9552763891
 21
110.3725030868
 31
0.0
  0
LINE
  5
30E
330
1F
100
AcDbEntity
  8
0
  6
CONTINUOUS
 62
     8
100
AcDbLine
 10
23.2792204954
 20
114.0885399612
 30
0.0
 11
23.4360228314
 21
114.1556423786
 31
0.0
  0
LINE
  5
30F
330
1F
100
AcDbEntity
  8
0
  6
CONTINUOUS
 62
     8
100
AcDbLine
 10
23.3888111205
 20
114.2659648802
 30
0.0
 11
23.2320087845
 21
114.1988624628
 31
0.0
  0
LINE
  5
310
330
1F
100
AcDbEntity
  8
0
  6
CONTINUOUS
 62
     8
100
AcDbLine
 10
23.0969503106
 20
106.530503029
 30
0.0
 11
22.9467228707
 21
106.6112583589
 31
0.0
  0
LINE
  5
311
330
1F
100
AcDbEntity
  8
0
  6
CONTINUOUS
 62
     8
100
AcDbLine
 10
22.8899052859
 20
106.5055618023
 30
0.0
 11
23.0401327258
 21
106.4248064725
 31
0.0
  0
LINE
  5
312
330
1F
100
AcDbEntity
  8
0
  6
CONTINUOUS
 62
     8
100
AcDbLine
 10
20.5064164446
 20
103.5221496447
 30
0.0
 11
20.4061046227
 21
103.6600889262
 31
0.0
  0
LINE
  5
313
330
1F
100
AcDbEntity
  8
0
  6
CONTINUOUS
 62
     8
100
AcDbLine
 10
21.0105754976
 20
117.2535663397
 30
0.0
 11
21.122734873
 21
117.3820575126
 31
0.0
  0
LINE
  5
314
330
1F
100
AcDbEntity
  8
0
  6
CONTINUOUS
 62
     8
100
AcDbLine
 10
20.3090537305
 20
103.5895118454
 30
0.0
 11
20.4093655525
 21
103.4515725639
 31
0.0
  0
LINE
  5
315
330
1F
100
AcDbEntity
  8
0
  6
CONTINUOUS
 62
     8
100
AcDbLine
 10
21.0323314518
 20
117.4609702583
 30
0.0
 11
20.9201720764
 21
117.3324790854
 31
0.0
  0
LINE
  5
316
330
1F
100
AcDbEntity
  8
0
  6
CONTINUOUS
 62
     8
100
AcDbLine
 10
16.8671504653
 20
101.9357074219
 30
0.0
 11
16.8366222478
 21
102.1035100885
 31
0.0
  0
LINE
  5
317
330
1F
100
AcDbEntity
  8
0
  6
CONTINUOUS
 62
     8
100
AcDbLine
 10
16.7185601677
 20
102.0820311399
 30
0.0
 11
16.7490883851
 21
101.9142284732
 31
0.0
  0
LINE
  5
318
330
1F
100
AcDbEntity
  8
0
  6
CONTINUOUS
 62
     8
100
AcDbLine
 10
17.5933435027
 20
119.1208283984
 30
0.0
 11
17.6386453776
 21
119.2852590741
 31
0.0
  0
LINE
  5
319
330
1F
100
AcDbEntity
  8
0
  6
CONTINUOUS
 62
     8
100
AcDbLine
 10
17.5229557524
 20
119.3171324269
 30
0.0
 11
17.4776538775
 21
119.1527017511
 31
0.0
  0
LINE
  5
31A
330
1F
100
AcDbEntity
  8
0
  6
CONTINUOUS
 62
     8
100
AcDbLine
 10
12.8999536323
 20
102.0853906991
 30
0.0
 11
12.9452555072
 21
102.2498213749
 31
0.0
  0
LINE
  5
31B
330
1F
100
AcDbEntity
  8
0
  6
CONTINUOUS
 62
     8
100
AcDbLine
 10
13.704349217
 20
119.3204919861
 30
0.0
 11
13.6738209996
 21
119.4882946527
 31
0.0
  0
LINE
  5
31C
330
1F
100
AcDbEntity
  8
0
  6
CONTINUOUS
 62
     8
100
AcDbLine
 10
13.5557589194
 20
119.4668157041
 30
0.0
 11
13.5862871369
 21
119.2990130375
 31
0.0
  0
LINE
  5
31D
330
1F
100
AcDbEntity
  8
0
  6
CONTINUOUS
 62
     8
100
AcDbLine
 10
12.829565882
 20
102.2816947276
 30
0.0
 11
12.784264007
 21
102.1172640519
 31
0.0
  0
ARC
  5
31E
330
1F
100
AcDbEntity
  8
0
  6
CONTINUOUS
 62
     8
100
AcDbCircle
 10
9.4609821326
 20
118.7112124661
 30
0.0
 40
0.939746167349211
100
AcDbArc
 50
359.3932878603
 51
36.0246829162
  0
LINE
  5
31F
330
1F
100
AcDbEntity
  8
0
  6
CONTINUOUS
 62
     8
100
AcDbLine
 10
9.4806918741
 20
102.6153616363
 30
0.0
 11
9.5473259574
 21
102.701261563
 31
0.0
  0
LINE
  5
320
330
1F
100
AcDbEntity
  8
0
  6
CONTINUOUS
 62
     8
100
AcDbLine
 10
9.4627919315
 20
118.701261563
 30
0.0
 11
9.3748609943
 21
118.821247647
 31
0.0
  0
LINE
  5
321
330
1F
100
AcDbEntity
  8
0
  6
CONTINUOUS
 62
     8
100
AcDbLine
 10
0.2114546923
 20
118.701261563
 30
0.0
 11
0.2114546923
 21
102.701261563
 31
0.0
  0
CIRCLE
  5
322
330
1F
100
AcDbEntity
  8
0
  6
CONTINUOUS
 62
     7
100
AcDbCircle
 10
249.4371003316
 20
110.701261563
 30
0.0
 40
9.998376830668446
  0
LINE
  5
323
330
1F
100
AcDbEntity
  8
0
  6
CONTINUOUS
 62
     7
100
AcDbLine
 10
255.4371003316
 20
102.701261563
 30
0.0
 11
264.4371003316
 21
102.701261563
 31
0.0
  0
LINE
  5
324
330
1F
100
AcDbEntity
  8
0
  6
CONTINUOUS
 62
     7
100
AcDbLine
 10
264.4371003316
 20
118.701261563
 30
0.0
 11
255.4371003316
 21
118.701261563
 31
0.0
  0
LINE
  5
325
330
1F
100
AcDbEntity
  8
0
  6
CONTINUOUS
 62
     7
100
AcDbLine
 10
296.6871003316
 20
118.701261563
 30
0.0
 11
264.4371003316
 21
118.701261563
 31
0.0
  0
LINE
  5
326
330
1F
100
AcDbEntity
  8
0
  6
CONTINUOUS
 62
     7
100
AcDbLine
 10
264.4371003316
 20
102.701261563
 30
0.0
 11
296.6871003316
 21
102.701261563
 31
0.0
  0
LINE
  5
327
330
1F
100
AcDbEntity
  8
0
  6
CONTINUOUS
 62
     7
100
AcDbLine
 10
299.3371003316
 20
102.701261563
 30
0.0
 11
299.9371003316
 21
103.301261563
 31
0.0
  0
LINE
  5
328
330
1F
100
AcDbEntity
  8
0
  6
CONTINUOUS
 62
     7
100
AcDbLine
 10
299.9371003316
 20
118.101261563
 30
0.0
 11
299.3371003316
 21
118.701261563
 31
0.0
  0
LINE
  5
329
330
1F
100
AcDbEntity
  8
0
  6
CONTINUOUS
 62
     7
100
AcDbLine
 10
299.3371003316
 20
118.701261563
 30
0.0
 11
298.1871003316
 21
118.701261563
 31
0.0
  0
LINE
  5
32A
330
1F
100
AcDbEntity
  8
0
  6
CONTINUOUS
 62
     7
100
AcDbLine
 10
298.1871003316
 20
102.701261563
 30
0.0
 11
299.3371003316
 21
102.701261563
 31
0.0
  0
LINE
  5
32B
330
1F
100
AcDbEntity
  8
0
  6
CONTINUOUS
 62
     7
100
AcDbLine
 10
296.6871003316
 20
103.701261563
 30
0.0
 11
298.1871003316
 21
103.701261563
 31
0.0
  0
LINE
  5
32C
330
1F
100
AcDbEntity
  8
0
  6
CONTINUOUS
 62
     7
100
AcDbLine
 10
298.1871003316
 20
117.701261563
 30
0.0
 11
296.6871003316
 21
117.701261563
 31
0.0
  0
CIRCLE
  5
32D
330
1F
100
AcDbEntity
  8
0
  6
CONTINUOUS
 62
     7
100
AcDbCircle
 10
249.4371003316
 20
110.701261563
 30
0.0
 40
9.99834370476375
  0
CIRCLE
  5
32E
330
1F
100
AcDbEntity
  8
0
  6
CONTINUOUS
 62
     7
100
AcDbCircle
 10
249.4371003316
 20
110.701261563
 30
0.0
 40
9.999999999999957
  0
CIRCLE
  5
32F
330
1F
100
AcDbEntity
  8
0
  6
CONTINUOUS
 62
     7
100
AcDbCircle
 10
281.4371003316
 20
110.701261563
 30
0.0
 40
2.445500000000038
  0
ARC
  5
330
330
1F
100
AcDbEntity
  8
0
  6
CONTINUOUS
 62
     7
100
AcDbCircle
 10
281.4371003316
 20
110.701261563
 30
0.0
 40
2.69608805355927
100
AcDbArc
 50
214.1778276487
 51
270.0
  0
ARC
  5
331
330
1F
100
AcDbEntity
  8
0
  6
CONTINUOUS
 62
     7
100
AcDbCircle
 10
281.4371003316
 20
110.701261563
 30
0.0
 40
2.69608805355927
100
AcDbArc
 50
34.1778276487
 51
145.8221723513
  0
ARC
  5
332
330
1F
100
AcDbEntity
  8
0
  6
CONTINUOUS
 62
     7
100
AcDbCircle
 10
281.4371003316
 20
110.701261563
 30
0.0
 40
2.696088053559265
100
AcDbArc
 50
270.0
 51
325.8221723513
  0
LINE
  5
333
330
1F
100
AcDbEntity
  8
0
  6
CONTINUOUS
 62
     7
100
AcDbLine
 10
280.5710749278
 20
112.201261563
 30
0.0
 11
279.705049524
 21
110.701261563
 31
0.0
  0
LINE
  5
334
330
1F
100
AcDbEntity
  8
0
  6
CONTINUOUS
 62
     7
100
AcDbLine
 10
280.5710749278
 20
109.201261563
 30
0.0
 11
279.705049524
 21
110.701261563
 31
0.0
  0
LINE
  5
335
330
1F
100
AcDbEntity
  8
0
  6
CONTINUOUS
 62
     7
100
AcDbLine
 10
282.3031257354
 20
109.201261563
 30
0.0
 11
280.5710749278
 21
109.201261563
 31
0.0
  0
LINE
  5
336
330
1F
100
AcDbEntity
  8
0
  6
CONTINUOUS
 62
     7
100
AcDbLine
 10
282.3031257354
 20
109.201261563
 30
0.0
 11
283.1691511391
 21
110.701261563
 31
0.0
  0
LINE
  5
337
330
1F
100
AcDbEntity
  8
0
  6
CONTINUOUS
 62
     7
100
AcDbLine
 10
282.3031257354
 20
112.201261563
 30
0.0
 11
283.1691511391
 21
110.701261563
 31
0.0
  0
LINE
  5
338
330
1F
100
AcDbEntity
  8
0
  6
CONTINUOUS
 62
     7
100
AcDbLine
 10
282.3031257354
 20
112.201261563
 30
0.0
 11
280.5710749278
 21
112.201261563
 31
0.0
  0
LINE
  5
339
330
1F
100
AcDbEntity
  8
0
  6
CONTINUOUS
 62
     7
100
AcDbLine
 10
296.6871003316
 20
115.3649510895
 30
0.0
 11
289.4371003316
 21
115.3649510895
 31
0.0
  0
LINE
  5
33A
330
1F
100
AcDbEntity
  8
0
  6
CONTINUOUS
 62
     7
100
AcDbLine
 10
289.4371003316
 20
106.0375720365
 30
0.0
 11
289.4371003316
 21
115.3649510895
 31
0.0
  0
LINE
  5
33B
330
1F
100
AcDbEntity
  8
0
  6
CONTINUOUS
 62
     7
100
AcDbLine
 10
296.6871003316
 20
106.0375720365
 30
0.0
 11
289.4371003316
 21
106.0375720365
 31
0.0
  0
LINE
  5
33C
330
1F
100
AcDbEntity
  8
0
  6
CONTINUOUS
 62
     7
100
AcDbLine
 10
296.6871003316
 20
106.0375720365
 30
0.0
 11
296.6871003316
 21
102.701261563
 31
0.0
  0
LINE
  5
33D
330
1F
100
AcDbEntity
  8
0
  6
CONTINUOUS
 62
     7
100
AcDbLine
 10
296.6871003316
 20
118.701261563
 30
0.0
 11
296.6871003316
 21
115.3649510895
 31
0.0
  0
LINE
  5
33E
330
1F
100
AcDbEntity
  8
0
  6
CONTINUOUS
 62
     7
100
AcDbLine
 10
278.9371003316
 20
110.701261563
 30
0.0
 11
279.0539877002
 21
111.4075293164
 31
0.0
  0
SPLINE
  5
33F
330
1F
100
AcDbEntity
  8
0
  6
CONTINUOUS
 62
     7
100
AcDbSpline
210
0.0
220
0.0
230
1.0
 70
     8
 71
     3
 72
    10
 73
     6
 74
     0
 42
0.00000001
 43
0.00000001
 40
0.0
 40
0.0
 40
0.0
 40
0.0
 40
0.2343023581618076
 40
0.8092999679675003
 40
1.0
 40
1.0
 40
1.0
 40
1.0
 10
283.8016664179634
 20
111.3982053249834
 30
0.0
 10
283.8410300831627
 20
111.2941868651857
 30
0.0
 10
283.9769954794769
 20
110.9348983934745
 30
0.0
 10
283.9713809485553
 20
110.4257121659733
 30
0.0
 10
283.8401649396495
 20
110.0870184439239
 30
0.0
 10
283.8074850726442
 20
110.0026654302605
 30
0.0
  0
LINE
  5
340
330
1F
100
AcDbEntity
  8
0
  6
CONTINUOUS
 62
     7
100
AcDbLine
 10
279.0496557705
 20
109.9941450016
 30
0.0
 11
278.9371003316
 21
110.701261563
 31
0.0
  0
LINE
  5
341
330
1F
100
AcDbEntity
  8
0
  6
CONTINUOUS
 62
     7
100
AcDbLine
 10
299.3371003316
 20
106.0375720365
 30
0.0
 11
298.1871003316
 21
106.0375720365
 31
0.0
  0
LINE
  5
342
330
1F
100
AcDbEntity
  8
0
  6
CONTINUOUS
 62
     7
100
AcDbLine
 10
298.1871003316
 20
108.1031853516
 30
0.0
 11
298.1871003316
 21
106.0375720365
 31
0.0
  0
LINE
  5
343
330
1F
100
AcDbEntity
  8
0
  6
CONTINUOUS
 62
     7
100
AcDbLine
 10
298.1871003316
 20
108.1031853516
 30
0.0
 11
296.6871003316
 21
108.1031853516
 31
0.0
  0
LINE
  5
344
330
1F
100
AcDbEntity
  8
0
  6
CONTINUOUS
 62
     7
100
AcDbLine
 10
296.6871003316
 20
108.1031853516
 30
0.0
 11
296.6871003316
 21
106.0375720365
 31
0.0
  0
LINE
  5
345
330
1F
100
AcDbEntity
  8
0
  6
CONTINUOUS
 62
     7
100
AcDbLine
 10
296.6871003316
 20
115.3649510895
 30
0.0
 11
296.6871003316
 21
113.2993377744
 31
0.0
  0
LINE
  5
346
330
1F
100
AcDbEntity
  8
0
  6
CONTINUOUS
 62
     7
100
AcDbLine
 10
296.6871003316
 20
113.2993377744
 30
0.0
 11
298.1871003316
 21
113.2993377744
 31
0.0
  0
LINE
  5
347
330
1F
100
AcDbEntity
  8
0
  6
CONTINUOUS
 62
     7
100
AcDbLine
 10
298.1871003316
 20
115.3649510895
 30
0.0
 11
298.1871003316
 21
113.2993377744
 31
0.0
  0
LINE
  5
348
330
1F
100
AcDbEntity
  8
0
  6
CONTINUOUS
 62
     7
100
AcDbLine
 10
299.3371003316
 20
115.3649510895
 30
0.0
 11
298.1871003316
 21
115.3649510895
 31
0.0
  0
LINE
  5
349
330
1F
100
AcDbEntity
  8
0
  6
CONTINUOUS
 62
     7
100
AcDbLine
 10
299.3371003316
 20
112.201261563
 30
0.0
 11
299.3371003316
 21
115.3649510895
 31
0.0
  0
LINE
  5
34A
330
1F
100
AcDbEntity
  8
0
  6
CONTINUOUS
 62
     7
100
AcDbLine
 10
299.3371003316
 20
112.201261563
 30
0.0
 11
290.4371003316
 21
112.201261563
 31
0.0
  0
LINE
  5
34B
330
1F
100
AcDbEntity
  8
0
  6
CONTINUOUS
 62
     7
100
AcDbLine
 10
290.4371003316
 20
112.201261563
 30
0.0
 11
290.4371003316
 21
109.201261563
 31
0.0
  0
LINE
  5
34C
330
1F
100
AcDbEntity
  8
0
  6
CONTINUOUS
 62
     7
100
AcDbLine
 10
290.4371003316
 20
109.201261563
 30
0.0
 11
299.3371003316
 21
109.201261563
 31
0.0
  0
LINE
  5
34D
330
1F
100
AcDbEntity
  8
0
  6
CONTINUOUS
 62
     7
100
AcDbLine
 10
299.3371003316
 20
106.0375720365
 30
0.0
 11
299.3371003316
 21
109.201261563
 31
0.0
  0
LINE
  5
34E
330
1F
100
AcDbEntity
  8
0
  6
CONTINUOUS
 62
     7
100
AcDbLine
 10
299.9371003316
 20
106.2347192762
 30
0.0
 11
299.9371003316
 21
103.301261563
 31
0.0
  0
LINE
  5
34F
330
1F
100
AcDbEntity
  8
0
  6
CONTINUOUS
 62
     7
100
AcDbLine
 10
299.3371003316
 20
102.701261563
 30
0.0
 11
299.3371003316
 21
106.0375720365
 31
0.0
  0
LINE
  5
350
330
1F
100
AcDbEntity
  8
0
  6
CONTINUOUS
 62
     7
100
AcDbLine
 10
299.9371003316
 20
106.2347192762
 30
0.0
 11
299.3371003316
 21
106.0375720365
 31
0.0
  0
LINE
  5
351
330
1F
100
AcDbEntity
  8
0
  6
CONTINUOUS
 62
     7
100
AcDbLine
 10
299.9371003316
 20
118.101261563
 30
0.0
 11
299.9371003316
 21
115.1678038498
 31
0.0
  0
LINE
  5
352
330
1F
100
AcDbEntity
  8
0
  6
CONTINUOUS
 62
     7
100
AcDbLine
 10
299.9371003316
 20
115.1678038498
 30
0.0
 11
299.3371003316
 21
115.3649510895
 31
0.0
  0
LINE
  5
353
330
1F
100
AcDbEntity
  8
0
  6
CONTINUOUS
 62
     7
100
AcDbLine
 10
299.3371003316
 20
115.3649510895
 30
0.0
 11
299.3371003316
 21
118.701261563
 31
0.0
  0
LINE
  5
354
330
1F
100
AcDbEntity
  8
0
  6
CONTINUOUS
 62
     7
100
AcDbLine
 10
299.9371003316
 20
115.1678038498
 30
0.0
 11
299.9371003316
 21
112.201261563
 31
0.0
  0
LINE
  5
355
330
1F
100
AcDbEntity
  8
0
  6
CONTINUOUS
 62
     7
100
AcDbLine
 10
299.9371003316
 20
112.201261563
 30
0.0
 11
299.3371003316
 21
112.201261563
 31
0.0
  0
LINE
  5
356
330
1F
100
AcDbEntity
  8
0
  6
CONTINUOUS
 62
     7
100
AcDbLine
 10
299.9371003316
 20
109.201261563
 30
0.0
 11
299.9371003316
 21
106.2347192762
 31
0.0
  0
LINE
  5
357
330
1F
100
AcDbEntity
  8
0
  6
CONTINUOUS
 62
     7
100
AcDbLine
 10
299.3371003316
 20
109.201261563
 30
0.0
 11
299.9371003316
 21
109.201261563
 31
0.0
  0
LINE
  5
358
330
1F
100
AcDbEntity
  8
0
  6
CONTINUOUS
 62
     7
100
AcDbLine
 10
298.1871003316
 20
118.701261563
 30
0.0
 11
298.1871003316
 21
115.3649510895
 31
0.0
  0
LINE
  5
359
330
1F
100
AcDbEntity
  8
0
  6
CONTINUOUS
 62
     7
100
AcDbLine
 10
298.1871003316
 20
106.0375720365
 30
0.0
 11
298.1871003316
 21
102.701261563
 31
0.0
  0
LINE
  5
35A
330
1F
100
AcDbEntity
  8
0
  6
CONTINUOUS
 62
     8
100
AcDbLine
 10
264.4371003316
 20
110.701261563
 30
0.0
 11
264.4371003316
 21
118.701261563
 31
0.0
  0
LINE
  5
35B
330
1F
100
AcDbEntity
  8
0
  6
CONTINUOUS
 62
     8
100
AcDbLine
 10
264.4371003316
 20
102.701261563
 30
0.0
 11
264.4371003316
 21
110.701261563
 31
0.0
  0
ENDSEC
  0
SECTION
  2
OBJECTS
  0
DICTIONARY
  5
C
330
0
100
AcDbDictionary
  3
ACAD_GROUP
350
D
  3
ACAD_MLINESTYLE
350
17
  3
ACAD_SCALELIST
350
47
  3
DWGPROPS
350
35C
  0
DICTIONARY
  5
D
102
{ACAD_REACTORS
330
C
102
}
330
C
100
AcDbDictionary
  0
DICTIONARY
  5
17
102
{ACAD_REACTORS
330
C
102
}
330
C
100
AcDbDictionary
  3
STANDARD
350
18
  0
DICTIONARY
  5
47
102
{ACAD_REACTORS
330
C
102
}
330
C
100
AcDbDictionary
  0
XRECORD
  5
35C
102
{ACAD_REACTORS
330
C
102
}
330
C
100
AcDbXrecord
  1
DWGPROPS COOKIE
  2

  3

  4

  6

  7

  8
Pedro.Queiros
  9

300
=
301
=
302
=
303
=
304
=
305
=
306
=
307
=
308
=
309
=
 40
0.0
 41
2459324.371117697
 42
2459324.371118356
  1

 90
        0
  0
MLINESTYLE
  5
18
102
{ACAD_REACTORS
330
17
102
}
330
17
100
AcDbMlineStyle
  2
Standard
 70
     0
  3

 62
   256
 51
90.0
 52
90.0
 71
     2
 49
0.5
 62
   256
  6
BYLAYER
 49
-0.5
 62
   256
  6
BYLAYER
  0
ENDSEC
  0
EOF
