  0
SECTION
  2
HEADER
  9
$ACADVER
  1
AC1015
  9
$ACADMAINTVER
 70
     6
  9
$DWGCODEPAGE
  3
ANSI_1252
  9
$INSBASE
 10
0.0
 20
0.0
 30
0.0
  9
$EXTMIN
 10
0.0
 20
0.0
 30
0.0
  9
$EXTMAX
 10
279.4
 20
215.9
 30
0.0
  9
$LIMMIN
 10
0.0
 20
0.0
  9
$LIMMAX
 10
279.4
 20
215.9
  9
$ORTHOMODE
 70
     0
  9
$REGENMODE
 70
     1
  9
$FILLMODE
 70
     1
  9
$QTEXTMODE
 70
     0
  9
$MIRRTEXT
 70
     1
  9
$LTSCALE
 40
1.0
  9
$ATTMODE
 70
     1
  9
$TEXTSIZE
 40
3.5
  9
$TRACEWID
 40
1.0
  9
$TEXTSTYLE
  7
Standard
  9
$CLAYER
  8
0
  9
$CELTYPE
  6
ByLayer
  9
$CECOLOR
 62
   256
  9
$CELTSCALE
 40
1.0
  9
$DISPSILH
 70
     0
  9
$DIMSCALE
 40
1.0
  9
$DIMASZ
 40
3.302
  9
$DIMEXO
 40
1.0
  9
$DIMDLI
 40
3.75
  9
$DIMRND
 40
0.0
  9
$DIMDLE
 40
0.0
  9
$DIMEXE
 40
1.0
  9
$DIMTP
 40
0.0
  9
$DIMTM
 40
0.0
  9
$DIMTXT
 40
3.5
  9
$DIMCEN
 40
2.5
  9
$DIMTSZ
 40
0.0
  9
$DIMTOL
 70
     0
  9
$DIMLIM
 70
     0
  9
$DIMTIH
 70
     1
  9
$DIMTOH
 70
     1
  9
$DIMSE1
 70
     0
  9
$DIMSE2
 70
     0
  9
$DIMTAD
 70
     1
  9
$DIMZIN
 70
     0
  9
$DIMBLK
  1

  9
$DIMASO
 70
     1
  9
$DIMSHO
 70
     1
  9
$DIMPOST
  1

  9
$DIMAPOST
  1

  9
$DIMALT
 70
     0
  9
$DIMALTD
 70
     3
  9
$DIMALTF
 40
0.0393700787
  9
$DIMLFAC
 40
5.0
  9
$DIMTOFL
 70
     1
  9
$DIMTVP
 40
0.0
  9
$DIMTIX
 70
     0
  9
$DIMSOXD
 70
     0
  9
$DIMSAH
 70
     0
  9
$DIMBLK1
  1

  9
$DIMBLK2
  1

  9
$DIMSTYLE
  2
ISO-25
  9
$DIMCLRD
 70
     0
  9
$DIMCLRE
 70
     0
  9
$DIMCLRT
 70
     0
  9
$DIMTFAC
 40
1.0
  9
$DIMGAP
 40
1.524
  9
$DIMJUST
 70
     0
  9
$DIMSD1
 70
     0
  9
$DIMSD2
 70
     0
  9
$DIMTOLJ
 70
     0
  9
$DIMTZIN
 70
     0
  9
$DIMALTZ
 70
     0
  9
$DIMALTTZ
 70
     0
  9
$DIMUPT
 70
     0
  9
$DIMDEC
 70
     2
  9
$DIMTDEC
 70
     2
  9
$DIMALTU
 70
     2
  9
$DIMALTTD
 70
     3
  9
$DIMTXSTY
  7
Standard
  9
$DIMAUNIT
 70
     0
  9
$DIMADEC
 70
     2
  9
$DIMALTRND
 40
0.0
  9
$DIMAZIN
 70
     0
  9
$DIMDSEP
 70
    44
  9
$DIMATFIT
 70
     3
  9
$DIMFRAC
 70
     0
  9
$DIMLDRBLK
  1

  9
$DIMLUNIT
 70
     2
  9
$DIMLWD
 70
    -2
  9
$DIMLWE
 70
    -2
  9
$DIMTMOVE
 70
     0
  9
$LUNITS
 70
     2
  9
$LUPREC
 70
     2
  9
$SKETCHINC
 40
1.0
  9
$FILLETRAD
 40
10.0
  9
$AUNITS
 70
     0
  9
$AUPREC
 70
     2
  9
$MENU
  1
.
  9
$ELEVATION
 40
0.0
  9
$PELEVATION
 40
0.0
  9
$THICKNESS
 40
0.0
  9
$LIMCHECK
 70
     0
  9
$CHAMFERA
 40
0.0
  9
$CHAMFERB
 40
0.0
  9
$CHAMFERC
 40
0.0
  9
$CHAMFERD
 40
0.0
  9
$SKPOLY
 70
     0
  9
$TDCREATE
 40
2457717.671313669
  9
$TDUCREATE
 40
2457717.671313669
  9
$TDUPDATE
 40
2457717.671313993
  9
$TDUUPDATE
 40
2457717.671313993
  9
$TDINDWG
 40
0.0000000116
  9
$TDUSRTIMER
 40
0.0000000116
  9
$USRTIMER
 70
     1
  9
$ANGBASE
 50
0.0
  9
$ANGDIR
 70
     0
  9
$PDMODE
 70
     0
  9
$PDSIZE
 40
-1.0
  9
$PLINEWID
 40
0.0
  9
$SPLFRAME
 70
     0
  9
$SPLINETYPE
 70
     6
  9
$SPLINESEGS
 70
     8
  9
$HANDSEED
  5
2EF
  9
$SURFTAB1
 70
     6
  9
$SURFTAB2
 70
     6
  9
$SURFTYPE
 70
     6
  9
$SURFU
 70
     6
  9
$SURFV
 70
     6
  9
$UCSBASE
  2

  9
$UCSNAME
  2

  9
$UCSORG
 10
0.0
 20
0.0
 30
0.0
  9
$UCSXDIR
 10
1.0
 20
0.0
 30
0.0
  9
$UCSYDIR
 10
0.0
 20
1.0
 30
0.0
  9
$UCSORTHOREF
  2

  9
$UCSORTHOVIEW
 70
     0
  9
$UCSORGTOP
 10
0.0
 20
0.0
 30
0.0
  9
$UCSORGBOTTOM
 10
0.0
 20
0.0
 30
0.0
  9
$UCSORGLEFT
 10
0.0
 20
0.0
 30
0.0
  9
$UCSORGRIGHT
 10
0.0
 20
0.0
 30
0.0
  9
$UCSORGFRONT
 10
0.0
 20
0.0
 30
0.0
  9
$UCSORGBACK
 10
0.0
 20
0.0
 30
0.0
  9
$PUCSBASE
  2

  9
$PUCSNAME
  2

  9
$PUCSORG
 10
0.0
 20
0.0
 30
0.0
  9
$PUCSXDIR
 10
1.0
 20
0.0
 30
0.0
  9
$PUCSYDIR
 10
0.0
 20
1.0
 30
0.0
  9
$PUCSORTHOREF
  2

  9
$PUCSORTHOVIEW
 70
     0
  9
$PUCSORGTOP
 10
0.0
 20
0.0
 30
0.0
  9
$PUCSORGBOTTOM
 10
0.0
 20
0.0
 30
0.0
  9
$PUCSORGLEFT
 10
0.0
 20
0.0
 30
0.0
  9
$PUCSORGRIGHT
 10
0.0
 20
0.0
 30
0.0
  9
$PUCSORGFRONT
 10
0.0
 20
0.0
 30
0.0
  9
$PUCSORGBACK
 10
0.0
 20
0.0
 30
0.0
  9
$USERI1
 70
     0
  9
$USERI2
 70
     0
  9
$USERI3
 70
     0
  9
$USERI4
 70
     0
  9
$USERI5
 70
     0
  9
$USERR1
 40
0.0
  9
$USERR2
 40
0.0
  9
$USERR3
 40
0.0
  9
$USERR4
 40
0.0
  9
$USERR5
 40
0.0
  9
$WORLDVIEW
 70
     1
  9
$SHADEDGE
 70
     3
  9
$SHADEDIF
 70
    70
  9
$TILEMODE
 70
     1
  9
$MAXACTVP
 70
    64
  9
$PINSBASE
 10
0.0
 20
0.0
 30
0.0
  9
$PLIMCHECK
 70
     0
  9
$PEXTMIN
 10
1.0000000000E+20
 20
1.0000000000E+20
 30
1.0000000000E+20
  9
$PEXTMAX
 10
-1.0000000000E+20
 20
-1.0000000000E+20
 30
-1.0000000000E+20
  9
$PLIMMIN
 10
0.0
 20
0.0
  9
$PLIMMAX
 10
420.0
 20
297.0
  9
$UNITMODE
 70
     0
  9
$VISRETAIN
 70
     1
  9
$PLINEGEN
 70
     0
  9
$PSLTSCALE
 70
     1
  9
$TREEDEPTH
 70
  3020
  9
$CMLSTYLE
  2
Standard
  9
$CMLJUST
 70
     0
  9
$CMLSCALE
 40
20.0
  9
$PROXYGRAPHICS
 70
     1
  9
$MEASUREMENT
 70
     1
  9
$CELWEIGHT
370
    -1
  9
$ENDCAPS
280
     0
  9
$JOINSTYLE
280
     0
  9
$LWDISPLAY
290
     1
  9
$INSUNITS
 70
     4
  9
$HYPERLINKBASE
  1

  9
$STYLESHEET
  1

  9
$XEDIT
290
     1
  9
$CEPSNTYPE
380
     0
  9
$PSTYLEMODE
290
     1
  9
$FINGERPRINTGUID
  2
{BCD92532-42DB-4DAE-B016-8AFCDC0E837B}
  9
$VERSIONGUID
  2
{FAEB1C32-E019-11D5-929B-00C0DF256EC4}
  9
$EXTNAMES
290
     1
  9
$PSVPSCALE
 40
0.0
  9
$OLESTARTUP
290
     0
  0
ENDSEC
  0
SECTION
  2
CLASSES
  0
CLASS
  1
ACDBDICTIONARYWDFLT
  2
AcDbDictionaryWithDefault
  3
ObjectDBX Classes
 90
        0
280
     0
281
     0
  0
CLASS
  1
VISUALSTYLE
  2
AcDbVisualStyle
  3
ObjectDBX Classes
 90
     4095
280
     0
281
     0
  0
CLASS
  1
MATERIAL
  2
AcDbMaterial
  3
ObjectDBX Classes
 90
     1153
280
     0
281
     0
  0
CLASS
  1
SCALE
  2
AcDbScale
  3
ObjectDBX Classes
 90
     1153
280
     0
281
     0
  0
CLASS
  1
TABLESTYLE
  2
AcDbTableStyle
  3
ObjectDBX Classes
 90
     4095
280
     0
281
     0
  0
CLASS
  1
MLEADERSTYLE
  2
AcDbMLeaderStyle
  3
ACDB_MLEADERSTYLE_CLASS
 90
     4095
280
     0
281
     0
  0
CLASS
  1
SUN
  2
AcDbSun
  3
SCENEOE
 90
     1153
280
     0
281
     0
  0
CLASS
  1
ACDBPLACEHOLDER
  2
AcDbPlaceHolder
  3
ObjectDBX Classes
 90
        0
280
     0
281
     0
  0
CLASS
  1
LAYOUT
  2
AcDbLayout
  3
ObjectDBX Classes
 90
        0
280
     0
281
     0
  0
ENDSEC
  0
SECTION
  2
TABLES
  0
TABLE
  2
VPORT
  5
8
330
0
100
AcDbSymbolTable
 70
     1
  0
VPORT
  5
29
330
8
100
AcDbSymbolTableRecord
100
AcDbViewportTableRecord
  2
*Active
 70
     0
 10
0.0
 20
0.0
 11
1.0
 21
1.0
 12
139.7
 22
107.95
 13
0.0
 23
0.0
 14
10.0
 24
10.0
 15
10.0
 25
10.0
 16
0.0
 26
0.0
 36
1.0
 17
0.0
 27
0.0
 37
0.0
 40
215.9
 41
1.2941176471
 42
50.0
 43
0.0
 44
0.0
 50
0.0
 51
0.0
 71
     0
 72
  2000
 73
     1
 74
     3
 75
     0
 76
     0
 77
     0
 78
     0
281
     0
 65
     1
110
0.0
120
0.0
130
0.0
111
1.0
121
0.0
131
0.0
112
0.0
122
1.0
132
0.0
 79
     0
146
0.0
  0
ENDTAB
  0
TABLE
  2
LTYPE
  5
5
330
0
100
AcDbSymbolTable
 70
     6
  0
LTYPE
  5
14
330
5
100
AcDbSymbolTableRecord
100
AcDbLinetypeTableRecord
  2
ByBlock
 70
     0
  3

 72
    65
 73
     0
 40
0.0
  0
LTYPE
  5
15
330
5
100
AcDbSymbolTableRecord
100
AcDbLinetypeTableRecord
  2
ByLayer
 70
     0
  3

 72
    65
 73
     0
 40
0.0
  0
LTYPE
  5
16
330
5
100
AcDbSymbolTableRecord
100
AcDbLinetypeTableRecord
  2
Continuous
 70
     0
  3
Solid line
 72
    65
 73
     0
 40
0.0
  0
LTYPE
  5
6E
330
5
100
AcDbSymbolTableRecord
100
AcDbLinetypeTableRecord
  2
HIDDEN
 70
     0
  3
Hidden __ __ __ __ __ __ __ __ __ __ __ __ __ __
 72
    65
 73
     2
 40
1.905
 49
1.27
 74
     0
 49
-0.635
 74
     0
  0
LTYPE
  5
6F
330
5
100
AcDbSymbolTableRecord
100
AcDbLinetypeTableRecord
  2
PHANTOM
 70
     0
  3
Phantom ______  __  __  ______  __  __  ______
 72
    65
 73
     6
 40
12.7
 49
6.35
 74
     0
 49
-1.27
 74
     0
 49
1.27
 74
     0
 49
-1.27
 74
     0
 49
1.27
 74
     0
 49
-1.27
 74
     0
  0
LTYPE
  5
70
330
5
100
AcDbSymbolTableRecord
100
AcDbLinetypeTableRecord
  2
CENTER
 70
     0
  3
Center ____ _ ____ _ ____ _ ____ _ ____ _ ____
 72
    65
 73
     4
 40
10.16
 49
6.35
 74
     0
 49
-1.27
 74
     0
 49
1.27
 74
     0
 49
-1.27
 74
     0
  0
LTYPE
  5
71
330
5
100
AcDbSymbolTableRecord
100
AcDbLinetypeTableRecord
  2
CENTERX2
 70
     0
  3
Center (2x) ________  __  ________  __  _____
 72
    65
 73
     4
 40
20.32
 49
12.7
 74
     0
 49
-2.54
 74
     0
 49
2.54
 74
     0
 49
-2.54
 74
     0
  0
LTYPE
  5
72
330
5
100
AcDbSymbolTableRecord
100
AcDbLinetypeTableRecord
  2
DOT2
 70
     0
  3
Dot (.5x) ........................................
 72
    65
 73
     2
 40
0.635
 49
0.0
 74
     0
 49
-0.635
 74
     0
  0
ENDTAB
  0
TABLE
  2
LAYER
  5
2
330
0
100
AcDbSymbolTable
 70
     1
  0
LAYER
  5
10
330
2
100
AcDbSymbolTableRecord
100
AcDbLayerTableRecord
  2
0
 70
     0
 62
     7
  6
Continuous
370
    -3
390
F
  0
ENDTAB
  0
TABLE
  2
STYLE
  5
3
330
0
100
AcDbSymbolTable
 70
     1
  0
STYLE
  5
11
330
3
100
AcDbSymbolTableRecord
100
AcDbTextStyleTableRecord
  2
Standard
 70
     0
 40
0.0
 41
1.0
 50
0.0
 71
     0
 42
3.5
  3
txt
  4

  0
ENDTAB
  0
TABLE
  2
VIEW
  5
6
330
0
100
AcDbSymbolTable
 70
     0
  0
ENDTAB
  0
TABLE
  2
UCS
  5
7
330
0
100
AcDbSymbolTable
 70
     0
  0
ENDTAB
  0
TABLE
  2
APPID
  5
9
330
0
100
AcDbSymbolTable
 70
     1
  0
APPID
  5
12
330
9
100
AcDbSymbolTableRecord
100
AcDbRegAppTableRecord
  2
ACAD
 70
     0
  0
ENDTAB
  0
TABLE
  2
DIMSTYLE
  5
A
330
0
100
AcDbSymbolTable
 70
     1
100
AcDbDimStyleTable
  0
DIMSTYLE
105
27
330
A
100
AcDbSymbolTableRecord
100
AcDbDimStyleTableRecord
  2
ISO-25
 70
     0
 41
2.5
 42
0.625
 43
3.75
 44
1.25
 73
     0
 74
     0
 77
     1
 78
     8
140
2.5
141
2.5
143
0.0393700787
147
0.625
171
     3
172
     1
178
     0
271
     2
272
     2
274
     3
278
    44
283
     0
284
     8
340
11
  0
ENDTAB
  0
TABLE
  2
BLOCK_RECORD
  5
1
330
0
100
AcDbSymbolTable
 70
     1
  0
BLOCK_RECORD
  5
1F
330
1
100
AcDbSymbolTableRecord
100
AcDbBlockTableRecord
  2
*Model_Space
340
22
  0
BLOCK_RECORD
  5
1B
330
1
100
AcDbSymbolTableRecord
100
AcDbBlockTableRecord
  2
*Paper_Space
340
1E
  0
BLOCK_RECORD
  5
23
330
1
100
AcDbSymbolTableRecord
100
AcDbBlockTableRecord
  2
*Paper_Space0
340
26
  0
ENDTAB
  0
ENDSEC
  0
SECTION
  2
BLOCKS
  0
BLOCK
  5
20
330
1F
100
AcDbEntity
  8
0
100
AcDbBlockBegin
  2
*Model_Space
 70
     0
 10
0.0
 20
0.0
 30
0.0
  3
*Model_Space
  1

  0
ENDBLK
  5
21
330
1F
100
AcDbEntity
  8
0
100
AcDbBlockEnd
  0
BLOCK
  5
1C
330
1B
100
AcDbEntity
 67
     1
  8
0
100
AcDbBlockBegin
  2
*Paper_Space
 70
     0
 10
0.0
 20
0.0
 30
0.0
  3
*Paper_Space
  1

  0
ENDBLK
  5
1D
330
1B
100
AcDbEntity
 67
     1
  8
0
100
AcDbBlockEnd
  0
BLOCK
  5
24
330
23
100
AcDbEntity
  8
0
100
AcDbBlockBegin
  2
*Paper_Space0
 70
     0
 10
0.0
 20
0.0
 30
0.0
  3
*Paper_Space0
  1

  0
ENDBLK
  5
25
330
23
100
AcDbEntity
  8
0
100
AcDbBlockEnd
  0
ENDSEC
  0
SECTION
  2
ENTITIES
  0
SPLINE
  5
73
330
1F
100
AcDbEntity
  8
0
  6
Continuous
 62
     7
370
    15
100
AcDbSpline
210
0.0
220
0.0
230
1.0
 70
     8
 71
     3
 72
    11
 73
     7
 74
     0
 42
0.000000001
 43
0.00000001
 40
0.0
 40
0.0
 40
0.0
 40
0.0
 40
0.2838451007971705
 40
0.5580873241284021
 40
0.7751822440061973
 40
1.0
 40
1.0
 40
1.0
 40
1.0
 10
161.8331762320214
 20
-29.90326932974717
 30
0.0
 10
161.8825647327403
 20
-29.78142479374828
 30
0.0
 10
161.9796708519986
 20
-29.54185789312412
 30
0.0
 10
161.9158600563973
 20
-29.17921849083986
 30
0.0
 10
161.7519756676525
 20
-28.88890430808487
 30
0.0
 10
161.58587419905
 20
-28.77143120176161
 30
0.0
 10
161.501372075718
 20
-28.71166817255876
 30
0.0
  0
LINE
  5
74
330
1F
100
AcDbEntity
  8
0
  6
Continuous
 62
     7
370
    15
100
AcDbLine
 10
161.8290784127
 20
-29.9190645606
 30
0.0
 11
161.833176232
 21
-29.9032693297
 31
0.0
  0
SPLINE
  5
75
330
1F
100
AcDbEntity
  8
0
  6
Continuous
 62
     7
370
    15
100
AcDbSpline
210
0.0
220
0.0
230
1.0
 70
     8
 71
     3
 72
    11
 73
     7
 74
     0
 42
0.000000001
 43
0.00000001
 40
0.0
 40
0.0
 40
0.0
 40
0.0
 40
0.2761367773746045
 40
0.551837433771939
 40
0.7721304559412628
 40
1.0
 40
1.0
 40
1.0
 40
1.0
 10
161.0386761194879
 20
-30.41907302447221
 30
0.0
 10
161.1296150287275
 20
-30.41083147250061
 30
0.0
 10
161.3113492214052
 20
-30.39436138498251
 30
0.0
 10
161.5402833177225
 20
-30.27358115682642
 30
0.0
 10
161.7191675004156
 20
-30.11315367980664
 30
0.0
 10
161.7920308389364
 20
-29.98448600794411
 30
0.0
 10
161.8290784126931
 20
-29.91906456061265
 30
0.0
  0
SPLINE
  5
76
330
1F
100
AcDbEntity
  8
0
  6
Continuous
 62
     7
370
    15
100
AcDbSpline
210
0.0
220
0.0
230
1.0
 70
     8
 71
     3
 72
     9
 73
     5
 74
     0
 42
0.000000001
 43
0.00000001
 40
0.0
 40
0.0
 40
0.0
 40
0.0
 40
0.56736503240122
 40
1.0
 40
1.0
 40
1.0
 40
1.0
 10
160.6635691887551
 20
-30.33386818476579
 30
0.0
 10
160.7320898840582
 20
-30.36143670146173
 30
0.0
 10
160.8528599199081
 20
-30.41002714169254
 30
0.0
 10
160.9825623240671
 20
-30.41634129916059
 30
0.0
 10
161.0386761194879
 20
-30.41907302447221
 30
0.0
  0
LINE
  5
77
330
1F
100
AcDbEntity
  8
0
  6
Continuous
 62
     7
370
    15
100
AcDbLine
 10
157.8224690921
 20
-28.9709632785
 30
0.0
 11
160.6635691888
 21
-30.3338681848
 31
0.0
  0
LINE
  5
78
330
1F
100
AcDbEntity
  8
0
  6
Continuous
 62
     7
370
    15
100
AcDbLine
 10
157.8090729481
 20
-28.96546475
 30
0.0
 11
157.8224690921
 21
-28.9709632785
 31
0.0
  0
SPLINE
  5
79
330
1F
100
AcDbEntity
  8
0
  6
Continuous
 62
     7
370
    15
100
AcDbSpline
210
0.0
220
0.0
230
1.0
 70
     8
 71
     3
 72
     9
 73
     5
 74
     0
 42
0.000000001
 43
0.00000001
 40
0.0
 40
0.0
 40
0.0
 40
0.0
 40
0.5658861309474572
 40
1.0
 40
1.0
 40
1.0
 40
1.0
 10
157.7490808731729
 20
-28.95317129202745
 30
0.0
 10
157.7607559830135
 20
-28.95385048451608
 30
0.0
 10
157.7813875362576
 20
-28.95505071270947
 30
0.0
 10
157.8006924272283
 20
-28.96231236572576
 30
0.0
 10
157.8090729481393
 20
-28.96546475001237
 30
0.0
  0
SPLINE
  5
7A
330
1F
100
AcDbEntity
  8
0
  6
Continuous
 62
     7
370
    15
100
AcDbSpline
210
0.0
220
0.0
230
1.0
 70
     8
 71
     3
 72
     9
 73
     5
 74
     0
 42
0.000000001
 43
0.00000001
 40
0.0
 40
0.0
 40
0.0
 40
0.0
 40
0.564188145226394
 40
1.0
 40
1.0
 40
1.0
 40
1.0
 10
157.7072831160241
 20
-28.95886353560349
 30
0.0
 10
157.7150492303338
 20
-28.95705271497349
 30
0.0
 10
157.7288143446408
 20
-28.95384311079223
 30
0.0
 10
157.7429293754261
 20
-28.95337520912215
 30
0.0
 10
157.7490808731729
 20
-28.95317129202745
 30
0.0
  0
SPLINE
  5
7B
330
1F
100
AcDbEntity
  8
0
  6
Continuous
 62
     7
370
    15
100
AcDbSpline
210
0.0
220
0.0
230
1.0
 70
     8
 71
     3
 72
    11
 73
     7
 74
     0
 42
0.000000001
 43
0.00000001
 40
0.0
 40
0.0
 40
0.0
 40
0.0
 40
0.2834103201986151
 40
0.5573845649132534
 40
0.7746063795788874
 40
1.0
 40
1.0
 40
1.0
 40
1.0
 10
157.5981768137628
 20
-29.1528617531862
 30
0.0
 10
157.5948177816032
 20
-29.12950043018124
 30
0.0
 10
157.5882115554169
 20
-29.08355559355784
 30
0.0
 10
157.614855865036
 20
-29.02300981858989
 30
0.0
 10
157.6559031855666
 20
-28.97929049596003
 30
0.0
 10
157.6899469610015
 20
-28.96575581724402
 30
0.0
 10
157.7072831160241
 20
-28.95886353560349
 30
0.0
  0
SPLINE
  5
7C
330
1F
100
AcDbEntity
  8
0
  6
Continuous
 62
     7
370
    15
100
AcDbSpline
210
0.0
220
0.0
230
1.0
 70
     8
 71
     3
 72
     9
 73
     5
 74
     0
 42
0.000000001
 43
0.00000001
 40
0.0
 40
0.0
 40
0.0
 40
0.0
 40
0.5492100631913767
 40
0.9999999999999999
 40
0.9999999999999999
 40
0.9999999999999999
 40
0.9999999999999999
 10
157.6676758295709
 20
-29.2441611678209
 30
0.0
 10
157.6502569964703
 20
-29.23088396833194
 30
0.0
 10
157.6185408385408
 20
-29.20670888419062
 30
0.0
 10
157.6045043303866
 20
-29.16959315183114
 30
0.0
 10
157.5981768137628
 20
-29.1528617531862
 30
0.0
  0
LINE
  5
7D
330
1F
100
AcDbEntity
  8
0
  6
Continuous
 62
     7
370
    15
100
AcDbLine
 10
157.6953770882
 20
-29.2593752534
 30
0.0
 11
157.6676758296
 21
-29.2441611678
 31
0.0
  0
LINE
  5
7E
330
1F
100
AcDbEntity
  8
0
  6
Continuous
 62
     7
370
    15
100
AcDbLine
 10
160.5436744458
 20
-30.6439613492
 30
0.0
 11
157.6953770882
 21
-29.2593752534
 31
0.0
  0
SPLINE
  5
7F
330
1F
100
AcDbEntity
  8
0
  6
Continuous
 62
     7
370
    15
100
AcDbSpline
210
0.0
220
0.0
230
1.0
 70
     8
 71
     3
 72
     9
 73
     5
 74
     0
 42
0.000000001
 43
0.00000001
 40
0.0
 40
0.0
 40
0.0
 40
0.0
 40
0.553422586367774
 40
1.0
 40
1.0
 40
1.0
 40
1.0
 10
161.0156687266046
 20
-30.74496141978166
 30
0.0
 10
160.9255945292856
 20
-30.73962831333126
 30
0.0
 10
160.7628360883803
 20
-30.72999172353201
 30
0.0
 10
160.6113325182806
 20
-30.6705200537054
 30
0.0
 10
160.5436744457895
 20
-30.64396134920981
 30
0.0
  0
SPLINE
  5
80
330
1F
100
AcDbEntity
  8
0
  6
Continuous
 62
     7
370
    15
100
AcDbSpline
210
0.0
220
0.0
230
1.0
 70
     8
 71
     3
 72
    10
 73
     6
 74
     0
 42
0.000000001
 43
0.00000001
 40
0.0
 40
0.0
 40
0.0
 40
0.0
 40
0.2839086142231146
 40
0.5625120078047438
 40
1.0
 40
1.0
 40
1.0
 40
1.0
 10
161.9185747868234
 20
-30.289760747632
 30
0.0
 10
161.8541625789099
 20
-30.36533856596861
 30
0.0
 10
161.7265417932579
 20
-30.51508192776963
 30
0.0
 10
161.4195809435894
 20
-30.69800830406948
 30
0.0
 10
161.1688499885151
 20
-30.72715473502939
 30
0.0
 10
161.0156687266046
 20
-30.74496141978166
 30
0.0
  0
SPLINE
  5
81
330
1F
100
AcDbEntity
  8
0
  6
Continuous
 62
     7
370
    15
100
AcDbSpline
210
0.0
220
0.0
230
1.0
 70
     8
 71
     3
 72
     9
 73
     5
 74
     0
 42
0.000000001
 43
0.00000001
 40
0.0
 40
0.0
 40
0.0
 40
0.0
 40
0.5576403636421282
 40
1.0
 40
1.0
 40
1.0
 40
1.0
 10
162.1439697510415
 20
-29.84536341734788
 30
0.0
 10
162.1105911233249
 20
-29.93237722853413
 30
0.0
 10
162.0507342157321
 20
-30.08841652708481
 30
0.0
 10
161.9591069782683
 20
-30.22801015926356
 30
0.0
 10
161.9185747868234
 20
-30.289760747632
 30
0.0
  0
SPLINE
  5
82
330
1F
100
AcDbEntity
  8
0
  6
Continuous
 62
     7
370
    15
100
AcDbSpline
210
0.0
220
0.0
230
1.0
 70
     8
 71
     3
 72
     9
 73
     5
 74
     0
 42
0.000000001
 43
0.00000001
 40
0.0
 40
0.0
 40
0.0
 40
0.0
 40
0.5581999283452848
 40
1.0
 40
1.0
 40
1.0
 40
1.0
 10
162.1966751581841
 20
-29.62186090060136
 30
0.0
 10
162.1893432993729
 20
-29.66404345474631
 30
0.0
 10
162.1762084735894
 20
-29.73961235399351
 30
0.0
 10
162.1538484229959
 20
-29.81295890559481
 30
0.0
 10
162.1439697510415
 20
-29.84536341734793
 30
0.0
  0
LINE
  5
83
330
1F
100
AcDbEntity
  8
0
  6
Continuous
 62
     7
370
    15
100
AcDbLine
 10
166.5581705338
 20
-28.5020684392
 30
0.0
 11
162.1966751582
 21
-29.6218609006
 31
0.0
  0
LINE
  5
84
330
1F
100
AcDbEntity
  8
0
  6
Continuous
 62
     7
370
    15
100
AcDbLine
 10
166.5932776696
 20
-28.4963612945
 30
0.0
 11
166.5581705338
 21
-28.5020684392
 31
0.0
  0
SPLINE
  5
85
330
1F
100
AcDbEntity
  8
0
  6
Continuous
 62
     7
370
    15
100
AcDbSpline
210
0.0
220
0.0
230
1.0
 70
     8
 71
     3
 72
     9
 73
     5
 74
     0
 42
0.000000001
 43
0.00000001
 40
0.0
 40
0.0
 40
0.0
 40
0.0
 40
0.5534407070581912
 40
0.9999999999999999
 40
0.9999999999999999
 40
0.9999999999999999
 40
0.9999999999999999
 10
166.8240817553216
 20
-28.46417478629014
 30
0.0
 10
166.7808693641353
 20
-28.46580501182343
 30
0.0
 10
166.7027898325157
 20
-28.46875063095215
 30
0.0
 10
166.6270845617675
 20
-28.48783775973528
 30
0.0
 10
166.5932776695901
 20
-28.4963612944689
 30
0.0
  0
SPLINE
  5
86
330
1F
100
AcDbEntity
  8
0
  6
Continuous
 62
     7
370
    15
100
AcDbSpline
210
0.0
220
0.0
230
1.0
 70
     8
 71
     3
 72
    11
 73
     7
 74
     0
 42
0.000000001
 43
0.00000001
 40
0.0
 40
0.0
 40
0.0
 40
0.0
 40
0.2870579011783874
 40
0.56386435897603
 40
0.7805569061434929
 40
1.0
 40
1.0
 40
1.0
 40
1.0
 10
167.6401736504251
 20
-29.08306471415422
 30
0.0
 10
167.600737082084
 20
-28.98462251705062
 30
0.0
 10
167.5232723084738
 20
-28.79125370142797
 30
0.0
 10
167.3029105765515
 20
-28.59735621929248
 30
0.0
 10
167.064294632695
 20
-28.48419512667293
 30
0.0
 10
166.9044886602292
 20
-28.47087623220339
 30
0.0
 10
166.8240817553216
 20
-28.46417478629014
 30
0.0
  0
LINE
  5
87
330
1F
100
AcDbEntity
  8
0
  6
Continuous
 62
     7
370
    15
100
AcDbLine
 10
167.6946820981
 20
-29.2706703336
 30
0.0
 11
167.6401736504
 21
-29.0830647142
 31
0.0
  0
SPLINE
  5
88
330
1F
100
AcDbEntity
  8
0
  6
Continuous
 62
     7
370
    15
100
AcDbSpline
210
0.0
220
0.0
230
1.0
 70
     8
 71
     3
 72
    11
 73
     7
 74
     0
 42
0.000000001
 43
0.00000001
 40
0.0
 40
0.0
 40
0.0
 40
0.0
 40
0.2988832121261135
 40
0.5666400087266156
 40
0.7745107296958333
 40
1.0
 40
1.0
 40
1.0
 40
1.0
 10
167.1451719767266
 20
-30.30387214728257
 30
0.0
 10
167.2591681877392
 20
-30.24302708960751
 30
0.0
 10
167.4752887705697
 20
-30.12767352469247
 30
0.0
 10
167.6760751798151
 20
-29.84941114881083
 30
0.0
 10
167.7490748213843
 20
-29.55019571203992
 30
0.0
 10
167.7132978516364
 20
-29.36633709272844
 30
0.0
 10
167.6946820980721
 20
-29.27067033358476
 30
0.0
  0
SPLINE
  5
89
330
1F
100
AcDbEntity
  8
0
  6
Continuous
 62
     7
370
    15
100
AcDbSpline
210
0.0
220
0.0
230
1.0
 70
     8
 71
     3
 72
    14
 73
    10
 74
     0
 42
0.000000001
 43
0.00000001
 40
0.0
 40
0.0
 40
0.0
 40
0.0
 40
0.0768034345503625
 40
0.2176067762668779
 40
0.397077054547271
 40
0.5898843096966184
 40
0.7785804020003685
 40
0.9249939026195135
 40
1.0
 40
1.0
 40
1.0
 40
1.0
 10
160.8468832737618
 20
-33.17017010756394
 30
0.0
 10
161.0081271695791
 20
-33.09679031623629
 30
0.0
 10
161.4649786706468
 20
-32.88888373071135
 30
0.0
 10
162.2982489533657
 20
-32.50870015976535
 30
0.0
 10
163.3750668568451
 20
-32.017695285307
 30
0.0
 10
164.55238865198
 20
-31.48083479436973
 30
0.0
 10
165.6607147370376
 20
-30.97645056118474
 30
0.0
 10
166.5214963014959
 20
-30.58410308465308
 30
0.0
 10
166.9873601569037
 20
-30.37478040289275
 30
0.0
 10
167.1451719767266
 20
-30.30387214728257
 30
0.0
  0
SPLINE
  5
8A
330
1F
100
AcDbEntity
  8
0
  6
Continuous
 62
     7
370
    15
100
AcDbSpline
210
0.0
220
0.0
230
1.0
 70
     8
 71
     3
 72
     9
 73
     5
 74
     0
 42
0.000000001
 43
0.00000001
 40
0.0
 40
0.0
 40
0.0
 40
0.0
 40
0.5434566684493776
 40
1.0
 40
1.0
 40
1.0
 40
1.0
 10
160.6552692419702
 20
-33.22026781149766
 30
0.0
 10
160.6911507587091
 20
-33.21553531393366
 30
0.0
 10
160.7571753726703
 20
-33.20682717244093
 30
0.0
 10
160.8187649588833
 20
-33.18166000845556
 30
0.0
 10
160.8468832737619
 20
-33.170170107564
 30
0.0
  0
SPLINE
  5
8B
330
1F
100
AcDbEntity
  8
0
  6
Continuous
 62
     7
370
    15
100
AcDbSpline
210
0.0
220
0.0
230
1.0
 70
     8
 71
     3
 72
     9
 73
     5
 74
     0
 42
0.000000001
 43
0.00000001
 40
0.0
 40
0.0
 40
0.0
 40
0.0
 40
0.5565872834605498
 40
1.0
 40
1.0
 40
1.0
 40
1.0
 10
160.6166752344781
 20
-33.2218622357454
 30
0.0
 10
160.6238471787661
 20
-33.22182961209356
 30
0.0
 10
160.6367327485609
 20
-33.22177099837246
 30
0.0
 10
160.6495748783252
 20
-33.22072958668358
 30
0.0
 10
160.6552692419702
 20
-33.22026781149766
 30
0.0
  0
SPLINE
  5
8C
330
1F
100
AcDbEntity
  8
0
  6
Continuous
 62
     7
370
    15
100
AcDbSpline
210
0.0
220
0.0
230
1.0
 70
     8
 71
     3
 72
     9
 73
     5
 74
     0
 42
0.000000001
 43
0.00000001
 40
0.0
 40
0.0
 40
0.0
 40
0.0
 40
0.5011848831846916
 40
0.9999999999999999
 40
0.9999999999999999
 40
0.9999999999999999
 40
0.9999999999999999
 10
160.4458781248742
 20
-33.19396726199052
 30
0.0
 10
160.4738776024642
 20
-33.20190179867554
 30
0.0
 10
160.5297441669384
 20
-33.2177333549558
 30
0.0
 10
160.5877440273377
 20
-33.22048811819732
 30
0.0
 10
160.6166752344781
 20
-33.2218622357454
 30
0.0
  0
LWPOLYLINE
  5
8D
330
1F
100
AcDbEntity
  8
0
  6
Continuous
 62
     7
370
    15
100
AcDbPolyline
 90
        4
 70
   128
 43
0.0
 10
154.3590816027
 20
-31.0015743167
 10
160.0455435282
 20
-33.0503498704
 10
160.3391560084
 20
-33.1558649928
 10
160.4458781249
 20
-33.193967262
  0
LINE
  5
8E
330
1F
100
AcDbEntity
  8
0
  6
Continuous
 62
     7
370
    15
100
AcDbLine
 10
152.6388766534
 20
-31.4872627647
 30
0.0
 11
154.3590816027
 21
-31.0015743167
 31
0.0
  0
LINE
  5
8F
330
1F
100
AcDbEntity
  8
0
  6
Continuous
 62
     7
370
    15
100
AcDbLine
 10
152.6151689059
 20
-31.4942663104
 30
0.0
 11
152.6388766534
 21
-31.4872627647
 31
0.0
  0
SPLINE
  5
90
330
1F
100
AcDbEntity
  8
0
  6
Continuous
 62
     7
370
    15
100
AcDbSpline
210
0.0
220
0.0
230
1.0
 70
     8
 71
     3
 72
     9
 73
     5
 74
     0
 42
0.000000001
 43
0.00000001
 40
0.0
 40
0.0
 40
0.0
 40
0.0
 40
0.5566092810372065
 40
1.0
 40
1.0
 40
1.0
 40
1.0
 10
152.5319757229501
 20
-31.50566569872758
 30
0.0
 10
152.5476249333993
 20
-31.50502863712905
 30
0.0
 10
152.5757401858437
 20
-31.50388409710757
 30
0.0
 10
152.6030569196523
 20
-31.49722076848359
 30
0.0
 10
152.6151689058953
 20
-31.49426631041429
 30
0.0
  0
SPLINE
  5
91
330
1F
100
AcDbEntity
  8
0
  6
Continuous
 62
     7
370
    15
100
AcDbSpline
210
0.0
220
0.0
230
1.0
 70
     8
 71
     3
 72
    11
 73
     7
 74
     0
 42
0.000000001
 43
0.00000001
 40
0.0
 40
0.0
 40
0.0
 40
0.0
 40
0.2871909578965121
 40
0.5637525663357493
 40
0.7803807804634736
 40
0.9999999999999999
 40
0.9999999999999999
 40
0.9999999999999999
 40
0.9999999999999999
 10
152.2365751034432
 20
-31.2815671355333
 30
0.0
 10
152.2508194570933
 20
-31.31724941067153
 30
0.0
 10
152.2787809604248
 20
-31.38729330874267
 30
0.0
 10
152.3585186635604
 20
-31.45756272697313
 30
0.0
 10
152.4449499321022
 20
-31.49845911546316
 30
0.0
 10
152.5028348355879
 20
-31.50325254937124
 30
0.0
 10
152.5319757229501
 20
-31.50566569872758
 30
0.0
  0
LINE
  5
92
330
1F
100
AcDbEntity
  8
0
  6
Continuous
 62
     7
370
    15
100
AcDbLine
 10
151.5776755578
 20
-28.5234665067
 30
0.0
 11
152.2365751034
 21
-31.2815671355
 31
0.0
  0
LINE
  5
93
330
1F
100
AcDbEntity
  8
0
  6
Continuous
 62
     7
370
    15
100
AcDbLine
 10
151.5738757617
 20
-28.5093700082
 30
0.0
 11
151.5776755578
 21
-28.5234665067
 31
0.0
  0
SPLINE
  5
94
330
1F
100
AcDbEntity
  8
0
  6
Continuous
 62
     7
370
    15
100
AcDbSpline
210
0.0
220
0.0
230
1.0
 70
     8
 71
     3
 72
    11
 73
     7
 74
     0
 42
0.000000001
 43
0.00000001
 40
0.0
 40
0.0
 40
0.0
 40
0.0
 40
0.2771356469225462
 40
0.5520487458514014
 40
0.7717420749819802
 40
1.0
 40
1.0
 40
1.0
 40
1.0
 10
151.677170611065
 20
-28.18516544409655
 30
0.0
 10
151.6531814518891
 20
-28.20852695522474
 30
0.0
 10
151.6053955196782
 20
-28.25506262489673
 30
0.0
 10
151.569395671799
 20
-28.34257635533603
 30
0.0
 10
151.5577061073021
 20
-28.42948978908853
 30
0.0
 10
151.5684176107482
 20
-28.4824060248202
 30
0.0
 10
151.5738757616693
 20
-28.50937000819113
 30
0.0
  0
LINE
  5
95
330
1F
100
AcDbEntity
  8
0
  6
Continuous
 62
     7
370
    15
100
AcDbLine
 10
151.6896726853
 20
-28.1744664104
 30
0.0
 11
151.6771706111
 21
-28.1851654441
 31
0.0
  0
LINE
  5
96
330
1F
100
AcDbEntity
  8
0
  6
Continuous
 62
     7
370
    15
100
AcDbLine
 10
156.4170809752
 20
-26.7716710956
 30
0.0
 11
151.6896726853
 21
-28.1744664104
 31
0.0
  0
LINE
  5
97
330
1F
100
AcDbEntity
  8
0
  6
Continuous
 62
     7
370
    15
100
AcDbLine
 10
156.4804705149
 20
-26.753774801
 30
0.0
 11
156.4170809752
 21
-26.7716710956
 31
0.0
  0
SPLINE
  5
98
330
1F
100
AcDbEntity
  8
0
  6
Continuous
 62
     7
370
    15
100
AcDbSpline
210
0.0
220
0.0
230
1.0
 70
     8
 71
     3
 72
     9
 73
     5
 74
     0
 42
0.000000001
 43
0.00000001
 40
0.0
 40
0.0
 40
0.0
 40
0.0
 40
0.554064710963286
 40
1.0
 40
1.0
 40
1.0
 40
1.0
 10
157.1041735178643
 20
-26.66727356024645
 30
0.0
 10
156.9873073882178
 20
-26.67179548416732
 30
0.0
 10
156.7763823331942
 20
-26.67995684841115
 30
0.0
 10
156.5717315300059
 20
-26.73100889280433
 30
0.0
 10
156.4804705149346
 20
-26.75377480097674
 30
0.0
  0
SPLINE
  5
99
330
1F
100
AcDbEntity
  8
0
  6
Continuous
 62
     7
370
    15
100
AcDbSpline
210
0.0
220
0.0
230
1.0
 70
     8
 71
     3
 72
     9
 73
     5
 74
     0
 42
0.000000001
 43
0.00000001
 40
0.0
 40
0.0
 40
0.0
 40
0.0
 40
0.5562297315309357
 40
1.0
 40
1.0
 40
1.0
 40
1.0
 10
158.1607701546365
 20
-26.92627064295672
 30
0.0
 10
157.9727573985251
 20
-26.84406236023743
 30
0.0
 10
157.6347446216928
 20
-26.69626680372691
 30
0.0
 10
157.2672546439479
 20
-26.67618518540185
 30
0.0
 10
157.1041735178643
 20
-26.66727356024645
 30
0.0
  0
LINE
  5
9A
330
1F
100
AcDbEntity
  8
0
  6
Continuous
 62
     7
370
    15
100
AcDbLine
 10
161.5013720757
 20
-28.7116681726
 30
0.0
 11
158.1607701546
 21
-26.926270643
 31
0.0
  0
LINE
  5
9B
330
1F
100
AcDbEntity
  8
0
  6
Continuous
 62
     7
370
    15
100
AcDbLine
 10
152.0111801392
 20
-28.5196667106
 30
0.0
 11
156.5307768351
 21
-27.1784727962
 31
0.0
  0
LINE
  5
9C
330
1F
100
AcDbEntity
  8
0
  6
Continuous
 62
     7
370
    15
100
AcDbLine
 10
152.6166739232
 20
-31.054667154
 30
0.0
 11
152.0111801392
 21
-28.5196667106
 31
0.0
  0
LINE
  5
9D
330
1F
100
AcDbEntity
  8
0
  6
Continuous
 62
     7
370
    15
100
AcDbLine
 10
154.2446704871
 20
-30.5953686626
 30
0.0
 11
152.6166739232
 21
-31.054667154
 31
0.0
  0
LINE
  5
9E
330
1F
100
AcDbEntity
  8
0
  6
Continuous
 62
     7
370
    15
100
AcDbLine
 10
154.375279165
 20
-30.5581753642
 30
0.0
 11
154.2446704871
 21
-30.5953686626
 31
0.0
  0
LINE
  5
9F
330
1F
100
AcDbEntity
  8
0
  6
Continuous
 62
     7
370
    15
100
AcDbLine
 10
154.5022817618
 20
-30.6042646558
 30
0.0
 11
154.375279165
 21
-30.5581753642
 31
0.0
  0
SPLINE
  5
A0
330
1F
100
AcDbEntity
  8
0
  6
Continuous
 62
     7
370
    15
100
AcDbSpline
210
0.0
220
0.0
230
1.0
 70
     8
 71
     3
 72
    12
 73
     8
 74
     0
 42
0.000000001
 43
0.00000001
 40
0.0
 40
0.0
 40
0.0
 40
0.0
 40
0.0619296568179618
 40
0.172302626707322
 40
0.4549493810286451
 40
0.7420924614820745
 40
1.0
 40
1.0
 40
1.0
 40
1.0
 10
160.5825813776666
 20
-32.79406479903123
 30
0.0
 10
160.4570008661048
 20
-32.74903707208531
 30
0.0
 10
160.1076068420279
 20
-32.62375952290973
 30
0.0
 10
159.1855804332711
 20
-32.2915376716144
 30
0.0
 10
157.8070466958796
 20
-31.79507139340519
 30
0.0
 10
156.1296187626249
 20
-31.19056998250923
 30
0.0
 10
155.0249770931954
 20
-30.79258401243816
 30
0.0
 10
154.5022817618066
 20
-30.60426465578935
 30
0.0
  0
SPLINE
  5
A1
330
1F
100
AcDbEntity
  8
0
  6
Continuous
 62
     7
370
    15
100
AcDbSpline
210
0.0
220
0.0
230
1.0
 70
     8
 71
     3
 72
     9
 73
     5
 74
     0
 42
0.000000001
 43
0.00000001
 40
0.0
 40
0.0
 40
0.0
 40
0.0
 40
0.4354559599081427
 40
1.0
 40
1.0
 40
1.0
 40
1.0
 10
160.6166752344781
 20
-32.79956332751181
 30
0.0
 10
160.6116460757704
 20
-32.79929299296384
 30
0.0
 10
160.6000968970455
 20
-32.79867218495368
 30
0.0
 10
160.5889016101568
 20
-32.79572731040601
 30
0.0
 10
160.5825813776666
 20
-32.79406479903128
 30
0.0
  0
LWPOLYLINE
  5
A2
330
1F
100
AcDbEntity
  8
0
  6
Continuous
 62
     7
370
    15
100
AcDbPolyline
 90
        3
 70
   128
 43
0.0
 10
162.0501818425
 20
-32.1573679835
 10
161.0758545167
 20
-32.6017653138
 10
160.6738807923
 20
-32.7850644977
  0
SPLINE
  5
A3
330
1F
100
AcDbEntity
  8
0
  6
Continuous
 62
     7
370
    15
100
AcDbSpline
210
0.0
220
0.0
230
1.0
 70
     8
 71
     3
 72
    12
 73
     8
 74
     0
 42
0.000000001
 43
0.00000001
 40
0.0
 40
0.0
 40
0.0
 40
0.0
 40
0.0828925931361016
 40
0.2436758323532469
 40
0.4553093049288047
 40
0.7332457042166448
 40
1.0
 40
1.0
 40
1.0
 40
1.0
 10
166.9759692913705
 20
-29.91666547366044
 30
0.0
 10
166.8395604502333
 20
-29.97790374555008
 30
0.0
 10
166.4385651785585
 20
-30.15792329024062
 30
0.0
 10
165.691163040669
 20
-30.49840671656738
 30
0.0
 10
164.6233369675163
 20
-30.98417256517254
 30
0.0
 10
163.3819769102806
 20
-31.55010987432476
 30
0.0
 10
162.4879959388722
 20
-31.95773805038642
 30
0.0
 10
162.0501818424874
 20
-32.1573679835405
 30
0.0
  0
SPLINE
  5
A4
330
1F
100
AcDbEntity
  8
0
  6
Continuous
 62
     7
370
    15
100
AcDbSpline
210
0.0
220
0.0
230
1.0
 70
     8
 71
     3
 72
    11
 73
     7
 74
     0
 42
0.000000001
 43
0.00000001
 40
0.0
 40
0.0
 40
0.0
 40
0.0
 40
0.2697719816925286
 40
0.5189640012382155
 40
0.7380901046287631
 40
1.0
 40
1.0
 40
1.0
 40
1.0
 10
167.2877760893518
 20
-29.38506654806993
 30
0.0
 10
167.299255587044
 20
-29.44646581344228
 30
0.0
 10
167.3213388516484
 20
-29.56458040870456
 30
0.0
 10
167.250309032817
 20
-29.72642610509084
 30
0.0
 10
167.1278057910513
 20
-29.8416028628417
 30
0.0
 10
167.0294960448783
 20
-29.89020373438565
 30
0.0
 10
166.9759692913705
 20
-29.91666547366044
 30
0.0
  0
LINE
  5
A5
330
1F
100
AcDbEntity
  8
0
  6
Continuous
 62
     7
370
    15
100
AcDbLine
 10
167.2343703276
 20
-29.2007689864
 30
0.0
 11
167.2877760894
 21
-29.3850665481
 31
0.0
  0
SPLINE
  5
A6
330
1F
100
AcDbEntity
  8
0
  6
Continuous
 62
     7
370
    15
100
AcDbSpline
210
0.0
220
0.0
230
1.0
 70
     8
 71
     3
 72
    11
 73
     7
 74
     0
 42
0.000000001
 43
0.00000001
 40
0.0
 40
0.0
 40
0.0
 40
0.0
 40
0.2802974742200007
 40
0.5558159407410551
 40
0.7747838812700065
 40
1.0
 40
1.0
 40
1.0
 40
1.0
 10
166.8240817553216
 20
-28.8866674096193
 30
0.0
 10
166.8759976851765
 20
-28.89229148692611
 30
0.0
 10
166.97894439018
 20
-28.9034437523105
 30
0.0
 10
167.1023508195572
 20
-28.98324581258753
 30
0.0
 10
167.1908711964705
 20
-29.08446938605456
 30
0.0
 10
167.219735277015
 20
-29.16164060632175
 30
0.0
 10
167.234370327633
 20
-29.20076898642442
 30
0.0
  0
SPLINE
  5
A7
330
1F
100
AcDbEntity
  8
0
  6
Continuous
 62
     7
370
    15
100
AcDbSpline
210
0.0
220
0.0
230
1.0
 70
     8
 71
     3
 72
     9
 73
     5
 74
     0
 42
0.000000001
 43
0.00000001
 40
0.0
 40
0.0
 40
0.0
 40
0.0
 40
0.5627116114901078
 40
1.0
 40
1.0
 40
1.0
 40
1.0
 10
166.708269930523
 20
-28.90286497183702
 30
0.0
 10
166.7297120564355
 20
-28.89768539084018
 30
0.0
 10
166.7678170563585
 20
-28.88848070963039
 30
0.0
 10
166.8069634791731
 20
-28.88721909781643
 30
0.0
 10
166.8240817553216
 20
-28.88666740961936
 30
0.0
  0
LINE
  5
A8
330
1F
100
AcDbEntity
  8
0
  6
Continuous
 62
     7
370
    15
100
AcDbLine
 10
166.6852774388
 20
-28.9092724712
 30
0.0
 11
166.7082699305
 21
-28.9028649718
 31
0.0
  0
LINE
  5
A9
330
1F
100
AcDbEntity
  8
0
  6
Continuous
 62
     7
370
    15
100
AcDbLine
 10
166.6614802844
 20
-28.9131616742
 30
0.0
 11
166.6852774388
 21
-28.9092724712
 31
0.0
  0
LINE
  5
AA
330
1F
100
AcDbEntity
  8
0
  6
Continuous
 62
     7
370
    15
100
AcDbLine
 10
166.6452827222
 20
-28.9158736856
 30
0.0
 11
166.6614802844
 21
-28.9131616742
 31
0.0
  0
LINE
  5
AB
330
1F
100
AcDbEntity
  8
0
  6
Continuous
 62
     7
370
    15
100
AcDbLine
 10
162.5483723647
 20
-29.9673741252
 30
0.0
 11
166.6452827222
 21
-28.9158736856
 31
0.0
  0
SPLINE
  5
AC
330
1F
100
AcDbEntity
  8
0
  6
Continuous
 62
     7
370
    15
100
AcDbSpline
210
0.0
220
0.0
230
1.0
 70
     8
 71
     3
 72
     9
 73
     5
 74
     0
 42
0.000000001
 43
0.00000001
 40
0.0
 40
0.0
 40
0.0
 40
0.0
 40
0.5366822935855045
 40
0.9999999999999999
 40
0.9999999999999999
 40
0.9999999999999999
 40
0.9999999999999999
 10
162.546271300953
 20
-29.97457138605973
 30
0.0
 10
162.5466262085238
 20
-29.97327770114376
 30
0.0
 10
162.5472875077227
 20
-29.97086717832335
 30
0.0
 10
162.5480288757482
 20
-29.9684801005856
 30
0.0
 10
162.5483723646813
 20
-29.9673741252031
 30
0.0
  0
SPLINE
  5
AD
330
1F
100
AcDbEntity
  8
0
  6
Continuous
 62
     7
370
    15
100
AcDbSpline
210
0.0
220
0.0
230
1.0
 70
     8
 71
     3
 72
     9
 73
     5
 74
     0
 42
0.000000001
 43
0.00000001
 40
0.0
 40
0.0
 40
0.0
 40
0.0
 40
0.5637771116948397
 40
1.0
 40
1.0
 40
1.0
 40
1.0
 10
162.2613760000878
 20
-30.53716472693345
 30
0.0
 10
162.3260612886574
 20
-30.4369534367354
 30
0.0
 10
162.4407968592007
 20
-30.25920359886634
 30
0.0
 10
162.5142356287755
 20
-30.06102251212538
 30
0.0
 10
162.546271300953
 20
-29.97457138605979
 30
0.0
  0
SPLINE
  5
AE
330
1F
100
AcDbEntity
  8
0
  6
Continuous
 62
     7
370
    15
100
AcDbSpline
210
0.0
220
0.0
230
1.0
 70
     8
 71
     3
 72
    10
 73
     6
 74
     0
 42
0.000000001
 43
0.00000001
 40
0.0
 40
0.0
 40
0.0
 40
0.0
 40
0.2840993133824469
 40
0.5633998508319302
 40
0.9999999999999999
 40
0.9999999999999999
 40
0.9999999999999999
 40
0.9999999999999999
 10
161.0156687266046
 20
-31.16766265936753
 30
0.0
 10
161.1522646756161
 20
-31.15683734152384
 30
0.0
 10
161.4231493052941
 20
-31.13536955835421
 30
0.0
 10
161.8792599557086
 20
-30.94825603928673
 30
0.0
 10
162.1166195567124
 20
-30.69289782726807
 30
0.0
 10
162.2613760000879
 20
-30.5371647269335
 30
0.0
  0
LINE
  5
AF
330
1F
100
AcDbEntity
  8
0
  6
Continuous
 62
     7
370
    15
100
AcDbLine
 10
157.5005742079
 20
-29.6345715911
 30
0.0
 11
157.5106771952
 21
-29.6394740731
 31
0.0
  0
LINE
  5
B0
330
1F
100
AcDbEntity
  8
0
  6
Continuous
 62
     7
370
    15
100
AcDbLine
 10
157.4913801915
 20
-29.6289687545
 30
0.0
 11
157.5005742079
 21
-29.6345715911
 31
0.0
  0
LINE
  5
B1
330
1F
100
AcDbEntity
  8
0
  6
Continuous
 62
     7
370
    15
100
AcDbLine
 10
157.4634703166
 20
-29.6139632852
 30
0.0
 11
157.4913801915
 21
-29.6289687545
 31
0.0
  0
SPLINE
  5
B2
330
1F
100
AcDbEntity
  8
0
  6
Continuous
 62
     7
370
    15
100
AcDbSpline
210
0.0
220
0.0
230
1.0
 70
     8
 71
     3
 72
     9
 73
     5
 74
     0
 42
0.000000001
 43
0.00000001
 40
0.0
 40
0.0
 40
0.0
 40
0.0
 40
0.5477164807397784
 40
1.0
 40
1.0
 40
1.0
 40
1.0
 10
157.1916731363946
 20
-29.26727286883256
 30
0.0
 10
157.2235494451912
 20
-29.3450254880888
 30
0.0
 10
157.2817480021409
 20
-29.48698327462677
 30
0.0
 10
157.4068766784768
 20
-29.57441799991138
 30
0.0
 10
157.4634703165704
 20
-29.61396328516862
 30
0.0
  0
SPLINE
  5
B3
330
1F
100
AcDbEntity
  8
0
  6
Continuous
 62
     7
370
    15
100
AcDbSpline
210
0.0
220
0.0
230
1.0
 70
     8
 71
     3
 72
     9
 73
     5
 74
     0
 42
0.000000001
 43
0.00000001
 40
0.0
 40
0.0
 40
0.0
 40
0.0
 40
0.5584257032627664
 40
0.9999999999999999
 40
0.9999999999999999
 40
0.9999999999999999
 40
0.9999999999999999
 10
157.2442742354089
 20
-28.82627300330064
 30
0.0
 10
157.210672376733
 20
-28.9060864423512
 30
0.0
 10
157.1504998981392
 20
-29.04901223997168
 30
0.0
 10
157.1790611997305
 20
-29.20041659655247
 30
0.0
 10
157.1916731363946
 20
-29.26727286883256
 30
0.0
  0
SPLINE
  5
B4
330
1F
100
AcDbEntity
  8
0
  6
Continuous
 62
     7
370
    15
100
AcDbSpline
210
0.0
220
0.0
230
1.0
 70
     8
 71
     3
 72
     9
 73
     5
 74
     0
 42
0.000000001
 43
0.00000001
 40
0.0
 40
0.0
 40
0.0
 40
0.0
 40
0.5590251804161874
 40
0.9999999999999999
 40
0.9999999999999999
 40
0.9999999999999999
 40
0.9999999999999999
 10
157.5930806166345
 20
-28.55216614313981
 30
0.0
 10
157.5129210648543
 20
-28.58486006643106
 30
0.0
 10
157.3695293991684
 20
-28.64334387795962
 30
0.0
 10
157.2826054903969
 20
-28.77029205419067
 30
0.0
 10
157.2442742354089
 20
-28.82627300330064
 30
0.0
  0
SPLINE
  5
B5
330
1F
100
AcDbEntity
  8
0
  6
Continuous
 62
     7
370
    15
100
AcDbSpline
210
0.0
220
0.0
230
1.0
 70
     8
 71
     3
 72
     9
 73
     5
 74
     0
 42
0.000000001
 43
0.00000001
 40
0.0
 40
0.0
 40
0.0
 40
0.0
 40
0.5483939169247912
 40
1.0
 40
1.0
 40
1.0
 40
1.0
 10
157.7490808731729
 20
-28.53047005244157
 30
0.0
 10
157.7201662851984
 20
-28.53170223539291
 30
0.0
 10
157.667440339337
 20
-28.53394912930139
 30
0.0
 10
157.6162145119107
 20
-28.54649868668528
 30
0.0
 10
157.5930806166345
 20
-28.55216614313981
 30
0.0
  0
SPLINE
  5
B6
330
1F
100
AcDbEntity
  8
0
  6
Continuous
 62
     7
370
    15
100
AcDbSpline
210
0.0
220
0.0
230
1.0
 70
     8
 71
     3
 72
     9
 73
     5
 74
     0
 42
0.000000001
 43
0.00000001
 40
0.0
 40
0.0
 40
0.0
 40
0.0
 40
0.5594757883588266
 40
1.0
 40
1.0
 40
1.0
 40
1.0
 10
157.9752805000955
 20
-28.57696167536637
 30
0.0
 10
157.9342967519148
 20
-28.56206699467927
 30
0.0
 10
157.8610429149598
 20
-28.53544442941912
 30
0.0
 10
157.7833197910566
 20
-28.53199125804072
 30
0.0
 10
157.7490808731729
 20
-28.53047005244157
 30
0.0
  0
LINE
  5
B7
330
1F
100
AcDbEntity
  8
0
  6
Continuous
 62
     7
370
    15
100
AcDbLine
 10
157.9836698538
 20
-28.5802697332
 30
0.0
 11
157.9752805001
 21
-28.5769616754
 31
0.0
  0
LINE
  5
B8
330
1F
100
AcDbEntity
  8
0
  6
Continuous
 62
     7
370
    15
100
AcDbLine
 10
158.0050828225
 20
-28.5899703891
 30
0.0
 11
157.9836698538
 21
-28.5802697332
 31
0.0
  0
LINE
  5
B9
330
1F
100
AcDbEntity
  8
0
  6
Continuous
 62
     7
370
    15
100
AcDbLine
 10
160.8464809424
 20
-29.9532627256
 30
0.0
 11
158.0050828225
 21
-28.5899703891
 31
0.0
  0
SPLINE
  5
BA
330
1F
100
AcDbEntity
  8
0
  6
Continuous
 62
     7
370
    15
100
AcDbSpline
210
0.0
220
0.0
230
1.0
 70
     8
 71
     3
 72
     9
 73
     5
 74
     0
 42
0.000000001
 43
0.00000001
 40
0.0
 40
0.0
 40
0.0
 40
0.0
 40
0.5598419359567481
 40
1.0
 40
1.0
 40
1.0
 40
1.0
 10
161.0386761194879
 20
-29.99637178488633
 30
0.0
 10
161.0014596272152
 20
-29.99399582974092
 30
0.0
 10
160.9349828417472
 20
-29.98975185480289
 30
0.0
 10
160.873529934912
 20
-29.96441496285927
 30
0.0
 10
160.8464809424096
 20
-29.95326272555253
 30
0.0
  0
SPLINE
  5
BB
330
1F
100
AcDbEntity
  8
0
  6
Continuous
 62
     7
370
    15
100
AcDbSpline
210
0.0
220
0.0
230
1.0
 70
     8
 71
     3
 72
    10
 73
     6
 74
     0
 42
0.000000001
 43
0.00000001
 40
0.0
 40
0.0
 40
0.0
 40
0.0
 40
0.2810617402651923
 40
0.5593980306294192
 40
0.9999999999999999
 40
0.9999999999999999
 40
0.9999999999999999
 40
0.9999999999999999
 10
161.4314707285577
 20
-29.76856283255479
 30
0.0
 10
161.4060601836943
 20
-29.8050678367046
 30
0.0
 10
161.3554854994971
 20
-29.87772385673147
 30
0.0
 10
161.2225323815286
 20
-29.97115656049425
 30
0.0
 10
161.1085378018192
 20
-29.98679050668106
 30
0.0
 10
161.0386761194879
 20
-29.99637178488639
 30
0.0
  0
LINE
  5
BC
330
1F
100
AcDbEntity
  8
0
  6
Continuous
 62
     7
370
    15
100
AcDbLine
 10
161.4335717923
 20
-29.7599648625
 30
0.0
 11
161.4314707286
 21
-29.7685628326
 31
0.0
  0
LINE
  5
BD
330
1F
100
AcDbEntity
  8
0
  6
Continuous
 62
     7
370
    15
100
AcDbLine
 10
161.464879132
 20
-29.6952640206
 30
0.0
 11
161.4335717923
 21
-29.7599648625
 31
0.0
  0
SPLINE
  5
BE
330
1F
100
AcDbEntity
  8
0
  6
Continuous
 62
     7
370
    15
100
AcDbSpline
210
0.0
220
0.0
230
1.0
 70
     8
 71
     3
 72
    11
 73
     7
 74
     0
 42
0.000000001
 43
0.00000001
 40
0.0
 40
0.0
 40
0.0
 40
0.0
 40
0.2837467192200598
 40
0.5582138532641556
 40
0.7753279601046039
 40
0.9999999999999999
 40
0.9999999999999999
 40
0.9999999999999999
 40
0.9999999999999999
 10
161.2932773596459
 20
-29.07996527262589
 30
0.0
 10
161.3475995532714
 20
-29.12064807529462
 30
0.0
 10
161.45446740043
 20
-29.20068319993578
 30
0.0
 10
161.523239077475
 20
-29.3779694976367
 30
0.0
 10
161.5284856777461
 20
-29.5501184567306
 30
0.0
 10
161.4863217560834
 20
-29.64633349419675
 30
0.0
 10
161.4648791319543
 20
-29.69526402064225
 30
0.0
  0
LINE
  5
BF
330
1F
100
AcDbEntity
  8
0
  6
Continuous
 62
     7
370
    15
100
AcDbLine
 10
157.9611691004
 20
-27.2991722018
 30
0.0
 11
161.2932773596
 21
-29.0799652726
 31
0.0
  0
SPLINE
  5
C0
330
1F
100
AcDbEntity
  8
0
  6
Continuous
 62
     7
370
    15
100
AcDbSpline
210
0.0
220
0.0
230
1.0
 70
     8
 71
     3
 72
     9
 73
     5
 74
     0
 42
0.000000001
 43
0.00000001
 40
0.0
 40
0.0
 40
0.0
 40
0.0
 40
0.5610996630327557
 40
1.0
 40
1.0
 40
1.0
 40
1.0
 10
157.1041735178643
 20
-27.08997479983233
 30
0.0
 10
157.2716091748531
 20
-27.10157113434514
 30
0.0
 10
157.5700154438638
 20
-27.12223829078247
 30
0.0
 10
157.8418575211306
 20
-27.24520296491911
 30
0.0
 10
157.9611691004449
 20
-27.29917220183278
 30
0.0
  0
SPLINE
  5
C1
330
1F
100
AcDbEntity
  8
0
  6
Continuous
 62
     7
370
    15
100
AcDbSpline
210
0.0
220
0.0
230
1.0
 70
     8
 71
     3
 72
     9
 73
     5
 74
     0
 42
0.000000001
 43
0.00000001
 40
0.0
 40
0.0
 40
0.0
 40
0.0
 40
0.5613573814472627
 40
1.0
 40
1.0
 40
1.0
 40
1.0
 10
156.5949710375482
 20
-27.16026357718371
 30
0.0
 10
156.6890413081365
 20
-27.13775968562113
 30
0.0
 10
156.8566177464223
 20
-27.09767133494406
 30
0.0
 10
157.0286936798401
 20
-27.09232147597809
 30
0.0
 10
157.1041735178643
 20
-27.08997479983233
 30
0.0
  0
LINE
  5
C2
330
1F
100
AcDbEntity
  8
0
  6
Continuous
 62
     7
370
    15
100
AcDbLine
 10
156.5307768351
 20
-27.1784727962
 30
0.0
 11
156.5949710375
 21
-27.1602635772
 31
0.0
  0
SPLINE
  5
C3
330
1F
100
AcDbEntity
  8
0
  6
Continuous
 62
     7
370
    15
100
AcDbSpline
210
0.0
220
0.0
230
1.0
 70
     8
 71
     3
 72
     9
 73
     5
 74
     0
 42
0.000000001
 43
0.00000001
 40
0.0
 40
0.0
 40
0.0
 40
0.0
 40
0.5599114379179665
 40
1.0
 40
1.0
 40
1.0
 40
1.0
 10
160.3710742956811
 20
-31.02987162180802
 30
0.0
 10
160.4876847327627
 20
-31.0740159906696
 30
0.0
 10
160.6959505926552
 20
-31.15285768932412
 30
0.0
 10
160.9179634204546
 20
-31.16313828624938
 30
0.0
 10
161.0156687266046
 20
-31.16766265936753
 30
0.0
  0
LINE
  5
C4
330
1F
100
AcDbEntity
  8
0
  6
Continuous
 62
     7
370
    15
100
AcDbLine
 10
157.5106771952
 20
-29.6394740731
 30
0.0
 11
160.3710742957
 21
-31.0298716218
 31
0.0
  0
SPLINE
  5
C5
330
1F
100
AcDbEntity
  8
0
  6
Continuous
 62
     7
370
    15
100
AcDbSpline
210
0.0
220
0.0
230
1.0
 70
     8
 71
     3
 72
     9
 73
     5
 74
     0
 42
0.000000001
 43
0.00000001
 40
0.0
 40
0.0
 40
0.0
 40
0.0
 40
0.6289343060137536
 40
0.9999999999999999
 40
0.9999999999999999
 40
0.9999999999999999
 40
0.9999999999999999
 10
160.6738807923013
 20
-32.78506449767014
 30
0.0
 10
160.6622226935045
 20
-32.78956359305223
 30
0.0
 10
160.6436864192303
 20
-32.79671711503234
 30
0.0
 10
160.6239855508688
 20
-32.79879302758119
 30
0.0
 10
160.6166752344781
 20
-32.79956332751176
 30
0.0
  0
SPLINE
  5
C6
330
1F
100
AcDbEntity
  8
0
  6
Continuous
 62
     7
370
    15
100
AcDbSpline
210
0.0
220
0.0
230
1.0
 70
     8
 71
     3
 72
    11
 73
     7
 74
     0
 42
0.000000001
 43
0.00000001
 40
0.0
 40
0.0
 40
0.0
 40
0.0
 40
0.2835509622341978
 40
0.5579925474139716
 40
0.7752113652181426
 40
0.9999999999999999
 40
0.9999999999999999
 40
0.9999999999999999
 40
0.9999999999999999
 10
159.6462818152123
 20
-25.33436469145678
 30
0.0
 10
159.4671127844948
 20
-25.31105904956291
 30
0.0
 10
159.1145307192462
 20
-25.26519648437533
 30
0.0
 10
158.7231801349913
 20
-24.94366043848942
 30
0.0
 10
158.4855382590262
 20
-24.55112706170856
 30
0.0
 10
158.4570625878231
 20
-24.27260687531774
 30
0.0
 10
158.4425809151345
 20
-24.13096181460283
 30
0.0
  0
SPLINE
  5
C7
330
1F
100
AcDbEntity
  8
0
  6
Continuous
 62
     7
370
    15
100
AcDbSpline
210
0.0
220
0.0
230
1.0
 70
     8
 71
     3
 72
    11
 73
     7
 74
     0
 42
0.000000001
 43
0.00000001
 40
0.0
 40
0.0
 40
0.0
 40
0.0
 40
0.2821911821030403
 40
0.5582672312862593
 40
0.7764816756282978
 40
1.0
 40
1.0
 40
1.0
 40
1.0
 10
159.4444753891641
 20
-20.29486648150347
 30
0.0
 10
159.454482218092
 20
-20.27149088988869
 30
0.0
 10
159.4742790261918
 20
-20.22524625987151
 30
0.0
 10
159.5280435845049
 20
-20.17861930496573
 30
0.0
 10
159.5867610501523
 20
-20.15094200335568
 30
0.0
 10
159.6262833788177
 20
-20.14770262339843
 30
0.0
 10
159.6462818152123
 20
-20.14606348582171
 30
0.0
  0
SPLINE
  5
C8
330
1F
100
AcDbEntity
  8
0
  6
Continuous
 62
     7
370
    15
100
AcDbSpline
210
0.0
220
0.0
230
1.0
 70
     8
 71
     3
 72
    11
 73
     7
 74
     0
 42
0.000000001
 43
0.00000001
 40
0.0
 40
0.0
 40
0.0
 40
0.0
 40
0.2829315814282739
 40
0.5588661118475298
 40
0.7768029448878221
 40
1.0
 40
1.0
 40
1.0
 40
1.0
 10
159.6462818152123
 20
-20.14606348582171
 30
0.0
 10
159.6716792330185
 20
-20.14870211870207
 30
0.0
 10
159.7218459767545
 20
-20.15391412964473
 30
0.0
 10
159.7823491126386
 20
-20.19168722695255
 30
0.0
 10
159.8259688005385
 20
-20.23979213644678
 30
0.0
 10
159.8406468184469
 20
-20.27663016456238
 30
0.0
 10
159.8480733400994
 20
-20.2952688128557
 30
0.0
  0
SPLINE
  5
C9
330
1F
100
AcDbEntity
  8
0
  6
Continuous
 62
     7
370
    15
100
AcDbSpline
210
0.0
220
0.0
230
1.0
 70
     8
 71
     3
 72
    12
 73
     8
 74
     0
 42
0.000000001
 43
0.00000001
 40
0.0
 40
0.0
 40
0.0
 40
0.0
 40
0.1123822758563553
 40
0.3166199280180801
 40
0.5610077428743502
 40
0.8576086971175014
 40
1.0
 40
1.0
 40
1.0
 40
1.0
 10
159.8480733400995
 20
-20.29526881285573
 30
0.0
 10
159.8914050274178
 20
-20.4374457887648
 30
0.0
 10
160.0134854499319
 20
-20.83800774157407
 30
0.0
 10
160.2248032865555
 20
-21.54942472106658
 30
0.0
 10
160.4885533321768
 20
-22.49849263472453
 30
0.0
 10
160.7393836588896
 20
-23.36930974605239
 30
0.0
 10
160.8220623965202
 20
-23.94441950786383
 30
0.0
 10
160.8488800293618
 20
-24.13096181460283
 30
0.0
  0
SPLINE
  5
CA
330
1F
100
AcDbEntity
  8
0
  6
Continuous
 62
     7
370
    15
100
AcDbSpline
210
0.0
220
0.0
230
1.0
 70
     8
 71
     3
 72
    11
 73
     7
 74
     0
 42
0.000000001
 43
0.00000001
 40
0.0
 40
0.0
 40
0.0
 40
0.0
 40
0.2836353453809537
 40
0.5580737479018926
 40
0.7752578280141725
 40
0.9999999999999999
 40
0.9999999999999999
 40
0.9999999999999999
 40
0.9999999999999999
 10
160.8488800293618
 20
-24.13096181460283
 30
0.0
 10
160.8255956866229
 20
-24.31010637026593
 30
0.0
 10
160.7797820014411
 20
-24.66258667719256
 30
0.0
 10
160.4584768027226
 20
-25.0538666789934
 30
0.0
 10
160.0661867033066
 20
-25.29144252343912
 30
0.0
 10
159.7878369469218
 20
-25.3198950977005
 30
0.0
 10
159.6462818152123
 20
-25.33436469145678
 30
0.0
  0
SPLINE
  5
CB
330
1F
100
AcDbEntity
  8
0
  6
Continuous
 62
     7
370
    15
100
AcDbSpline
210
0.0
220
0.0
230
1.0
 70
     8
 71
     3
 72
    11
 73
     7
 74
     0
 42
0.000000001
 43
0.00000001
 40
0.0
 40
0.0
 40
0.0
 40
0.0
 40
0.3525285944800874
 40
0.6815321290725153
 40
0.9015832111948396
 40
1.0
 40
1.0
 40
1.0
 40
1.0
 10
159.6462818152123
 20
-21.08726553030871
 30
0.0
 10
159.5415472121491
 20
-21.44176920102345
 30
0.0
 10
159.3390671917168
 20
-22.12711968109596
 30
0.0
 10
159.0963978052853
 20
-23.03986800462998
 30
0.0
 10
158.920221002109
 20
-23.69711178662273
 30
0.0
 10
158.8781722576005
 20
-24.02853989626161
 30
0.0
 10
158.865177846592
 20
-24.13096181460283
 30
0.0
  0
SPLINE
  5
CC
330
1F
100
AcDbEntity
  8
0
  6
Continuous
 62
     7
370
    15
100
AcDbSpline
210
0.0
220
0.0
230
1.0
 70
     8
 71
     3
 72
    11
 73
     7
 74
     0
 42
0.000000001
 43
0.00000001
 40
0.0
 40
0.0
 40
0.0
 40
0.0
 40
0.2834689282121243
 40
0.5578506541220053
 40
0.7751023142651375
 40
1.0
 40
1.0
 40
1.0
 40
1.0
 10
159.6462818152123
 20
-24.9116634518709
 30
0.0
 10
159.7624157504306
 20
-24.89654053961699
 30
0.0
 10
159.990960699381
 20
-24.86677951238092
 30
0.0
 10
160.2445366083613
 20
-24.65813648547621
 30
0.0
 10
160.3983856628713
 20
-24.40347884047342
 30
0.0
 10
160.4168082212494
 20
-24.22284206522543
 30
0.0
 10
160.4261787897759
 20
-24.13096181460283
 30
0.0
  0
SPLINE
  5
CD
330
1F
100
AcDbEntity
  8
0
  6
Continuous
 62
     7
370
    15
100
AcDbSpline
210
0.0
220
0.0
230
1.0
 70
     8
 71
     3
 72
    11
 73
     7
 74
     0
 42
0.000000001
 43
0.00000001
 40
0.0
 40
0.0
 40
0.0
 40
0.0
 40
0.2834728603596476
 40
0.5578901102624645
 40
0.7751474254990799
 40
1.0
 40
1.0
 40
1.0
 40
1.0
 10
158.865177846592
 20
-24.13096181460283
 30
0.0
 10
158.880313972127
 20
-24.24717995645692
 30
0.0
 10
158.9101026959328
 20
-24.4759036229526
 30
0.0
 10
159.1188278653528
 20
-24.72972116151609
 30
0.0
 10
159.373597680075
 20
-24.88381839763645
 30
0.0
 10
159.5543520094155
 20
-24.90227606882098
 30
0.0
 10
159.6462818152123
 20
-24.9116634518709
 30
0.0
  0
SPLINE
  5
CE
330
1F
100
AcDbEntity
  8
0
  6
Continuous
 62
     7
370
    15
100
AcDbSpline
210
0.0
220
0.0
230
1.0
 70
     8
 71
     3
 72
    10
 73
     6
 74
     0
 42
0.000000001
 43
0.00000001
 40
0.0
 40
0.0
 40
0.0
 40
0.0
 40
0.1944332621469419
 40
0.4524852839531761
 40
1.0
 40
1.0
 40
1.0
 40
1.0
 10
160.4261787897759
 20
-24.13096181460283
 30
0.0
 10
160.3932707245382
 20
-23.92972432754509
 30
0.0
 10
160.3166870418954
 20
-23.4614042445104
 30
0.0
 10
160.0383309432373
 20
-22.44967671544232
 30
0.0
 10
159.8049216859964
 20
-21.63855545525559
 30
0.0
 10
159.6462818152124
 20
-21.08726553030873
 30
0.0
  0
SPLINE
  5
CF
330
1F
100
AcDbEntity
  8
0
  6
Continuous
 62
     7
370
    15
100
AcDbSpline
210
0.0
220
0.0
230
1.0
 70
     8
 71
     3
 72
    12
 73
     8
 74
     0
 42
0.000000001
 43
0.00000001
 40
0.0
 40
0.0
 40
0.0
 40
0.0
 40
0.1248011412883541
 40
0.2769712535321002
 40
0.598068932394336
 40
0.8563960057962478
 40
1.0
 40
1.0
 40
1.0
 40
1.0
 10
158.4425809151345
 20
-24.13096181460283
 30
0.0
 10
158.464296276963
 20
-23.96715781371175
 30
0.0
 10
158.5124891935055
 20
-23.60362748865202
 30
0.0
 10
158.7110249406531
 20
-22.83657407926695
 30
0.0
 10
158.9642063743162
 20
-21.90299346662713
 30
0.0
 10
159.2344955399706
 20
-20.9853032455625
 30
0.0
 10
159.3892013157682
 20
-20.47661369447842
 30
0.0
 10
159.4444753891641
 20
-20.29486648150347
 30
0.0
  0
LINE
  5
D0
330
1F
100
AcDbEntity
  8
0
  6
Continuous
 62
     7
370
    15
100
AcDbLine
 10
161.2185778386
 20
-17.1244656236
 30
0.0
 11
162.7326699263
 21
-17.1244656236
 31
0.0
  0
LINE
  5
D1
330
1F
100
AcDbEntity
  8
0
  6
Continuous
 62
     7
370
    15
100
AcDbLine
 10
161.2185778386
 20
-18.0548643262
 30
0.0
 11
161.2185778386
 21
-17.1244656236
 31
0.0
  0
SPLINE
  5
D2
330
1F
100
AcDbEntity
  8
0
  6
Continuous
 62
     7
370
    15
100
AcDbSpline
210
0.0
220
0.0
230
1.0
 70
     8
 71
     3
 72
    11
 73
     7
 74
     0
 42
0.000000001
 43
0.00000001
 40
0.0
 40
0.0
 40
0.0
 40
0.0
 40
0.283545113054098
 40
0.5574140896850176
 40
0.7744891400404916
 40
1.0
 40
1.0
 40
1.0
 40
1.0
 10
161.0073687798196
 20
-18.26646081515215
 30
0.0
 10
161.0388639202039
 20
-18.26240329423554
 30
0.0
 10
161.100779411597
 20
-18.25442671758507
 30
0.0
 10
161.1695389093996
 20
-18.19796649240959
 30
0.0
 10
161.2111038113857
 20
-18.12885563165242
 30
0.0
 10
161.2160550389282
 20
-18.07983951492159
 30
0.0
 10
161.2185778385812
 20
-18.05486432619951
 30
0.0
  0
LINE
  5
D3
330
1F
100
AcDbEntity
  8
0
  6
Continuous
 62
     7
370
    15
100
AcDbLine
 10
158.2834812171
 20
-18.2664608152
 30
0.0
 11
161.0073687798
 21
-18.2664608152
 31
0.0
  0
LINE
  5
D4
330
1F
100
AcDbEntity
  8
0
  6
Continuous
 62
     7
370
    15
100
AcDbLine
 10
156.5579714543
 20
-17.1244656236
 30
0.0
 11
158.0722721583
 21
-17.1244656236
 31
0.0
  0
SPLINE
  5
D5
330
1F
100
AcDbEntity
  8
0
  6
Continuous
 62
     7
370
    15
100
AcDbSpline
210
0.0
220
0.0
230
1.0
 70
     8
 71
     3
 72
    11
 73
     7
 74
     0
 42
0.000000001
 43
0.00000001
 40
0.0
 40
0.0
 40
0.0
 40
0.0
 40
0.2838399715481223
 40
0.5579191218704831
 40
0.7749572389604414
 40
1.0
 40
1.0
 40
1.0
 40
1.0
 10
156.3467772967034
 20
-16.91316715784929
 30
0.0
 10
156.3508405050588
 20
-16.94466377175258
 30
0.0
 10
156.358827194267
 20
-17.00657387932117
 30
0.0
 10
156.4151807515727
 20
-17.07536604022145
 30
0.0
 10
156.4841539212652
 20
-17.11697643180127
 30
0.0
 10
156.5330703707973
 20
-17.12193927269429
 30
0.0
 10
156.5579714543038
 20
-17.12446562357805
 30
0.0
  0
LINE
  5
D6
330
1F
100
AcDbEntity
  8
0
  6
Continuous
 62
     7
370
    15
100
AcDbLine
 10
156.3467772967
 20
-3.4332638175
 30
0.0
 11
156.3467772967
 21
-16.9131671578
 31
0.0
  0
SPLINE
  5
D7
330
1F
100
AcDbEntity
  8
0
  6
Continuous
 62
     7
370
    15
100
AcDbSpline
210
0.0
220
0.0
230
1.0
 70
     8
 71
     3
 72
    11
 73
     7
 74
     0
 42
0.000000001
 43
0.00000001
 40
0.0
 40
0.0
 40
0.0
 40
0.0
 40
0.2837384258080854
 40
0.557753292182638
 40
0.7747977282514944
 40
1.0
 40
1.0
 40
1.0
 40
1.0
 10
156.5579714543038
 20
-3.221965351780876
 30
0.0
 10
156.5264820371566
 20
-3.226025638446345
 30
0.0
 10
156.4645823278282
 20
-3.234007067991568
 30
0.0
 10
156.3958444860928
 20
-3.290411001512117
 30
0.0
 10
156.3542419823744
 20
-3.359401829645087
 30
0.0
 10
156.3492959374122
 20
-3.408342231033062
 30
0.0
 10
156.3467772967034
 20
-3.433263817509635
 30
0.0
  0
LINE
  5
D8
330
1F
100
AcDbEntity
  8
0
  6
Continuous
 62
     7
370
    15
100
AcDbLine
 10
162.7326699263
 20
-3.2219653518
 30
0.0
 11
156.5579714543
 21
-3.2219653518
 31
0.0
  0
LINE
  5
D9
330
1F
100
AcDbEntity
  8
0
  6
Continuous
 62
     7
370
    15
100
AcDbLine
 10
160.7961746222
 20
-17.8437744767
 30
0.0
 11
158.4947796828
 21
-17.8437744767
 31
0.0
  0
LINE
  5
DA
330
1F
100
AcDbEntity
  8
0
  6
Continuous
 62
     7
370
    15
100
AcDbLine
 10
160.7961746222
 20
-17.1244656236
 30
0.0
 11
160.7961746222
 21
-17.8437744767
 31
0.0
  0
LINE
  5
DB
330
1F
100
AcDbEntity
  8
0
  6
Continuous
 62
     7
370
    15
100
AcDbLine
 10
158.4947796828
 20
-17.1244656236
 30
0.0
 11
160.7961746222
 21
-17.1244656236
 31
0.0
  0
LINE
  5
DC
330
1F
100
AcDbEntity
  8
0
  6
Continuous
 62
     7
370
    15
100
AcDbLine
 10
156.76926992
 20
-3.6446665914
 30
0.0
 11
162.5214757687
 21
-3.6446665914
 31
0.0
  0
SPLINE
  5
DD
330
1F
100
AcDbEntity
  8
0
  6
Continuous
 62
     7
370
    15
100
AcDbSpline
210
0.0
220
0.0
230
1.0
 70
     8
 71
     3
 72
    11
 73
     7
 74
     0
 42
0.000000001
 43
0.00000001
 40
0.0
 40
0.0
 40
0.0
 40
0.0
 40
0.2838025965685053
 40
0.5579698477743781
 40
0.7750393000846066
 40
1.0
 40
1.0
 40
1.0
 40
1.0
 10
162.7326699263268
 20
-17.12446562357805
 30
0.0
 10
162.7641820611329
 20
-17.12039760323686
 30
0.0
 10
162.8261364663192
 20
-17.11239967538855
 30
0.0
 10
162.894973545493
 20
-17.0560070113211
 30
0.0
 10
162.9366608371459
 20
-16.98701630157603
 30
0.0
 10
162.9416419763537
 20
-16.93807477840756
 30
0.0
 10
162.9441770083124
 20
-16.91316715784932
 30
0.0
  0
LINE
  5
DE
330
1F
100
AcDbEntity
  8
0
  6
Continuous
 62
     7
370
    15
100
AcDbLine
 10
156.76926992
 20
-16.7015706689
 30
0.0
 11
156.76926992
 21
-3.6446665914
 31
0.0
  0
LINE
  5
DF
330
1F
100
AcDbEntity
  8
0
  6
Continuous
 62
     7
370
    15
100
AcDbLine
 10
158.4947796828
 20
-17.8437744767
 30
0.0
 11
158.4947796828
 21
-17.1244656236
 31
0.0
  0
LINE
  5
E0
330
1F
100
AcDbEntity
  8
0
  6
Continuous
 62
     7
370
    15
100
AcDbLine
 10
162.5214757687
 20
-16.7015706689
 30
0.0
 11
156.76926992
 21
-16.7015706689
 31
0.0
  0
LINE
  5
E1
330
1F
100
AcDbEntity
  8
0
  6
Continuous
 62
     7
370
    15
100
AcDbLine
 10
162.5214757687
 20
-3.6446665914
 30
0.0
 11
162.5214757687
 21
-16.7015706689
 31
0.0
  0
SPLINE
  5
E2
330
1F
100
AcDbEntity
  8
0
  6
Continuous
 62
     7
370
    15
100
AcDbSpline
210
0.0
220
0.0
230
1.0
 70
     8
 71
     3
 72
    11
 73
     7
 74
     0
 42
0.000000001
 43
0.00000001
 40
0.0
 40
0.0
 40
0.0
 40
0.0
 40
0.2842906686174642
 40
0.5582947444449907
 40
0.775122078511221
 40
1.0
 40
1.0
 40
1.0
 40
1.0
 10
158.0722721583062
 20
-18.05486432619951
 30
0.0
 10
158.0763233675249
 20
-18.08644391741743
 30
0.0
 10
158.084279199584
 20
-18.1484604440042
 30
0.0
 10
158.14067414056
 20
-18.21734378796538
 30
0.0
 10
158.2096507599974
 20
-18.2589982613093
 30
0.0
 10
158.2585738382135
 20
-18.26394325447109
 30
0.0
 10
158.2834812170678
 20
-18.26646081515215
 30
0.0
  0
LINE
  5
E3
330
1F
100
AcDbEntity
  8
0
  6
Continuous
 62
     7
370
    15
100
AcDbLine
 10
158.0722721583
 20
-17.1244656236
 30
0.0
 11
158.0722721583
 21
-18.0548643262
 31
0.0
  0
SPLINE
  5
E4
330
1F
100
AcDbEntity
  8
0
  6
Continuous
 62
     7
370
    15
100
AcDbSpline
210
0.0
220
0.0
230
1.0
 70
     8
 71
     3
 72
    11
 73
     7
 74
     0
 42
0.000000001
 43
0.00000001
 40
0.0
 40
0.0
 40
0.0
 40
0.0
 40
0.2837805549208023
 40
0.5578653731303478
 40
0.7749723872332518
 40
1.0
 40
1.0
 40
1.0
 40
1.0
 10
162.9441770083123
 20
-3.433263817509635
 30
0.0
 10
162.9400990829561
 20
-3.401752197956298
 30
0.0
 10
162.9320825599387
 20
-3.33980559486724
 30
0.0
 10
162.8755878326443
 20
-3.271040330679209
 30
0.0
 10
162.8065366642136
 20
-3.229464445710678
 30
0.0
 10
162.7575844893852
 20
-3.224494726353805
 30
0.0
 10
162.7326699263268
 20
-3.221965351780876
 30
0.0
  0
LINE
  5
E5
330
1F
100
AcDbEntity
  8
0
  6
Continuous
 62
     7
370
    15
100
AcDbLine
 10
162.9441770083
 20
-16.9131671578
 30
0.0
 11
162.9441770083
 21
-3.4332638175
 31
0.0
  0
SPLINE
  5
E6
330
1F
100
AcDbEntity
  8
0
  6
Continuous
 62
     7
370
    15
100
AcDbSpline
210
0.0
220
0.0
230
1.0
 70
     8
 71
     3
 72
    11
 73
     7
 74
     0
 42
0.000000001
 43
0.00000001
 40
0.0
 40
0.0
 40
0.0
 40
0.0
 40
0.2836115053024162
 40
0.557812757391875
 40
0.774968268257598
 40
1.0
 40
1.0
 40
1.0
 40
1.0
 10
159.6454771525079
 20
-14.92946497507952
 30
0.0
 10
159.6140048221861
 20
-14.92537822912846
 30
0.0
 10
159.5521044160667
 20
-14.91734033579517
 30
0.0
 10
159.4834217763073
 20
-14.86082749385625
 30
0.0
 10
159.4418810507636
 20
-14.79179805156922
 30
0.0
 10
159.4369048302489
 20
-14.74287170471542
 30
0.0
 10
159.4343724018746
 20
-14.71797279425524
 30
0.0
  0
LINE
  5
E7
330
1F
100
AcDbEntity
  8
0
  6
Continuous
 62
     7
370
    15
100
AcDbLine
 10
159.4343724019
 20
-14.7179727943
 30
0.0
 11
159.4343724019
 21
-8.543065706
 31
0.0
  0
SPLINE
  5
E8
330
1F
100
AcDbEntity
  8
0
  6
Continuous
 62
     7
370
    15
100
AcDbSpline
210
0.0
220
0.0
230
1.0
 70
     8
 71
     3
 72
    11
 73
     7
 74
     0
 42
0.000000001
 43
0.00000001
 40
0.0
 40
0.0
 40
0.0
 40
0.0
 40
0.2844472799209076
 40
0.558489622653564
 40
0.775245794855652
 40
1.0
 40
1.0
 40
1.0
 40
1.0
 10
159.4343724018746
 20
-8.543065705975517
 30
0.0
 10
159.4384230846319
 20
-8.51147697434329
 30
0.0
 10
159.4463762782263
 20
-8.44945501085581
 30
0.0
 10
159.5027470381564
 20
-8.380557479181427
 30
0.0
 10
159.5717045164091
 20
-8.338943303867087
 30
0.0
 10
159.620591077781
 20
-8.333990486338399
 30
0.0
 10
159.6454771525079
 20
-8.33146921702288
 30
0.0
  0
SPLINE
  5
E9
330
1F
100
AcDbEntity
  8
0
  6
Continuous
 62
     7
370
    15
100
AcDbSpline
210
0.0
220
0.0
230
1.0
 70
     8
 71
     3
 72
    11
 73
     7
 74
     0
 42
0.000000001
 43
0.00000001
 40
0.0
 40
0.0
 40
0.0
 40
0.0
 40
0.2836192780921779
 40
0.5574150203580274
 40
0.774481268222343
 40
1.0
 40
1.0
 40
1.0
 40
1.0
 10
159.6454771525079
 20
-8.33146921702288
 30
0.0
 10
159.6769908530108
 20
-8.335520844457461
 30
0.0
 10
159.7389267345401
 20
-8.343483765751557
 30
0.0
 10
159.8077437820764
 20
-8.399915688739407
 30
0.0
 10
159.8493236998887
 20
-8.469046281285781
 30
0.0
 10
159.8542602195846
 20
-8.518080413276785
 30
0.0
 10
159.8567756182366
 20
-8.543065705975517
 30
0.0
  0
LINE
  5
EA
330
1F
100
AcDbEntity
  8
0
  6
Continuous
 62
     7
370
    15
100
AcDbLine
 10
159.8567756182
 20
-8.543065706
 30
0.0
 11
159.8567756182
 21
-14.7179727943
 31
0.0
  0
SPLINE
  5
EB
330
1F
100
AcDbEntity
  8
0
  6
Continuous
 62
     7
370
    15
100
AcDbSpline
210
0.0
220
0.0
230
1.0
 70
     8
 71
     3
 72
    11
 73
     7
 74
     0
 42
0.000000001
 43
0.00000001
 40
0.0
 40
0.0
 40
0.0
 40
0.0
 40
0.2836274124157318
 40
0.5578131766839032
 40
0.7748971647007123
 40
1.0
 40
1.0
 40
1.0
 40
1.0
 10
159.8567756182366
 20
-14.71797279425524
 30
0.0
 10
159.852708682576
 20
-14.74946376098169
 30
0.0
 10
159.8447101951207
 20
-14.81139739439513
 30
0.0
 10
159.7883433410847
 20
-14.88022167922989
 30
0.0
 10
159.719363450029
 20
-14.92196585848871
 30
0.0
 10
159.6704018832407
 20
-14.92693523048505
 30
0.0
 10
159.6454771525079
 20
-14.92946497507952
 30
0.0
  0
SPLINE
  5
EC
330
1F
100
AcDbEntity
  8
0
  6
Continuous
 62
     7
370
    15
100
AcDbSpline
210
0.0
220
0.0
230
1.0
 70
     8
 71
     3
 72
    12
 73
     8
 74
     0
 42
0.000000001
 43
0.00000001
 40
0.0
 40
0.0
 40
0.0
 40
0.0
 40
0.0884410512626347
 40
0.1826261532752483
 40
0.4046362921146145
 40
0.6791744368516883
 40
1.0
 40
1.0
 40
1.0
 40
1.0
 10
151.8988700873071
 20
223.1398309080992
 30
0.0
 10
151.9288439425649
 20
223.4043198512534
 30
0.0
 10
151.9907383887118
 20
223.9504757096753
 30
0.0
 10
152.6372816845329
 20
225.0037171007677
 30
0.0
 10
154.0771128583455
 20
226.0833190176941
 30
0.0
 10
156.3976461954608
 20
226.9265696850171
 30
0.0
 10
158.1750707175549
 20
227.0333775203064
 30
0.0
 10
159.1328772074395
 20
227.0909334032927
 30
0.0
  0
SPLINE
  5
ED
330
1F
100
AcDbEntity
  8
0
  6
Continuous
 62
     7
370
    15
100
AcDbSpline
210
0.0
220
0.0
230
1.0
 70
     8
 71
     3
 72
    12
 73
     8
 74
     0
 42
0.000000001
 43
0.00000001
 40
0.0
 40
0.0
 40
0.0
 40
0.0
 40
0.3210971469746485
 40
0.5953667201793074
 40
0.8171484597454787
 40
0.9113886936207307
 40
1.0
 40
1.0
 40
1.0
 40
1.0
 10
159.1328772074395
 20
227.0909334032927
 30
0.0
 10
160.0894549071382
 20
227.0335260113202
 30
0.0
 10
161.8631066914415
 20
226.9270833007739
 30
0.0
 10
164.1775465032031
 20
226.0836390809067
 30
0.0
 10
165.610437074361
 20
225.0027867759957
 30
0.0
 10
166.2519681418049
 20
223.9498957478692
 30
0.0
 10
166.3132737036213
 20
223.4042534786058
 30
0.0
 10
166.342982865017
 20
223.1398309080992
 30
0.0
  0
SPLINE
  5
EE
330
1F
100
AcDbEntity
  8
0
  6
Continuous
 62
     7
370
    15
100
AcDbSpline
210
0.0
220
0.0
230
1.0
 70
     8
 71
     3
 72
    12
 73
     8
 74
     0
 42
0.000000001
 43
0.00000001
 40
0.0
 40
0.0
 40
0.0
 40
0.0
 40
0.0935494227301531
 40
0.1911180077303134
 40
0.416464067037089
 40
0.689399062401402
 40
1.0
 40
1.0
 40
1.0
 40
1.0
 10
151.6208740240747
 20
223.1398309080992
 30
0.0
 10
151.6528572204966
 20
222.8468226960239
 30
0.0
 10
151.7181977068685
 20
222.2482177650027
 30
0.0
 10
152.40917374059
 20
221.1097298814105
 30
0.0
 10
153.9339683960411
 20
219.9724674451358
 30
0.0
 10
156.3390368522331
 20
219.1048972338172
 30
0.0
 10
158.162366469768
 20
218.9931275292253
 30
0.0
 10
159.1328772074395
 20
218.9336354344282
 30
0.0
  0
SPLINE
  5
EF
330
1F
100
AcDbEntity
  8
0
  6
Continuous
 62
     7
370
    15
100
AcDbSpline
210
0.0
220
0.0
230
1.0
 70
     8
 71
     3
 72
    12
 73
     8
 74
     0
 42
0.000000001
 43
0.00000001
 40
0.0
 40
0.0
 40
0.0
 40
0.0
 40
0.3100524030551389
 40
0.58255036018434
 40
0.8079075153563435
 40
0.9058212274351283
 40
1.0
 40
1.0
 40
1.0
 40
1.0
 10
159.1328772074395
 20
227.3691306322012
 30
0.0
 10
158.1622055642641
 20
227.3096526993408
 30
0.0
 10
156.338432841393
 20
227.1979009732795
 30
0.0
 10
153.9319227575824
 20
226.328048261716
 30
0.0
 10
152.4070879438211
 20
225.1840580768963
 30
0.0
 10
151.7177360861851
 20
224.0382035456773
 30
0.0
 10
151.6527401296928
 20
223.4353814748519
 30
0.0
 10
151.6208740240747
 20
223.1398309080992
 30
0.0
  0
SPLINE
  5
F0
330
1F
100
AcDbEntity
  8
0
  6
Continuous
 62
     7
370
    15
100
AcDbSpline
210
0.0
220
0.0
230
1.0
 70
     8
 71
     3
 72
    12
 73
     8
 74
     0
 42
0.000000001
 43
0.00000001
 40
0.0
 40
0.0
 40
0.0
 40
0.0
 40
0.0943499369861634
 40
0.1923144051928454
 40
0.4174246795401892
 40
0.6896459108693253
 40
1.0
 40
1.0
 40
1.0
 40
1.0
 10
166.6209789282495
 20
223.1398309080992
 30
0.0
 10
166.5893859728348
 20
223.4353087401318
 30
0.0
 10
166.5249897408611
 20
224.0375841133878
 30
0.0
 10
165.8409195008319
 20
225.1830457782227
 30
0.0
 10
164.3232916476726
 20
226.3284058398127
 30
0.0
 10
161.9227478297579
 20
227.1984732704458
 30
0.0
 10
160.1025482099649
 20
227.3098155178235
 30
0.0
 10
159.1328772074395
 20
227.3691306322012
 30
0.0
  0
SPLINE
  5
F1
330
1F
100
AcDbEntity
  8
0
  6
Continuous
 62
     7
370
    15
100
AcDbSpline
210
0.0
220
0.0
230
1.0
 70
     8
 71
     3
 72
    12
 73
     8
 74
     0
 42
0.000000001
 43
0.00000001
 40
0.0
 40
0.0
 40
0.0
 40
0.0
 40
0.3109106866472446
 40
0.583578023492881
 40
0.8086811919235015
 40
0.9062938281274052
 40
1.0
 40
1.0
 40
1.0
 40
1.0
 10
159.1328772074395
 20
218.9336354344282
 30
0.0
 10
160.1023900785193
 20
218.9929849265071
 30
0.0
 10
161.9221615735326
 20
219.1043836682366
 30
0.0
 10
164.3212382763526
 20
219.9722980181168
 30
0.0
 10
165.8387996237328
 20
221.1109413039893
 30
0.0
 10
166.5245217406095
 20
222.2489553482317
 30
0.0
 10
166.5892672031756
 20
222.8469424098877
 30
0.0
 10
166.6209789282495
 20
223.1398309080992
 30
0.0
  0
SPLINE
  5
F2
330
1F
100
AcDbEntity
  8
0
  6
Continuous
 62
     7
370
    15
100
AcDbSpline
210
0.0
220
0.0
230
1.0
 70
     8
 71
     3
 72
    12
 73
     8
 74
     0
 42
0.000000001
 43
0.00000001
 40
0.0
 40
0.0
 40
0.0
 40
0.0
 40
0.3214666503914804
 40
0.5964573306540643
 40
0.8184231280160558
 40
0.9122321907504434
 40
1.0
 40
1.0
 40
1.0
 40
1.0
 10
159.1328772074395
 20
219.2120338290129
 30
0.0
 10
158.1750967417439
 20
219.2695895917493
 30
0.0
 10
156.3980067100851
 20
219.3763800055099
 30
0.0
 10
154.0788063354291
 20
220.2172645184718
 30
0.0
 10
152.6392406825708
 20
221.2902122253084
 30
0.0
 10
151.991195827868
 20
222.3359835678839
 30
0.0
 10
151.9289550622516
 20
222.8778917463579
 30
0.0
 10
151.8988700873071
 20
223.1398309080992
 30
0.0
  0
SPLINE
  5
F3
330
1F
100
AcDbEntity
  8
0
  6
Continuous
 62
     7
370
    15
100
AcDbSpline
210
0.0
220
0.0
230
1.0
 70
     8
 71
     3
 72
    12
 73
     8
 74
     0
 42
0.000000001
 43
0.00000001
 40
0.0
 40
0.0
 40
0.0
 40
0.0
 40
0.0879512958971095
 40
0.181820009118953
 40
0.4035503873541967
 40
0.6782647778660236
 40
1.0
 40
1.0
 40
1.0
 40
1.0
 10
166.342982865017
 20
223.1398309080992
 30
0.0
 10
166.3131669785099
 20
222.8779109864303
 30
0.0
 10
166.2515291742989
 20
222.3364490095426
 30
0.0
 10
165.6085355479352
 20
221.2909187571207
 30
0.0
 10
164.1758419991502
 20
220.216747954247
 30
0.0
 10
161.8627280079084
 20
219.3758115664733
 30
0.0
 10
160.0894266084021
 20
219.2694221290005
 30
0.0
 10
159.1328772074395
 20
219.2120338290129
 30
0.0
  0
SPLINE
  5
F4
330
1F
100
AcDbEntity
  8
0
  6
Continuous
 62
     7
370
    15
100
AcDbSpline
210
0.0
220
0.0
230
1.0
 70
     8
 71
     3
 72
     9
 73
     5
 74
     0
 42
0.000000001
 43
0.00000001
 40
0.0
 40
0.0
 40
0.0
 40
0.0
 40
0.5571504337697063
 40
1.0
 40
1.0
 40
1.0
 40
1.0
 10
153.0575694805795
 20
221.9934324233923
 30
0.0
 10
153.1411519459726
 20
221.9243462603862
 30
0.0
 10
153.2911697155498
 20
221.8003471412636
 30
0.0
 10
153.4838449180135
 20
221.7848788249323
 30
0.0
 10
153.5691710478478
 20
221.7780286877546
 30
0.0
  0
SPLINE
  5
F5
330
1F
100
AcDbEntity
  8
0
  6
Continuous
 62
     7
370
    15
100
AcDbSpline
210
0.0
220
0.0
230
1.0
 70
     8
 71
     3
 72
    10
 73
     6
 74
     0
 42
0.000000001
 43
0.00000001
 40
0.0
 40
0.0
 40
0.0
 40
0.0
 40
0.2369604143932659
 40
0.5005700403704414
 40
1.0
 40
1.0
 40
1.0
 40
1.0
 10
152.8467776543313
 20
222.4094355910215
 30
0.0
 10
152.8502898167036
 20
222.3717450189161
 30
0.0
 10
152.8577091287645
 20
222.292125090631
 30
0.0
 10
152.9251238606743
 20
222.1451039194866
 30
0.0
 10
153.0051743072844
 20
222.0534333077361
 30
0.0
 10
153.0575694805795
 20
221.9934324233923
 30
0.0
  0
LINE
  5
F6
330
1F
100
AcDbEntity
  8
0
  6
Continuous
 62
     7
370
    15
100
AcDbLine
 10
152.8467776543
 20
222.9954312056
 30
0.0
 11
152.8467776543
 21
222.409435591
 31
0.0
  0
LINE
  5
F7
330
1F
100
AcDbEntity
  8
0
  6
Continuous
 62
     7
370
    15
100
AcDbLine
 10
153.8864763743
 20
222.9954312056
 30
0.0
 11
152.8467776543
 21
222.9954312056
 31
0.0
  0
LINE
  5
F8
330
1F
100
AcDbEntity
  8
0
  6
Continuous
 62
     7
370
    15
100
AcDbLine
 10
153.8864763743
 20
222.4748293369
 30
0.0
 11
153.8864763743
 21
222.9954312056
 31
0.0
  0
LINE
  5
F9
330
1F
100
AcDbEntity
  8
0
  6
Continuous
 62
     7
370
    15
100
AcDbLine
 10
155.7814719445
 20
222.4748293369
 30
0.0
 11
153.8864763743
 21
222.4748293369
 31
0.0
  0
LINE
  5
FA
330
1F
100
AcDbEntity
  8
0
  6
Continuous
 62
     7
370
    15
100
AcDbLine
 10
155.7814719445
 20
223.8499308436
 30
0.0
 11
155.7814719445
 21
222.4748293369
 31
0.0
  0
LINE
  5
FB
330
1F
100
AcDbEntity
  8
0
  6
Continuous
 62
     7
370
    15
100
AcDbLine
 10
154.6208801037
 20
223.8499308436
 30
0.0
 11
155.7814719445
 21
223.8499308436
 31
0.0
  0
LINE
  5
FC
330
1F
100
AcDbEntity
  8
0
  6
Continuous
 62
     7
370
    15
100
AcDbLine
 10
154.6208801037
 20
224.5285297244
 30
0.0
 11
154.6208801037
 21
223.8499308436
 31
0.0
  0
LINE
  5
FD
330
1F
100
AcDbEntity
  8
0
  6
Continuous
 62
     7
370
    15
100
AcDbLine
 10
156.8213792807
 20
224.5285297244
 30
0.0
 11
154.6208801037
 21
224.5285297244
 31
0.0
  0
LINE
  5
FE
330
1F
100
AcDbEntity
  8
0
  6
Continuous
 62
     7
370
    15
100
AcDbLine
 10
156.8213792807
 20
222.5133339374
 30
0.0
 11
156.8213792807
 21
224.5285297244
 31
0.0
  0
SPLINE
  5
FF
330
1F
100
AcDbEntity
  8
0
  6
Continuous
 62
     7
370
    15
100
AcDbSpline
210
0.0
220
0.0
230
1.0
 70
     8
 71
     3
 72
    10
 73
     6
 74
     0
 42
0.000000001
 43
0.00000001
 40
0.0
 40
0.0
 40
0.0
 40
0.0
 40
0.3020865804994745
 40
0.5778955885724503
 40
1.0
 40
1.0
 40
1.0
 40
1.0
 10
156.5557809836083
 20
221.9934324233923
 30
0.0
 10
156.6004592626603
 20
222.0345123687402
 30
0.0
 10
156.6859293961778
 20
222.113098842711
 30
0.0
 10
156.7954291584697
 20
222.2867859862289
 30
0.0
 10
156.8115993818905
 20
222.4279541452961
 30
0.0
 10
156.8213792807275
 20
222.5133339374457
 30
0.0
  0
SPLINE
  5
100
330
1F
100
AcDbEntity
  8
0
  6
Continuous
 62
     7
370
    15
100
AcDbSpline
210
0.0
220
0.0
230
1.0
 70
     8
 71
     3
 72
     9
 73
     5
 74
     0
 42
0.000000001
 43
0.00000001
 40
0.0
 40
0.0
 40
0.0
 40
0.0
 40
0.5443408146753758
 40
1.0
 40
1.0
 40
1.0
 40
1.0
 10
155.9798809057885
 20
221.7780286877546
 30
0.0
 10
156.0947086989111
 20
221.7907389135445
 30
0.0
 10
156.3056570423512
 20
221.8140886706216
 30
0.0
 10
156.4774856845078
 20
221.9372931642137
 30
0.0
 10
156.5557809836083
 20
221.9934324233923
 30
0.0
  0
LINE
  5
101
330
1F
100
AcDbEntity
  8
0
  6
Continuous
 62
     7
370
    15
100
AcDbLine
 10
153.5691710478
 20
221.7780286878
 30
0.0
 11
155.9798809058
 21
221.7780286878
 31
0.0
  0
LINE
  5
102
330
1F
100
AcDbEntity
  8
0
  6
Continuous
 62
     7
370
    15
100
AcDbLine
 10
161.1447723872
 20
221.7780286878
 30
0.0
 11
161.1447723872
 21
223.802031061
 31
0.0
  0
LINE
  5
103
330
1F
100
AcDbEntity
  8
0
  6
Continuous
 62
     7
370
    15
100
AcDbLine
 10
160.1003798014
 20
221.7780286878
 30
0.0
 11
161.1447723872
 21
221.7780286878
 31
0.0
  0
LINE
  5
104
330
1F
100
AcDbEntity
  8
0
  6
Continuous
 62
     7
370
    15
100
AcDbLine
 10
160.1003798014
 20
223.8413328736
 30
0.0
 11
160.1003798014
 21
221.7780286878
 31
0.0
  0
LINE
  5
105
330
1F
100
AcDbEntity
  8
0
  6
Continuous
 62
     7
370
    15
100
AcDbLine
 10
158.1375690467
 20
223.8413328736
 30
0.0
 11
160.1003798014
 21
223.8413328736
 31
0.0
  0
LINE
  5
106
330
1F
100
AcDbEntity
  8
0
  6
Continuous
 62
     7
370
    15
100
AcDbLine
 10
158.1375690467
 20
221.7780286878
 30
0.0
 11
158.1375690467
 21
223.8413328736
 31
0.0
  0
LINE
  5
107
330
1F
100
AcDbEntity
  8
0
  6
Continuous
 62
     7
370
    15
100
AcDbLine
 10
157.1019830472
 20
221.7780286878
 30
0.0
 11
158.1375690467
 21
221.7780286878
 31
0.0
  0
LINE
  5
108
330
1F
100
AcDbEntity
  8
0
  6
Continuous
 62
     7
370
    15
100
AcDbLine
 10
157.1019830472
 20
224.5248342364
 30
0.0
 11
157.1019830472
 21
221.7780286878
 31
0.0
  0
LINE
  5
109
330
1F
100
AcDbEntity
  8
0
  6
Continuous
 62
     7
370
    15
100
AcDbLine
 10
160.4238691098
 20
224.5248342364
 30
0.0
 11
157.1019830472
 21
224.5248342364
 31
0.0
  0
SPLINE
  5
10A
330
1F
100
AcDbEntity
  8
0
  6
Continuous
 62
     7
370
    15
100
AcDbSpline
210
0.0
220
0.0
230
1.0
 70
     8
 71
     3
 72
     9
 73
     5
 74
     0
 42
0.000000001
 43
0.00000001
 40
0.0
 40
0.0
 40
0.0
 40
0.0
 40
0.5577453986617654
 40
1.0
 40
1.0
 40
1.0
 40
1.0
 10
161.1447723871881
 20
223.8020310609732
 30
0.0
 10
161.1334130789644
 20
223.9099820679311
 30
0.0
 10
161.1130466030582
 20
224.1035309653617
 30
0.0
 10
160.9860483176815
 20
224.249206813915
 30
0.0
 10
160.9298827416116
 20
224.3136326282415
 30
0.0
  0
SPLINE
  5
10B
330
1F
100
AcDbEntity
  8
0
  6
Continuous
 62
     7
370
    15
100
AcDbSpline
210
0.0
220
0.0
230
1.0
 70
     8
 71
     3
 72
     9
 73
     5
 74
     0
 42
0.000000001
 43
0.00000001
 40
0.0
 40
0.0
 40
0.0
 40
0.0
 40
0.5587038709767613
 40
1.0
 40
1.0
 40
1.0
 40
1.0
 10
160.9298827416116
 20
224.3136326282415
 30
0.0
 10
160.846705003708
 20
224.3813894825826
 30
0.0
 10
160.6978287523977
 20
224.5026645584516
 30
0.0
 10
160.5077500884159
 20
224.5180463231872
 30
0.0
 10
160.4238691097909
 20
224.5248342364225
 30
0.0
  0
LINE
  5
10C
330
1F
100
AcDbEntity
  8
0
  6
Continuous
 62
     7
370
    15
100
AcDbLine
 10
161.4067795045
 20
221.7780286878
 30
0.0
 11
162.4470742709
 21
221.7780286878
 31
0.0
  0
LINE
  5
10D
330
1F
100
AcDbEntity
  8
0
  6
Continuous
 62
     7
370
    15
100
AcDbLine
 10
161.4067795045
 20
223.802031061
 30
0.0
 11
161.4067795045
 21
221.7780286878
 31
0.0
  0
SPLINE
  5
10E
330
1F
100
AcDbEntity
  8
0
  6
Continuous
 62
     7
370
    15
100
AcDbSpline
210
0.0
220
0.0
230
1.0
 70
     8
 71
     3
 72
     9
 73
     5
 74
     0
 42
0.000000001
 43
0.00000001
 40
0.0
 40
0.0
 40
0.0
 40
0.0
 40
0.5555505028481137
 40
1.0
 40
1.0
 40
1.0
 40
1.0
 10
161.6170795923883
 20
224.3136326282415
 30
0.0
 10
161.5496796422805
 20
224.2298349786741
 30
0.0
 10
161.4283586286873
 20
224.078997837608
 30
0.0
 10
161.4134192872494
 20
223.8872522783614
 30
0.0
 10
161.4067795044595
 20
223.8020310609732
 30
0.0
  0
SPLINE
  5
10F
330
1F
100
AcDbEntity
  8
0
  6
Continuous
 62
     7
370
    15
100
AcDbSpline
210
0.0
220
0.0
230
1.0
 70
     8
 71
     3
 72
     9
 73
     5
 74
     0
 42
0.000000001
 43
0.00000001
 40
0.0
 40
0.0
 40
0.0
 40
0.0
 40
0.5547931705594654
 40
1.0
 40
1.0
 40
1.0
 40
1.0
 10
162.1286811596566
 20
224.5248342364225
 30
0.0
 10
162.0219991804488
 20
224.5132664356306
 30
0.0
 10
161.8297077376753
 20
224.4924157809979
 30
0.0
 10
161.6825812911656
 20
224.3687081226099
 30
0.0
 10
161.6170795923883
 20
224.3136326282415
 30
0.0
  0
LINE
  5
110
330
1F
100
AcDbEntity
  8
0
  6
Continuous
 62
     7
370
    15
100
AcDbLine
 10
165.1453765399
 20
224.5248342364
 30
0.0
 11
162.1286811597
 21
224.5248342364
 31
0.0
  0
LINE
  5
111
330
1F
100
AcDbEntity
  8
0
  6
Continuous
 62
     7
370
    15
100
AcDbLine
 10
162.4470742709
 20
223.8413328736
 30
0.0
 11
165.1453765399
 21
223.8413328736
 31
0.0
  0
LINE
  5
112
330
1F
100
AcDbEntity
  8
0
  6
Continuous
 62
     7
370
    15
100
AcDbLine
 10
162.4470742709
 20
221.7780286878
 30
0.0
 11
162.4470742709
 21
223.8413328736
 31
0.0
  0
LINE
  5
113
330
1F
100
AcDbEntity
  8
0
  6
Continuous
 62
     7
370
    15
100
AcDbLine
 10
165.1453765399
 20
223.8413328736
 30
0.0
 11
165.1453765399
 21
224.5248342364
 31
0.0
  0
LINE
  5
114
330
1F
100
AcDbEntity
  8
0
  6
Continuous
 62
     7
370
    15
100
AcDbLine
 10
164.5593734748
 20
222.871833524
 30
0.0
 11
164.5593734748
 21
223.4562347143
 31
0.0
  0
LINE
  5
115
330
1F
100
AcDbEntity
  8
0
  6
Continuous
 62
     7
370
    15
100
AcDbLine
 10
162.8268750674
 20
222.871833524
 30
0.0
 11
164.5593734748
 21
222.871833524
 31
0.0
  0
LINE
  5
116
330
1F
100
AcDbEntity
  8
0
  6
Continuous
 62
     7
370
    15
100
AcDbLine
 10
162.8268750674
 20
223.4562347143
 30
0.0
 11
162.8268750674
 21
222.871833524
 31
0.0
  0
LINE
  5
117
330
1F
100
AcDbEntity
  8
0
  6
Continuous
 62
     7
370
    15
100
AcDbLine
 10
164.5593734748
 20
223.4562347143
 30
0.0
 11
162.8268750674
 21
223.4562347143
 31
0.0
  0
LINE
  5
118
330
1F
100
AcDbEntity
  8
0
  6
Continuous
 62
     7
370
    15
100
AcDbLine
 10
101.0467725164
 20
271.7780331581
 30
0.0
 11
101.0467725164
 21
-78.221968332
 31
0.0
  0
LINE
  5
119
330
1F
100
AcDbEntity
  8
0
  6
Continuous
 62
     7
370
    15
100
AcDbLine
 10
218.6467739112
 20
271.7780331581
 30
0.0
 11
101.0467725164
 21
271.7780331581
 31
0.0
  0
LINE
  5
11A
330
1F
100
AcDbEntity
  8
0
  6
Continuous
 62
     7
370
    15
100
AcDbLine
 10
218.6467739112
 20
-78.221968332
 30
0.0
 11
218.6467739112
 21
271.7780331581
 31
0.0
  0
LINE
  5
11B
330
1F
100
AcDbEntity
  8
0
  6
Continuous
 62
     7
370
    15
100
AcDbLine
 10
101.0467725164
 20
-78.221968332
 30
0.0
 11
218.6467739112
 21
-78.221968332
 31
0.0
  0
LINE
  5
11C
330
1F
100
AcDbEntity
  8
0
  6
Continuous
 62
     7
370
    15
100
AcDbLine
 10
156.3467772967
 20
140.2780320927
 30
0.0
 11
156.3467772967
 21
47.2780326813
 31
0.0
  0
LINE
  5
11D
330
1F
100
AcDbEntity
  8
0
  6
Continuous
 62
     7
370
    15
100
AcDbLine
 10
163.3467765814
 20
47.2780326813
 30
0.0
 11
163.3467765814
 21
140.2780320927
 31
0.0
  0
ARC
  5
11E
330
1F
100
AcDbEntity
  8
0
  6
Continuous
 62
     7
370
    15
100
AcDbCircle
 10
159.8467758974
 20
140.2780320119
 30
0.0
 40
3.5
100
AcDbArc
 50
0.0
 51
90.0
  0
ARC
  5
11F
330
1F
100
AcDbEntity
  8
0
  6
Continuous
 62
     7
370
    15
100
AcDbCircle
 10
159.8467758974
 20
140.2780320119
 30
0.0
 40
3.5
100
AcDbArc
 50
90.0
 51
180.0
  0
ARC
  5
120
330
1F
100
AcDbEntity
  8
0
  6
Continuous
 62
     7
370
    15
100
AcDbCircle
 10
159.8467758974
 20
47.2780320119
 30
0.0
 40
3.5
100
AcDbArc
 50
270.0
 51
0.0
  0
ARC
  5
121
330
1F
100
AcDbEntity
  8
0
  6
Continuous
 62
     7
370
    15
100
AcDbCircle
 10
159.8467758974
 20
47.2780320119
 30
0.0
 40
3.5
100
AcDbArc
 50
180.0
 51
270.0
  0
LINE
  5
122
330
1F
100
AcDbEntity
  8
0
  6
Continuous
 62
     7
370
    15
100
AcDbLine
 10
84.8467739588
 20
-78.221968332
 30
0.0
 11
84.8467739588
 21
271.7780331581
 31
0.0
  0
LINE
  5
123
330
1F
100
AcDbEntity
  8
0
  6
Continuous
 62
     7
370
    15
100
AcDbLine
 10
84.8467739588
 20
271.7780331581
 30
0.0
 11
101.0467725164
 21
271.7780331581
 31
0.0
  0
LINE
  5
124
330
1F
100
AcDbEntity
  8
0
  6
Continuous
 62
     7
370
    15
100
AcDbLine
 10
101.0467725164
 20
-78.221968332
 30
0.0
 11
84.8467739588
 21
-78.221968332
 31
0.0
  0
LINE
  5
125
330
1F
100
AcDbEntity
  8
0
  6
Continuous
 62
     7
370
    15
100
AcDbLine
 10
218.6467739112
 20
271.7780331581
 30
0.0
 11
234.8467799193
 21
271.7780331581
 31
0.0
  0
LINE
  5
126
330
1F
100
AcDbEntity
  8
0
  6
Continuous
 62
     7
370
    15
100
AcDbLine
 10
234.8467799193
 20
-78.221968332
 30
0.0
 11
234.8467799193
 21
271.7780331581
 31
0.0
  0
LINE
  5
127
330
1F
100
AcDbEntity
  8
0
  6
Continuous
 62
     7
370
    15
100
AcDbLine
 10
234.8467799193
 20
-78.221968332
 30
0.0
 11
218.6467739112
 21
-78.221968332
 31
0.0
  0
LINE
  5
128
330
1F
100
AcDbEntity
  8
0
  6
Continuous
 62
     8
370
    15
100
AcDbLine
 10
159.8467769391
 20
143.5280321597
 30
0.0
 11
159.8467769391
 21
143.778031735
 31
0.0
  0
LINE
  5
129
330
1F
100
AcDbEntity
  8
0
  6
Continuous
 62
     8
370
    15
100
AcDbLine
 10
159.8467769391
 20
143.5280321597
 30
0.0
 11
158.5477384097
 21
143.5280321597
 31
0.0
  0
LINE
  5
12A
330
1F
100
AcDbEntity
  8
0
  6
Continuous
 62
     8
370
    15
100
AcDbLine
 10
159.8467769391
 20
43.7780330389
 30
0.0
 11
159.8467769391
 21
143.5280321597
 31
0.0
  0
LINE
  5
12B
330
1F
100
AcDbEntity
  8
0
  6
Continuous
 62
     8
370
    15
100
AcDbLine
 10
161.1458154685
 20
143.5280321597
 30
0.0
 11
159.8467769391
 21
143.5280321597
 31
0.0
  0
LINE
  5
12C
330
1F
100
AcDbEntity
  8
0
  6
Continuous
 62
     7
370
    15
100
AcDbLine
 10
86.0467793709
 20
448.0150268008
 30
0.0
 11
87.5467749602
 21
448.0150268008
 31
0.0
  0
LINE
  5
12D
330
1F
100
AcDbEntity
  8
0
  6
Continuous
 62
     7
370
    15
100
AcDbLine
 10
87.5467749602
 20
459.0150267412
 30
0.0
 11
86.0467793709
 21
459.0150267412
 31
0.0
  0
LINE
  5
12E
330
1F
100
AcDbEntity
  8
0
  6
Continuous
 62
     7
370
    15
100
AcDbLine
 10
87.5467749602
 20
449.5150298406
 30
0.0
 11
87.6101794011
 21
449.5784268309
 31
0.0
  0
LINE
  5
12F
330
1F
100
AcDbEntity
  8
0
  6
Continuous
 62
     7
370
    15
100
AcDbLine
 10
88.277743972
 20
450.2459988524
 30
0.0
 11
88.2967727548
 21
450.2650276353
 31
0.0
  0
LINE
  5
130
330
1F
100
AcDbEntity
  8
0
  6
Continuous
 62
     7
370
    15
100
AcDbLine
 10
87.6101794011
 20
457.451626711
 30
0.0
 11
87.5467749602
 21
457.5150311519
 31
0.0
  0
LINE
  5
131
330
1F
100
AcDbEntity
  8
0
  6
Continuous
 62
     7
370
    15
100
AcDbLine
 10
88.2967727548
 20
450.2650276353
 30
0.0
 11
90.3467776543
 21
450.2650276353
 31
0.0
  0
LINE
  5
132
330
1F
100
AcDbEntity
  8
0
  6
Continuous
 62
     7
370
    15
100
AcDbLine
 10
90.3467776543
 20
456.7650259067
 30
0.0
 11
89.6101760036
 21
456.7650259067
 31
0.0
  0
LINE
  5
133
330
1F
100
AcDbEntity
  8
0
  6
Continuous
 62
     7
370
    15
100
AcDbLine
 10
233.6467745072
 20
459.0150267412
 30
0.0
 11
232.1467789179
 21
459.0150267412
 31
0.0
  0
LINE
  5
134
330
1F
100
AcDbEntity
  8
0
  6
Continuous
 62
     7
370
    15
100
AcDbLine
 10
232.1467789179
 20
448.0150268008
 30
0.0
 11
233.6467745072
 21
448.0150268008
 31
0.0
  0
LINE
  5
135
330
1F
100
AcDbEntity
  8
0
  6
Continuous
 62
     7
370
    15
100
AcDbLine
 10
232.1467789179
 20
457.5150311519
 30
0.0
 11
232.0833744771
 21
457.451626711
 31
0.0
  0
LINE
  5
136
330
1F
100
AcDbEntity
  8
0
  6
Continuous
 62
     7
370
    15
100
AcDbLine
 10
231.3967736727
 20
450.2650276353
 30
0.0
 11
231.4158024556
 21
450.2459988524
 31
0.0
  0
LINE
  5
137
330
1F
100
AcDbEntity
  8
0
  6
Continuous
 62
     7
370
    15
100
AcDbLine
 10
232.0833744771
 20
449.5784268309
 30
0.0
 11
232.1467789179
 21
449.5150298406
 31
0.0
  0
LINE
  5
138
330
1F
100
AcDbEntity
  8
0
  6
Continuous
 62
     7
370
    15
100
AcDbLine
 10
230.083370424
 20
456.7650259067
 30
0.0
 11
229.3467762238
 21
456.7650259067
 31
0.0
  0
LINE
  5
139
330
1F
100
AcDbEntity
  8
0
  6
Continuous
 62
     7
370
    15
100
AcDbLine
 10
229.3467762238
 20
450.2650276353
 30
0.0
 11
231.3967736727
 21
450.2650276353
 31
0.0
  0
LINE
  5
13A
330
1F
100
AcDbEntity
  8
0
  6
Continuous
 62
     7
370
    15
100
AcDbLine
 10
86.0467793709
 20
448.0150268008
 30
0.0
 11
87.5467749602
 21
448.0150268008
 31
0.0
  0
LINE
  5
13B
330
1F
100
AcDbEntity
  8
0
  6
Continuous
 62
     7
370
    15
100
AcDbLine
 10
87.5467749602
 20
459.0150267412
 30
0.0
 11
86.0467793709
 21
459.0150267412
 31
0.0
  0
LINE
  5
13C
330
1F
100
AcDbEntity
  8
0
  6
Continuous
 62
     7
370
    15
100
AcDbLine
 10
87.5467749602
 20
449.5150298406
 30
0.0
 11
87.6101794011
 21
449.5784268309
 31
0.0
  0
LINE
  5
13D
330
1F
100
AcDbEntity
  8
0
  6
Continuous
 62
     7
370
    15
100
AcDbLine
 10
88.277743972
 20
450.2459988524
 30
0.0
 11
88.2967727548
 21
450.2650276353
 31
0.0
  0
LINE
  5
13E
330
1F
100
AcDbEntity
  8
0
  6
Continuous
 62
     7
370
    15
100
AcDbLine
 10
87.6101794011
 20
457.451626711
 30
0.0
 11
87.5467749602
 21
457.5150311519
 31
0.0
  0
LINE
  5
13F
330
1F
100
AcDbEntity
  8
0
  6
Continuous
 62
     7
370
    15
100
AcDbLine
 10
88.2967727548
 20
450.2650276353
 30
0.0
 11
90.3467776543
 21
450.2650276353
 31
0.0
  0
LINE
  5
140
330
1F
100
AcDbEntity
  8
0
  6
Continuous
 62
     7
370
    15
100
AcDbLine
 10
90.3467776543
 20
456.7650259067
 30
0.0
 11
89.6101760036
 21
456.7650259067
 31
0.0
  0
LINE
  5
141
330
1F
100
AcDbEntity
  8
0
  6
Continuous
 62
     7
370
    15
100
AcDbLine
 10
233.6467745072
 20
459.0150267412
 30
0.0
 11
232.1467789179
 21
459.0150267412
 31
0.0
  0
LINE
  5
142
330
1F
100
AcDbEntity
  8
0
  6
Continuous
 62
     7
370
    15
100
AcDbLine
 10
232.1467789179
 20
448.0150268008
 30
0.0
 11
233.6467745072
 21
448.0150268008
 31
0.0
  0
LINE
  5
143
330
1F
100
AcDbEntity
  8
0
  6
Continuous
 62
     7
370
    15
100
AcDbLine
 10
232.1467789179
 20
457.5150311519
 30
0.0
 11
232.0833744771
 21
457.451626711
 31
0.0
  0
LINE
  5
144
330
1F
100
AcDbEntity
  8
0
  6
Continuous
 62
     7
370
    15
100
AcDbLine
 10
231.3967736727
 20
450.2650276353
 30
0.0
 11
231.4158024556
 21
450.2459988524
 31
0.0
  0
LINE
  5
145
330
1F
100
AcDbEntity
  8
0
  6
Continuous
 62
     7
370
    15
100
AcDbLine
 10
232.0833744771
 20
449.5784268309
 30
0.0
 11
232.1467789179
 21
449.5150298406
 31
0.0
  0
LINE
  5
146
330
1F
100
AcDbEntity
  8
0
  6
Continuous
 62
     7
370
    15
100
AcDbLine
 10
230.083370424
 20
456.7650259067
 30
0.0
 11
229.3467762238
 21
456.7650259067
 31
0.0
  0
LINE
  5
147
330
1F
100
AcDbEntity
  8
0
  6
Continuous
 62
     7
370
    15
100
AcDbLine
 10
229.3467762238
 20
450.2650276353
 30
0.0
 11
231.3967736727
 21
450.2650276353
 31
0.0
  0
LINE
  5
148
330
1F
100
AcDbEntity
  8
0
  6
Continuous
 62
     7
370
    15
100
AcDbLine
 10
87.6101794011
 20
454.3299899031
 30
0.0
 11
89.6101760036
 21
454.3299899031
 31
0.0
  0
LINE
  5
149
330
1F
100
AcDbEntity
  8
0
  6
Continuous
 62
     7
370
    15
100
AcDbLine
 10
230.083370424
 20
454.3299899031
 30
0.0
 11
232.0833744771
 21
454.3299899031
 31
0.0
  0
LINE
  5
14A
330
1F
100
AcDbEntity
  8
0
  6
Continuous
 62
     7
370
    15
100
AcDbLine
 10
166.8240817553
 20
357.514031284
 30
0.0
 11
166.8240817553
 21
357.5150296618
 31
0.0
  0
LINE
  5
14B
330
1F
100
AcDbEntity
  8
0
  6
Continuous
 62
     7
370
    15
100
AcDbLine
 10
167.6401736504
 20
357.514031284
 30
0.0
 11
167.6401736504
 21
357.5150296618
 31
0.0
  0
LINE
  5
14C
330
1F
100
AcDbEntity
  8
0
  6
Continuous
 62
     7
370
    15
100
AcDbLine
 10
167.6946820981
 20
357.514031284
 30
0.0
 11
167.6946820981
 21
357.5150296618
 31
0.0
  0
LINE
  5
14D
330
1F
100
AcDbEntity
  8
0
  6
Continuous
 62
     7
370
    15
100
AcDbLine
 10
166.6209789282
 20
357.514031284
 30
0.0
 11
166.6209789282
 21
357.5150296618
 31
0.0
  0
LINE
  5
14E
330
1F
100
AcDbEntity
  8
0
  6
Continuous
 62
     7
370
    15
100
AcDbLine
 10
159.1328772074
 20
357.514031284
 30
0.0
 11
159.1328772074
 21
357.5150296618
 31
0.0
  0
LINE
  5
14F
330
1F
100
AcDbEntity
  8
0
  6
Continuous
 62
     7
370
    15
100
AcDbLine
 10
151.6208740241
 20
357.514031284
 30
0.0
 11
151.6208740241
 21
357.5150296618
 31
0.0
  0
LINE
  5
150
330
1F
100
AcDbEntity
  8
0
  6
Continuous
 62
     7
370
    15
100
AcDbLine
 10
87.5467749602
 20
459.0150267412
 30
0.0
 11
87.5467749602
 21
448.0150268008
 31
0.0
  0
LINE
  5
151
330
1F
100
AcDbEntity
  8
0
  6
Continuous
 62
     7
370
    15
100
AcDbLine
 10
88.2967727548
 20
454.3299899031
 30
0.0
 11
88.2967727548
 21
450.2650276353
 31
0.0
  0
LINE
  5
152
330
1F
100
AcDbEntity
  8
0
  6
Continuous
 62
     7
370
    15
100
AcDbLine
 10
232.1467789179
 20
448.0150268008
 30
0.0
 11
232.1467789179
 21
459.0150267412
 31
0.0
  0
LINE
  5
153
330
1F
100
AcDbEntity
  8
0
  6
Continuous
 62
     7
370
    15
100
AcDbLine
 10
231.3967736727
 20
450.2650276353
 30
0.0
 11
231.3967736727
 21
454.3299899031
 31
0.0
  0
LINE
  5
154
330
1F
100
AcDbEntity
  8
0
  6
Continuous
 62
     7
370
    15
100
AcDbLine
 10
87.5467749602
 20
459.0148255755
 30
0.0
 11
87.5467749602
 21
448.0150268008
 31
0.0
  0
LINE
  5
155
330
1F
100
AcDbEntity
  8
0
  6
Continuous
 62
     7
370
    15
100
AcDbLine
 10
232.1467789179
 20
458.2561702062
 30
0.0
 11
232.1467789179
 21
459.0150267412
 31
0.0
  0
LINE
  5
156
330
1F
100
AcDbEntity
  8
0
  6
Continuous
 62
     7
370
    15
100
AcDbLine
 10
232.1467789179
 20
448.0150268008
 30
0.0
 11
232.1467789179
 21
458.2561702062
 31
0.0
  0
LINE
  5
157
330
1F
100
AcDbEntity
  8
0
  6
Continuous
 62
     7
370
    15
100
AcDbLine
 10
233.6467745072
 20
373.71503567
 30
0.0
 11
234.8467799193
 21
373.71503567
 31
0.0
  0
LINE
  5
158
330
1F
100
AcDbEntity
  8
0
  6
Continuous
 62
     7
370
    15
100
AcDbLine
 10
234.8467799193
 20
462.5150263836
 30
0.0
 11
233.6467745072
 21
462.5150263836
 31
0.0
  0
LINE
  5
159
330
1F
100
AcDbEntity
  8
0
  6
Continuous
 62
     7
370
    15
100
AcDbLine
 10
233.6467745072
 20
373.71503567
 30
0.0
 11
233.6467745072
 21
462.5150263836
 31
0.0
  0
LINE
  5
15A
330
1F
100
AcDbEntity
  8
0
  6
Continuous
 62
     7
370
    15
100
AcDbLine
 10
234.8467799193
 20
373.71503567
 30
0.0
 11
234.8467799193
 21
462.5150263836
 31
0.0
  0
LINE
  5
15B
330
1F
100
AcDbEntity
  8
0
  6
Continuous
 62
     7
370
    15
100
AcDbLine
 10
233.6467745072
 20
467.5150290658
 30
0.0
 11
234.8467799193
 21
467.5150290658
 31
0.0
  0
LINE
  5
15C
330
1F
100
AcDbEntity
  8
0
  6
Continuous
 62
     7
370
    15
100
AcDbLine
 10
233.6467745072
 20
462.5150263836
 30
0.0
 11
233.6467745072
 21
467.5150290658
 31
0.0
  0
LINE
  5
15D
330
1F
100
AcDbEntity
  8
0
  6
Continuous
 62
     7
370
    15
100
AcDbLine
 10
234.8467799193
 20
467.5150290658
 30
0.0
 11
234.8467799193
 21
462.5150263836
 31
0.0
  0
LINE
  5
15E
330
1F
100
AcDbEntity
  8
0
  6
Continuous
 62
     7
370
    15
100
AcDbLine
 10
84.8467739588
 20
467.5150290658
 30
0.0
 11
86.0467793709
 21
467.5150290658
 31
0.0
  0
LINE
  5
15F
330
1F
100
AcDbEntity
  8
0
  6
Continuous
 62
     7
370
    15
100
AcDbLine
 10
86.0467793709
 20
462.5150263836
 30
0.0
 11
84.8467739588
 21
462.5150263836
 31
0.0
  0
LINE
  5
160
330
1F
100
AcDbEntity
  8
0
  6
Continuous
 62
     7
370
    15
100
AcDbLine
 10
84.8467739588
 20
462.5150263836
 30
0.0
 11
84.8467739588
 21
467.5150290658
 31
0.0
  0
LINE
  5
161
330
1F
100
AcDbEntity
  8
0
  6
Continuous
 62
     7
370
    15
100
AcDbLine
 10
86.0467793709
 20
467.5150290658
 30
0.0
 11
86.0467793709
 21
462.5150263836
 31
0.0
  0
LINE
  5
162
330
1F
100
AcDbEntity
  8
0
  6
Continuous
 62
     7
370
    15
100
AcDbLine
 10
86.0467793709
 20
373.71503567
 30
0.0
 11
84.8467739588
 21
373.71503567
 31
0.0
  0
LINE
  5
163
330
1F
100
AcDbEntity
  8
0
  6
Continuous
 62
     7
370
    15
100
AcDbLine
 10
84.8467739588
 20
462.5150263836
 30
0.0
 11
84.8467739588
 21
373.71503567
 31
0.0
  0
LINE
  5
164
330
1F
100
AcDbEntity
  8
0
  6
Continuous
 62
     7
370
    15
100
AcDbLine
 10
86.0467793709
 20
462.5150263836
 30
0.0
 11
86.0467793709
 21
373.71503567
 31
0.0
  0
LINE
  5
165
330
1F
100
AcDbEntity
  8
0
  6
Continuous
 62
     7
370
    15
100
AcDbLine
 10
218.6467739112
 20
358.7150350739
 30
0.0
 11
218.6467739112
 21
357.5150296618
 31
0.0
  0
ARC
  5
166
330
1F
100
AcDbEntity
  8
0
  6
Continuous
 62
     7
370
    15
100
AcDbCircle
 10
218.6467758974
 20
373.7150286085
 30
0.0
 40
16.20000000000002
100
AcDbArc
 50
270.0
 51
0.0
  0
ARC
  5
167
330
1F
100
AcDbEntity
  8
0
  6
Continuous
 62
     7
370
    15
100
AcDbCircle
 10
218.6467758974
 20
373.7150286085
 30
0.0
 40
15.0
100
AcDbArc
 50
270.0
 51
0.0
  0
LINE
  5
168
330
1F
100
AcDbEntity
  8
0
  6
Continuous
 62
     7
370
    15
100
AcDbLine
 10
101.0467725164
 20
358.7150350739
 30
0.0
 11
101.0467725164
 21
357.5150296618
 31
0.0
  0
ARC
  5
169
330
1F
100
AcDbEntity
  8
0
  6
Continuous
 62
     7
370
    15
100
AcDbCircle
 10
101.0467758974
 20
373.7150286085
 30
0.0
 40
16.20000000000002
100
AcDbArc
 50
180.0
 51
270.0
  0
ARC
  5
16A
330
1F
100
AcDbEntity
  8
0
  6
Continuous
 62
     7
370
    15
100
AcDbCircle
 10
101.0467758974
 20
373.7150286085
 30
0.0
 40
14.99999999999996
100
AcDbArc
 50
180.0
 51
270.0
  0
LINE
  5
16B
330
1F
100
AcDbEntity
  8
0
  6
Continuous
 62
     7
370
    15
100
AcDbLine
 10
218.6467739112
 20
357.5150296618
 30
0.0
 11
101.0467725164
 21
357.5150296618
 31
0.0
  0
LINE
  5
16C
330
1F
100
AcDbEntity
  8
0
  6
Continuous
 62
     7
370
    15
100
AcDbLine
 10
218.6467739112
 20
358.7150350739
 30
0.0
 11
101.0467725164
 21
358.7150350739
 31
0.0
  0
ARC
  5
16D
330
1F
100
AcDbEntity
  8
0
  6
Continuous
 62
     7
370
    15
100
AcDbCircle
 10
100.3467758974
 20
372.0150286085
 30
0.0
 40
10.00000000000001
100
AcDbArc
 50
180.0
 51
270.0
  0
LINE
  5
16E
330
1F
100
AcDbEntity
  8
0
  6
Continuous
 62
     7
370
    15
100
AcDbLine
 10
90.3467776543
 20
372.015021794
 30
0.0
 11
90.3467776543
 21
464.2784297992
 31
0.0
  0
LINE
  5
16F
330
1F
100
AcDbEntity
  8
0
  6
Continuous
 62
     7
370
    15
100
AcDbLine
 10
229.3467762238
 20
464.2784297992
 30
0.0
 11
90.3467776543
 21
464.2784297992
 31
0.0
  0
LINE
  5
170
330
1F
100
AcDbEntity
  8
0
  6
Continuous
 62
     7
370
    15
100
AcDbLine
 10
229.3467762238
 20
464.2784297992
 30
0.0
 11
229.3467762238
 21
372.015021794
 31
0.0
  0
ARC
  5
171
330
1F
100
AcDbEntity
  8
0
  6
Continuous
 62
     7
370
    15
100
AcDbCircle
 10
219.3467758974
 20
372.0150286085
 30
0.0
 40
10.0
100
AcDbArc
 50
270.0
 51
0.0
  0
LINE
  5
172
330
1F
100
AcDbEntity
  8
0
  6
Continuous
 62
     7
370
    15
100
AcDbLine
 10
219.3467708594
 20
362.0150313307
 30
0.0
 11
100.3467755682
 21
362.0150313307
 31
0.0
  0
LINE
  5
173
330
1F
100
AcDbEntity
  8
0
  6
Continuous
 62
     7
370
    15
100
AcDbLine
 10
229.3467762238
 20
467.0150280525
 30
0.0
 11
229.3467762238
 21
464.2784297992
 31
0.0
  0
LINE
  5
174
330
1F
100
AcDbEntity
  8
0
  6
Continuous
 62
     7
370
    15
100
AcDbLine
 10
90.3467776543
 20
464.2784297992
 30
0.0
 11
90.3467776543
 21
467.0150280525
 31
0.0
  0
LINE
  5
175
330
1F
100
AcDbEntity
  8
0
  6
Continuous
 62
     7
370
    15
100
AcDbLine
 10
90.3467776543
 20
467.0150280525
 30
0.0
 11
229.3467762238
 21
467.0150280525
 31
0.0
  0
ARC
  5
176
330
1F
100
AcDbEntity
  8
0
  6
Continuous
 62
     7
370
    15
100
AcDbCircle
 10
229.3467758974
 20
464.2784286085
 30
0.0
 40
2.736600000000067
100
AcDbArc
 50
0.0
 51
90.0
  0
LINE
  5
177
330
1F
100
AcDbEntity
  8
0
  6
Continuous
 62
     7
370
    15
100
AcDbLine
 10
230.083370424
 20
464.2784297992
 30
0.0
 11
232.0833744771
 21
464.2784297992
 31
0.0
  0
ARC
  5
178
330
1F
100
AcDbEntity
  8
0
  6
Continuous
 62
     7
370
    15
100
AcDbCircle
 10
229.3467758974
 20
464.2784286085
 30
0.0
 40
0.7366000000000668
100
AcDbArc
 50
0.0
 51
90.0
  0
ARC
  5
179
330
1F
100
AcDbEntity
  8
0
  6
Continuous
 62
     7
370
    15
100
AcDbCircle
 10
90.3467758974
 20
464.2784286085
 30
0.0
 40
0.7366000000000668
100
AcDbArc
 50
90.0
 51
180.0
  0
LINE
  5
17A
330
1F
100
AcDbEntity
  8
0
  6
Continuous
 62
     7
370
    15
100
AcDbLine
 10
89.6101760036
 20
464.2784297992
 30
0.0
 11
87.6101794011
 21
464.2784297992
 31
0.0
  0
ARC
  5
17B
330
1F
100
AcDbEntity
  8
0
  6
Continuous
 62
     7
370
    15
100
AcDbCircle
 10
90.3467758974
 20
464.2784286085
 30
0.0
 40
2.736600000000067
100
AcDbArc
 50
90.0
 51
180.0
  0
LINE
  5
17C
330
1F
100
AcDbEntity
  8
0
  6
Continuous
 62
     7
370
    15
100
AcDbLine
 10
89.6101760036
 20
464.2784297992
 30
0.0
 11
89.6101760036
 21
457.3299885322
 31
0.0
  0
LINE
  5
17D
330
1F
100
AcDbEntity
  8
0
  6
Continuous
 62
     7
370
    15
100
AcDbLine
 10
87.6101794011
 20
457.3299885322
 30
0.0
 11
89.6101760036
 21
457.3299885322
 31
0.0
  0
LINE
  5
17E
330
1F
100
AcDbEntity
  8
0
  6
Continuous
 62
     7
370
    15
100
AcDbLine
 10
87.6101794011
 20
464.2784297992
 30
0.0
 11
87.6101794011
 21
457.3299885322
 31
0.0
  0
LINE
  5
17F
330
1F
100
AcDbEntity
  8
0
  6
Continuous
 62
     7
370
    15
100
AcDbLine
 10
230.083370424
 20
457.3299885322
 30
0.0
 11
232.0833744771
 21
457.3299885322
 31
0.0
  0
LINE
  5
180
330
1F
100
AcDbEntity
  8
0
  6
Continuous
 62
     7
370
    15
100
AcDbLine
 10
230.083370424
 20
457.3299885322
 30
0.0
 11
230.083370424
 21
464.2784297992
 31
0.0
  0
LINE
  5
181
330
1F
100
AcDbEntity
  8
0
  6
Continuous
 62
     7
370
    15
100
AcDbLine
 10
232.0833744771
 20
457.3299885322
 30
0.0
 11
232.0833744771
 21
464.2784297992
 31
0.0
  0
LINE
  5
182
330
1F
100
AcDbEntity
  8
0
  6
Continuous
 62
     7
370
    15
100
AcDbLine
 10
89.6101760036
 20
457.3299885322
 30
0.0
 11
89.6101760036
 21
454.3299899031
 31
0.0
  0
LINE
  5
183
330
1F
100
AcDbEntity
  8
0
  6
Continuous
 62
     7
370
    15
100
AcDbLine
 10
87.6101794011
 20
454.3299899031
 30
0.0
 11
87.6101794011
 21
457.3299885322
 31
0.0
  0
LINE
  5
184
330
1F
100
AcDbEntity
  8
0
  6
Continuous
 62
     7
370
    15
100
AcDbLine
 10
230.083370424
 20
454.3299899031
 30
0.0
 11
230.083370424
 21
457.3299885322
 31
0.0
  0
LINE
  5
185
330
1F
100
AcDbEntity
  8
0
  6
Continuous
 62
     7
370
    15
100
AcDbLine
 10
232.0833744771
 20
457.3299885322
 30
0.0
 11
232.0833744771
 21
454.3299899031
 31
0.0
  0
LINE
  5
186
330
1F
100
AcDbEntity
  8
0
  6
Continuous
 62
     7
370
    15
100
AcDbLine
 10
89.6101760036
 20
444.7256327201
 30
0.0
 11
87.6101794011
 21
444.7256327201
 31
0.0
  0
LINE
  5
187
330
1F
100
AcDbEntity
  8
0
  6
Continuous
 62
     7
370
    15
100
AcDbLine
 10
89.6101760036
 20
437.0150268604
 30
0.0
 11
87.6101794011
 21
437.0150268604
 31
0.0
  0
LINE
  5
188
330
1F
100
AcDbEntity
  8
0
  6
Continuous
 62
     7
370
    15
100
AcDbLine
 10
89.6101760036
 20
444.7256327201
 30
0.0
 11
89.6101760036
 21
437.0150268604
 31
0.0
  0
LINE
  5
189
330
1F
100
AcDbEntity
  8
0
  6
Continuous
 62
     7
370
    15
100
AcDbLine
 10
87.6101794011
 20
444.7256327201
 30
0.0
 11
87.6101794011
 21
437.0150268604
 31
0.0
  0
LINE
  5
18A
330
1F
100
AcDbEntity
  8
0
  6
Continuous
 62
     7
370
    15
100
AcDbLine
 10
232.0833744771
 20
444.7256327201
 30
0.0
 11
230.083370424
 21
444.7256327201
 31
0.0
  0
LINE
  5
18B
330
1F
100
AcDbEntity
  8
0
  6
Continuous
 62
     7
370
    15
100
AcDbLine
 10
232.0833744771
 20
437.0150268604
 30
0.0
 11
230.083370424
 21
437.0150268604
 31
0.0
  0
LINE
  5
18C
330
1F
100
AcDbEntity
  8
0
  6
Continuous
 62
     7
370
    15
100
AcDbLine
 10
230.083370424
 20
444.7256327201
 30
0.0
 11
230.083370424
 21
437.0150268604
 31
0.0
  0
LINE
  5
18D
330
1F
100
AcDbEntity
  8
0
  6
Continuous
 62
     7
370
    15
100
AcDbLine
 10
232.0833744771
 20
444.7256327201
 30
0.0
 11
232.0833744771
 21
437.0150268604
 31
0.0
  0
LINE
  5
18E
330
1F
100
AcDbEntity
  8
0
  6
Continuous
 62
     7
370
    15
100
AcDbLine
 10
230.083370424
 20
450.2650276353
 30
0.0
 11
230.083370424
 21
444.7256327201
 31
0.0
  0
LINE
  5
18F
330
1F
100
AcDbEntity
  8
0
  6
Continuous
 62
     7
370
    15
100
AcDbLine
 10
232.0833744771
 20
449.8690888812
 30
0.0
 11
232.0833744771
 21
444.7256327201
 31
0.0
  0
LINE
  5
190
330
1F
100
AcDbEntity
  8
0
  6
Continuous
 62
     7
370
    15
100
AcDbLine
 10
89.6101760036
 20
450.2650276353
 30
0.0
 11
89.6101760036
 21
444.7256327201
 31
0.0
  0
LINE
  5
191
330
1F
100
AcDbEntity
  8
0
  6
Continuous
 62
     7
370
    15
100
AcDbLine
 10
87.6101794011
 20
449.8690888812
 30
0.0
 11
87.6101794011
 21
444.7256327201
 31
0.0
  0
LINE
  5
192
330
1F
100
AcDbEntity
  8
0
  6
Continuous
 62
     7
370
    15
100
AcDbLine
 10
-24.6144742413
 20
-28.1851654441
 30
0.0
 11
-24.6154726191
 21
-28.1851654441
 31
0.0
  0
LINE
  5
193
330
1F
100
AcDbEntity
  8
0
  6
Continuous
 62
     7
370
    15
100
AcDbLine
 10
-24.6144742413
 20
-28.5093700082
 30
0.0
 11
-24.6154726191
 21
-28.5093700082
 31
0.0
  0
LINE
  5
194
330
1F
100
AcDbEntity
  8
0
  6
Continuous
 62
     7
370
    15
100
AcDbLine
 10
-24.6144742413
 20
-28.5234665067
 30
0.0
 11
-24.6154726191
 21
-28.5234665067
 31
0.0
  0
LINE
  5
195
330
1F
100
AcDbEntity
  8
0
  6
Continuous
 62
     7
370
    15
100
AcDbLine
 10
-24.6144742413
 20
-28.5093700082
 30
0.0
 11
-24.6144742413
 21
-28.5234665067
 31
0.0
  0
LINE
  5
196
330
1F
100
AcDbEntity
  8
0
  6
Continuous
 62
     7
370
    15
100
AcDbLine
 10
-24.6144742413
 20
-31.2815671355
 30
0.0
 11
-24.6154726191
 21
-31.2815671355
 31
0.0
  0
LINE
  5
197
330
1F
100
AcDbEntity
  8
0
  6
Continuous
 62
     7
370
    15
100
AcDbLine
 10
-24.6144742413
 20
-28.5234665067
 30
0.0
 11
-24.6144742413
 21
-31.2815671355
 31
0.0
  0
LINE
  5
198
330
1F
100
AcDbEntity
  8
0
  6
Continuous
 62
     7
370
    15
100
AcDbLine
 10
-24.6144742413
 20
-28.1744664104
 30
0.0
 11
-24.6154726191
 21
-28.1744664104
 31
0.0
  0
LINE
  5
199
330
1F
100
AcDbEntity
  8
0
  6
Continuous
 62
     7
370
    15
100
AcDbLine
 10
-24.6144742413
 20
-28.1744664104
 30
0.0
 11
-24.6144742413
 21
-28.1851654441
 31
0.0
  0
LINE
  5
19A
330
1F
100
AcDbEntity
  8
0
  6
Continuous
 62
     7
370
    15
100
AcDbLine
 10
-24.6144742413
 20
-26.7716710956
 30
0.0
 11
-24.6154726191
 21
-26.7716710956
 31
0.0
  0
LINE
  5
19B
330
1F
100
AcDbEntity
  8
0
  6
Continuous
 62
     7
370
    15
100
AcDbLine
 10
-24.6144742413
 20
-26.7716710956
 30
0.0
 11
-24.6144742413
 21
-28.1744664104
 31
0.0
  0
LINE
  5
19C
330
1F
100
AcDbEntity
  8
0
  6
Continuous
 62
     7
370
    15
100
AcDbLine
 10
-24.6144742413
 20
-31.5056656987
 30
0.0
 11
-24.6154726191
 21
-31.5056656987
 31
0.0
  0
LINE
  5
19D
330
1F
100
AcDbEntity
  8
0
  6
Continuous
 62
     7
370
    15
100
AcDbLine
 10
-24.6144742413
 20
-33.193967262
 30
0.0
 11
-24.6154726191
 21
-33.193967262
 31
0.0
  0
LINE
  5
19E
330
1F
100
AcDbEntity
  8
0
  6
Continuous
 62
     7
370
    15
100
AcDbLine
 10
-24.6144742413
 20
-26.753774801
 30
0.0
 11
-24.6154726191
 21
-26.753774801
 31
0.0
  0
LINE
  5
19F
330
1F
100
AcDbEntity
  8
0
  6
Continuous
 62
     7
370
    15
100
AcDbLine
 10
-24.6144742413
 20
-26.753774801
 30
0.0
 11
-24.6144742413
 21
-26.7716710956
 31
0.0
  0
LINE
  5
1A0
330
1F
100
AcDbEntity
  8
0
  6
Continuous
 62
     7
370
    15
100
AcDbLine
 10
-24.6144742413
 20
-26.6672735602
 30
0.0
 11
-24.6154726191
 21
-26.6672735602
 31
0.0
  0
LINE
  5
1A1
330
1F
100
AcDbEntity
  8
0
  6
Continuous
 62
     7
370
    15
100
AcDbLine
 10
-24.6144742413
 20
-33.2218622357
 30
0.0
 11
-24.6154726191
 21
-33.2218622357
 31
0.0
  0
LINE
  5
1A2
330
1F
100
AcDbEntity
  8
0
  6
Continuous
 62
     7
370
    15
100
AcDbLine
 10
-24.6144742413
 20
-24.1309618146
 30
0.0
 11
-24.6154726191
 21
-24.1309618146
 31
0.0
  0
LINE
  5
1A3
330
1F
100
AcDbEntity
  8
0
  6
Continuous
 62
     7
370
    15
100
AcDbLine
 10
-24.6144742413
 20
-25.3343646915
 30
0.0
 11
-24.6154726191
 21
-25.3343646915
 31
0.0
  0
LINE
  5
1A4
330
1F
100
AcDbEntity
  8
0
  6
Continuous
 62
     7
370
    15
100
AcDbLine
 10
-24.6144742413
 20
-20.2948664815
 30
0.0
 11
-24.6154726191
 21
-20.2948664815
 31
0.0
  0
LINE
  5
1A5
330
1F
100
AcDbEntity
  8
0
  6
Continuous
 62
     7
370
    15
100
AcDbLine
 10
-24.6144742413
 20
-20.1460634858
 30
0.0
 11
-24.6154726191
 21
-20.1460634858
 31
0.0
  0
LINE
  5
1A6
330
1F
100
AcDbEntity
  8
0
  6
Continuous
 62
     7
370
    15
100
AcDbLine
 10
-24.6144742413
 20
-3.2219653518
 30
0.0
 11
-24.6154726191
 21
-3.2219653518
 31
0.0
  0
LINE
  5
1A7
330
1F
100
AcDbEntity
  8
0
  6
Continuous
 62
     7
370
    15
100
AcDbLine
 10
-24.6144742413
 20
-3.4332638175
 30
0.0
 11
-24.6154726191
 21
-3.4332638175
 31
0.0
  0
LINE
  5
1A8
330
1F
100
AcDbEntity
  8
0
  6
Continuous
 62
     7
370
    15
100
AcDbLine
 10
-24.6144742413
 20
-16.9131671578
 30
0.0
 11
-24.6154726191
 21
-16.9131671578
 31
0.0
  0
LINE
  5
1A9
330
1F
100
AcDbEntity
  8
0
  6
Continuous
 62
     7
370
    15
100
AcDbLine
 10
-24.6144742413
 20
-17.1244656236
 30
0.0
 11
-24.6154726191
 21
-17.1244656236
 31
0.0
  0
LINE
  5
1AA
330
1F
100
AcDbEntity
  8
0
  6
Continuous
 62
     7
370
    15
100
AcDbLine
 10
-24.6144742413
 20
-3.4332638175
 30
0.0
 11
-24.6144742413
 21
-16.9131671578
 31
0.0
  0
LINE
  5
1AB
330
1F
100
AcDbEntity
  8
0
  6
Continuous
 62
     7
370
    15
100
AcDbLine
 10
-24.6144742413
 20
-18.0548643262
 30
0.0
 11
-24.6154726191
 21
-18.0548643262
 31
0.0
  0
LINE
  5
1AC
330
1F
100
AcDbEntity
  8
0
  6
Continuous
 62
     7
370
    15
100
AcDbLine
 10
-24.6144742413
 20
-17.1244656236
 30
0.0
 11
-24.6144742413
 21
-18.0548643262
 31
0.0
  0
LINE
  5
1AD
330
1F
100
AcDbEntity
  8
0
  6
Continuous
 62
     7
370
    15
100
AcDbLine
 10
-24.6144742413
 20
-18.2664608152
 30
0.0
 11
-24.6154726191
 21
-18.2664608152
 31
0.0
  0
LINE
  5
1AE
330
1F
100
AcDbEntity
  8
0
  6
Continuous
 62
     7
370
    15
100
AcDbLine
 10
-24.6144742413
 20
227.3691306322
 30
0.0
 11
-24.6154726191
 21
227.3691306322
 31
0.0
  0
LINE
  5
1AF
330
1F
100
AcDbEntity
  8
0
  6
Continuous
 62
     7
370
    15
100
AcDbLine
 10
-24.6144742413
 20
223.1398309081
 30
0.0
 11
-24.6154726191
 21
223.1398309081
 31
0.0
  0
LINE
  5
1B0
330
1F
100
AcDbEntity
  8
0
  6
Continuous
 62
     7
370
    15
100
AcDbLine
 10
-24.6144742413
 20
218.9336354344
 30
0.0
 11
-24.6154726191
 21
218.9336354344
 31
0.0
  0
ARC
  5
1B1
330
1F
100
AcDbEntity
  8
0
  6
Continuous
 62
     7
370
    15
100
AcDbCircle
 10
-129.6154715658
 20
266.7780320119
 30
0.0
 40
5.000000000000028
100
AcDbArc
 50
90.0
 51
180.0
  0
LINE
  5
1B2
330
1F
100
AcDbEntity
  8
0
  6
Continuous
 62
     7
370
    15
100
AcDbLine
 10
-129.6154693409
 20
271.7780331581
 30
0.0
 11
-40.8154786273
 21
271.7780331581
 31
0.0
  0
LINE
  5
1B3
330
1F
100
AcDbEntity
  8
0
  6
Continuous
 62
     7
370
    15
100
AcDbLine
 10
-40.8154786273
 20
-78.221968332
 30
0.0
 11
-40.8154786273
 21
271.7780331581
 31
0.0
  0
LINE
  5
1B4
330
1F
100
AcDbEntity
  8
0
  6
Continuous
 62
     7
370
    15
100
AcDbLine
 10
-40.8154786273
 20
-78.221968332
 30
0.0
 11
-120.6154734536
 21
-78.221968332
 31
0.0
  0
ARC
  5
1B5
330
1F
100
AcDbEntity
  8
0
  6
Continuous
 62
     7
370
    15
100
AcDbCircle
 10
-120.6154715658
 20
-64.2219679881
 30
0.0
 40
14.00000000000003
100
AcDbArc
 50
180.0
 51
270.0
  0
LINE
  5
1B6
330
1F
100
AcDbEntity
  8
0
  6
Continuous
 62
     7
370
    15
100
AcDbLine
 10
-134.6154720231
 20
-64.2219697625
 30
0.0
 11
-134.6154720231
 21
266.7780304759
 31
0.0
  0
LINE
  5
1B7
330
1F
100
AcDbEntity
  8
0
  6
Continuous
 62
     7
370
    15
100
AcDbLine
 10
-24.6154726191
 20
-78.221968332
 30
0.0
 11
-40.8154786273
 21
-78.221968332
 31
0.0
  0
LINE
  5
1B8
330
1F
100
AcDbEntity
  8
0
  6
Continuous
 62
     7
370
    15
100
AcDbLine
 10
-40.8154786273
 20
271.7780331581
 30
0.0
 11
-24.6154726191
 21
271.7780331581
 31
0.0
  0
LINE
  5
1B9
330
1F
100
AcDbEntity
  8
0
  6
Continuous
 62
     7
370
    15
100
AcDbLine
 10
-24.6154726191
 20
271.7780331581
 30
0.0
 11
-24.6154726191
 21
-78.221968332
 31
0.0
  0
LINE
  5
1BA
330
1F
100
AcDbEntity
  8
0
  6
Continuous
 62
     7
370
    15
100
AcDbLine
 10
-134.1154710098
 20
-71.9719742925
 30
0.0
 11
-134.1154710098
 21
-67.930064121
 31
0.0
  0
LINE
  5
1BB
330
1F
100
AcDbEntity
  8
0
  6
Continuous
 62
     7
370
    15
100
AcDbLine
 10
-132.2746933146
 20
-71.9719742925
 30
0.0
 11
-134.1154710098
 21
-71.9719742925
 31
0.0
  0
LINE
  5
1BC
330
1F
100
AcDbEntity
  8
0
  6
Continuous
 62
     7
370
    15
100
AcDbLine
 10
-134.1154710098
 20
-71.9719742925
 30
0.0
 11
-134.1154710098
 21
-73.2353692443
 31
0.0
  0
LINE
  5
1BD
330
1F
100
AcDbEntity
  8
0
  6
Continuous
 62
     7
370
    15
100
AcDbLine
 10
-132.1154744073
 20
-72.2063248546
 30
0.0
 11
-132.1154744073
 21
-73.2353692443
 31
0.0
  0
LINE
  5
1BE
330
1F
100
AcDbEntity
  8
0
  6
Continuous
 62
     7
370
    15
100
AcDbLine
 10
-132.1154744073
 20
-73.2353692443
 30
0.0
 11
-134.1154710098
 21
-73.2353692443
 31
0.0
  0
ARC
  5
1BF
330
1F
100
AcDbEntity
  8
0
  6
Continuous
 62
     7
370
    15
100
AcDbCircle
 10
-131.3788715658
 20
-73.2353679881
 30
0.0
 40
0.7366000000000383
100
AcDbArc
 50
180.0
 51
270.0
  0
LINE
  5
1C0
330
1F
100
AcDbEntity
  8
0
  6
Continuous
 62
     7
370
    15
100
AcDbLine
 10
-131.3788727566
 20
-73.9719634444
 30
0.0
 11
-131.3788727566
 21
-75.9719674975
 31
0.0
  0
ARC
  5
1C1
330
1F
100
AcDbEntity
  8
0
  6
Continuous
 62
     7
370
    15
100
AcDbCircle
 10
-131.3788715658
 20
-73.2353679881
 30
0.0
 40
2.736600000000038
100
AcDbArc
 50
180.0
 51
270.0
  0
LINE
  5
1C2
330
1F
100
AcDbEntity
  8
0
  6
Continuous
 62
     7
370
    15
100
AcDbLine
 10
-131.3788727566
 20
-75.9719674975
 30
0.0
 11
-128.2271430536
 21
-75.9719674975
 31
0.0
  0
LINE
  5
1C3
330
1F
100
AcDbEntity
  8
0
  6
Continuous
 62
     7
370
    15
100
AcDbLine
 10
-131.3788727566
 20
-73.9719634444
 30
0.0
 11
-130.6622386619
 21
-73.9719634444
 31
0.0
  0
LINE
  5
1C4
330
1F
100
AcDbEntity
  8
0
  6
Continuous
 62
     7
370
    15
100
AcDbLine
 10
-248.7784089321
 20
207.2780328303
 30
0.0
 11
-250.2784045214
 21
207.2780328303
 31
0.0
  0
LINE
  5
1C5
330
1F
100
AcDbEntity
  8
0
  6
Continuous
 62
     7
370
    15
100
AcDbLine
 10
-250.2784045214
 20
196.2780328899
 30
0.0
 11
-248.7784089321
 21
196.2780328899
 31
0.0
  0
LINE
  5
1C6
330
1F
100
AcDbEntity
  8
0
  6
Continuous
 62
     7
370
    15
100
AcDbLine
 10
-250.2784045214
 20
205.7780335157
 30
0.0
 11
-250.3418089622
 21
205.7146328001
 31
0.0
  0
LINE
  5
1C7
330
1F
100
AcDbEntity
  8
0
  6
Continuous
 62
     7
370
    15
100
AcDbLine
 10
-250.3418089622
 20
197.84143292
 30
0.0
 11
-250.2784045214
 21
197.7780322044
 31
0.0
  0
LINE
  5
1C8
330
1F
100
AcDbEntity
  8
0
  6
Continuous
 62
     7
370
    15
100
AcDbLine
 10
-396.3784040684
 20
196.2780328899
 30
0.0
 11
-394.8784084791
 21
196.2780328899
 31
0.0
  0
LINE
  5
1C9
330
1F
100
AcDbEntity
  8
0
  6
Continuous
 62
     7
370
    15
100
AcDbLine
 10
-394.8784084791
 20
207.2780328303
 30
0.0
 11
-396.3784040684
 21
207.2780328303
 31
0.0
  0
LINE
  5
1CA
330
1F
100
AcDbEntity
  8
0
  6
Continuous
 62
     7
370
    15
100
AcDbLine
 10
-394.8784084791
 20
197.7780322044
 30
0.0
 11
-394.8150040382
 21
197.84143292
 31
0.0
  0
LINE
  5
1CB
330
1F
100
AcDbEntity
  8
0
  6
Continuous
 62
     7
370
    15
100
AcDbLine
 10
-394.8150040382
 20
205.7146328001
 30
0.0
 11
-394.8784084791
 21
205.7780335157
 31
0.0
  0
LINE
  5
1CC
330
1F
100
AcDbEntity
  8
0
  6
Continuous
 62
     7
370
    15
100
AcDbLine
 10
-248.7784089321
 20
207.2780328303
 30
0.0
 11
-250.2784045214
 21
207.2780328303
 31
0.0
  0
LINE
  5
1CD
330
1F
100
AcDbEntity
  8
0
  6
Continuous
 62
     7
370
    15
100
AcDbLine
 10
-250.2784045214
 20
196.2780328899
 30
0.0
 11
-248.7784089321
 21
196.2780328899
 31
0.0
  0
LINE
  5
1CE
330
1F
100
AcDbEntity
  8
0
  6
Continuous
 62
     7
370
    15
100
AcDbLine
 10
-250.2784045214
 20
205.7780335157
 30
0.0
 11
-250.3418089622
 21
205.7146328001
 31
0.0
  0
LINE
  5
1CF
330
1F
100
AcDbEntity
  8
0
  6
Continuous
 62
     7
370
    15
100
AcDbLine
 10
-250.3418089622
 20
197.84143292
 30
0.0
 11
-250.2784045214
 21
197.7780322044
 31
0.0
  0
LINE
  5
1D0
330
1F
100
AcDbEntity
  8
0
  6
Continuous
 62
     7
370
    15
100
AcDbLine
 10
-396.3784040684
 20
196.2780328899
 30
0.0
 11
-394.8784084791
 21
196.2780328899
 31
0.0
  0
LINE
  5
1D1
330
1F
100
AcDbEntity
  8
0
  6
Continuous
 62
     7
370
    15
100
AcDbLine
 10
-394.8784084791
 20
207.2780328303
 30
0.0
 11
-396.3784040684
 21
207.2780328303
 31
0.0
  0
LINE
  5
1D2
330
1F
100
AcDbEntity
  8
0
  6
Continuous
 62
     7
370
    15
100
AcDbLine
 10
-394.8784084791
 20
197.7780322044
 30
0.0
 11
-394.8150040382
 21
197.84143292
 31
0.0
  0
LINE
  5
1D3
330
1F
100
AcDbEntity
  8
0
  6
Continuous
 62
     7
370
    15
100
AcDbLine
 10
-394.8150040382
 20
205.7146328001
 30
0.0
 11
-394.8784084791
 21
205.7780335157
 31
0.0
  0
LINE
  5
1D4
330
1F
100
AcDbEntity
  8
0
  6
Continuous
 62
     7
370
    15
100
AcDbLine
 10
-248.7784089321
 20
-58.721966067
 30
0.0
 11
-250.2784045214
 21
-58.721966067
 31
0.0
  0
LINE
  5
1D5
330
1F
100
AcDbEntity
  8
0
  6
Continuous
 62
     7
370
    15
100
AcDbLine
 10
-250.2784045214
 20
-69.721973458
 30
0.0
 11
-248.7784089321
 21
-69.721973458
 31
0.0
  0
LINE
  5
1D6
330
1F
100
AcDbEntity
  8
0
  6
Continuous
 62
     7
370
    15
100
AcDbLine
 10
-250.2784045214
 20
-60.4719733388
 30
0.0
 11
-250.3418089622
 21
-60.5353628785
 31
0.0
  0
LINE
  5
1D7
330
1F
100
AcDbEntity
  8
0
  6
Continuous
 62
     7
370
    15
100
AcDbLine
 10
-250.3418089622
 20
-67.9085617454
 30
0.0
 11
-250.2784045214
 21
-67.9719661862
 31
0.0
  0
LINE
  5
1D8
330
1F
100
AcDbEntity
  8
0
  6
Continuous
 62
     7
370
    15
100
AcDbLine
 10
-396.3784040684
 20
-69.721973458
 30
0.0
 11
-394.8784084791
 21
-69.721973458
 31
0.0
  0
LINE
  5
1D9
330
1F
100
AcDbEntity
  8
0
  6
Continuous
 62
     7
370
    15
100
AcDbLine
 10
-394.8784084791
 20
-58.721966067
 30
0.0
 11
-396.3784040684
 21
-58.721966067
 31
0.0
  0
LINE
  5
1DA
330
1F
100
AcDbEntity
  8
0
  6
Continuous
 62
     7
370
    15
100
AcDbLine
 10
-394.8784084791
 20
-67.9719661862
 30
0.0
 11
-394.8150040382
 21
-67.9085617454
 31
0.0
  0
LINE
  5
1DB
330
1F
100
AcDbEntity
  8
0
  6
Continuous
 62
     7
370
    15
100
AcDbLine
 10
-394.8150040382
 20
-60.5353628785
 30
0.0
 11
-394.8784084791
 21
-60.4719733388
 31
0.0
  0
LINE
  5
1DC
330
1F
100
AcDbEntity
  8
0
  6
Continuous
 62
     7
370
    15
100
AcDbLine
 10
-250.2784045214
 20
201.7780328601
 30
0.0
 11
-250.2784045214
 21
207.2780328303
 31
0.0
  0
LINE
  5
1DD
330
1F
100
AcDbEntity
  8
0
  6
Continuous
 62
     7
370
    15
100
AcDbLine
 10
-250.2784045214
 20
196.2780328899
 30
0.0
 11
-250.2784045214
 21
201.7780328601
 31
0.0
  0
LINE
  5
1DE
330
1F
100
AcDbEntity
  8
0
  6
Continuous
 62
     7
370
    15
100
AcDbLine
 10
-394.8784084791
 20
207.2780328303
 30
0.0
 11
-394.8784084791
 21
196.2780328899
 31
0.0
  0
LINE
  5
1DF
330
1F
100
AcDbEntity
  8
0
  6
Continuous
 62
     7
370
    15
100
AcDbLine
 10
-250.2784045214
 20
201.825358948
 30
0.0
 11
-250.2784045214
 21
207.2780328303
 31
0.0
  0
LINE
  5
1E0
330
1F
100
AcDbEntity
  8
0
  6
Continuous
 62
     7
370
    15
100
AcDbLine
 10
-250.2784045214
 20
196.2780328899
 30
0.0
 11
-250.2784045214
 21
201.825358948
 31
0.0
  0
LINE
  5
1E1
330
1F
100
AcDbEntity
  8
0
  6
Continuous
 62
     7
370
    15
100
AcDbLine
 10
-394.8784084791
 20
204.565790525
 30
0.0
 11
-394.8784084791
 21
196.2780328899
 31
0.0
  0
LINE
  5
1E2
330
1F
100
AcDbEntity
  8
0
  6
Continuous
 62
     7
370
    15
100
AcDbLine
 10
-394.8784084791
 20
207.2780328303
 30
0.0
 11
-394.8784084791
 21
204.565790525
 31
0.0
  0
LINE
  5
1E3
330
1F
100
AcDbEntity
  8
0
  6
Continuous
 62
     7
370
    15
100
AcDbLine
 10
-250.2784045214
 20
-58.721966067
 30
0.0
 11
-250.2784045214
 21
-69.721973458
 31
0.0
  0
LINE
  5
1E4
330
1F
100
AcDbEntity
  8
0
  6
Continuous
 62
     7
370
    15
100
AcDbLine
 10
-394.8784084791
 20
-64.2219697625
 30
0.0
 11
-394.8784084791
 21
-58.721966067
 31
0.0
  0
LINE
  5
1E5
330
1F
100
AcDbEntity
  8
0
  6
Continuous
 62
     7
370
    15
100
AcDbLine
 10
-394.8784084791
 20
-69.721973458
 30
0.0
 11
-394.8784084791
 21
-64.2219697625
 31
0.0
  0
LINE
  5
1E6
330
1F
100
AcDbEntity
  8
0
  6
Continuous
 62
     7
370
    15
100
AcDbLine
 10
-396.3784040684
 20
266.7780304759
 30
0.0
 11
-397.5784094805
 21
266.7780304759
 31
0.0
  0
LINE
  5
1E7
330
1F
100
AcDbEntity
  8
0
  6
Continuous
 62
     7
370
    15
100
AcDbLine
 10
-396.3784040684
 20
266.7780304759
 30
0.0
 11
-396.3784040684
 21
-64.2219697625
 31
0.0
  0
LINE
  5
1E8
330
1F
100
AcDbEntity
  8
0
  6
Continuous
 62
     7
370
    15
100
AcDbLine
 10
-397.5784094805
 20
-64.2219697625
 30
0.0
 11
-396.3784040684
 21
-64.2219697625
 31
0.0
  0
LINE
  5
1E9
330
1F
100
AcDbEntity
  8
0
  6
Continuous
 62
     7
370
    15
100
AcDbLine
 10
-397.5784094805
 20
266.7780304759
 30
0.0
 11
-397.5784094805
 21
-64.2219697625
 31
0.0
  0
LINE
  5
1EA
330
1F
100
AcDbEntity
  8
0
  6
Continuous
 62
     7
370
    15
100
AcDbLine
 10
-397.5784094805
 20
271.7780331581
 30
0.0
 11
-396.3784040684
 21
271.7780331581
 31
0.0
  0
LINE
  5
1EB
330
1F
100
AcDbEntity
  8
0
  6
Continuous
 62
     7
370
    15
100
AcDbLine
 10
-396.3784040684
 20
271.7780331581
 30
0.0
 11
-396.3784040684
 21
266.7780304759
 31
0.0
  0
LINE
  5
1EC
330
1F
100
AcDbEntity
  8
0
  6
Continuous
 62
     7
370
    15
100
AcDbLine
 10
-397.5784094805
 20
266.7780304759
 30
0.0
 11
-397.5784094805
 21
271.7780331581
 31
0.0
  0
LINE
  5
1ED
330
1F
100
AcDbEntity
  8
0
  6
Continuous
 62
     7
370
    15
100
AcDbLine
 10
-396.3784040684
 20
-78.221968332
 30
0.0
 11
-397.5784094805
 21
-78.221968332
 31
0.0
  0
LINE
  5
1EE
330
1F
100
AcDbEntity
  8
0
  6
Continuous
 62
     7
370
    15
100
AcDbLine
 10
-396.3784040684
 20
-64.2219697625
 30
0.0
 11
-396.3784040684
 21
-78.221968332
 31
0.0
  0
LINE
  5
1EF
330
1F
100
AcDbEntity
  8
0
  6
Continuous
 62
     7
370
    15
100
AcDbLine
 10
-397.5784094805
 20
-78.221968332
 30
0.0
 11
-397.5784094805
 21
-64.2219697625
 31
0.0
  0
LINE
  5
1F0
330
1F
100
AcDbEntity
  8
0
  6
Continuous
 62
     7
370
    15
100
AcDbLine
 10
-247.57840352
 20
266.7780304759
 30
0.0
 11
-248.7784089321
 21
266.7780304759
 31
0.0
  0
LINE
  5
1F1
330
1F
100
AcDbEntity
  8
0
  6
Continuous
 62
     7
370
    15
100
AcDbLine
 10
-248.7784089321
 20
266.7780304759
 30
0.0
 11
-248.7784089321
 21
271.7780331581
 31
0.0
  0
LINE
  5
1F2
330
1F
100
AcDbEntity
  8
0
  6
Continuous
 62
     7
370
    15
100
AcDbLine
 10
-248.7784089321
 20
271.7780331581
 30
0.0
 11
-247.57840352
 21
271.7780331581
 31
0.0
  0
LINE
  5
1F3
330
1F
100
AcDbEntity
  8
0
  6
Continuous
 62
     7
370
    15
100
AcDbLine
 10
-247.57840352
 20
271.7780331581
 30
0.0
 11
-247.57840352
 21
266.7780304759
 31
0.0
  0
LINE
  5
1F4
330
1F
100
AcDbEntity
  8
0
  6
Continuous
 62
     7
370
    15
100
AcDbLine
 10
-247.57840352
 20
-78.221968332
 30
0.0
 11
-248.7784089321
 21
-78.221968332
 31
0.0
  0
LINE
  5
1F5
330
1F
100
AcDbEntity
  8
0
  6
Continuous
 62
     7
370
    15
100
AcDbLine
 10
-248.7784089321
 20
-78.221968332
 30
0.0
 11
-248.7784089321
 21
-64.2219697625
 31
0.0
  0
LINE
  5
1F6
330
1F
100
AcDbEntity
  8
0
  6
Continuous
 62
     7
370
    15
100
AcDbLine
 10
-248.7784089321
 20
-64.2219697625
 30
0.0
 11
-247.57840352
 21
-64.2219697625
 31
0.0
  0
LINE
  5
1F7
330
1F
100
AcDbEntity
  8
0
  6
Continuous
 62
     7
370
    15
100
AcDbLine
 10
-247.57840352
 20
-64.2219697625
 30
0.0
 11
-247.57840352
 21
-78.221968332
 31
0.0
  0
LINE
  5
1F8
330
1F
100
AcDbEntity
  8
0
  6
Continuous
 62
     7
370
    15
100
AcDbLine
 10
-247.57840352
 20
-64.2219697625
 30
0.0
 11
-247.57840352
 21
266.7780304759
 31
0.0
  0
LINE
  5
1F9
330
1F
100
AcDbEntity
  8
0
  6
Continuous
 62
     7
370
    15
100
AcDbLine
 10
-248.7784089321
 20
-64.2219697625
 30
0.0
 11
-248.7784089321
 21
266.7780304759
 31
0.0
  0
LINE
  5
1FA
330
1F
100
AcDbEntity
  8
0
  6
Continuous
 62
     7
370
    15
100
AcDbLine
 10
-381.3784034723
 20
271.7780331581
 30
0.0
 11
-396.3784040684
 21
271.7780331581
 31
0.0
  0
LINE
  5
1FB
330
1F
100
AcDbEntity
  8
0
  6
Continuous
 62
     7
370
    15
100
AcDbLine
 10
-396.3784040684
 20
-78.221968332
 30
0.0
 11
-381.3784034723
 21
-78.221968332
 31
0.0
  0
LINE
  5
1FC
330
1F
100
AcDbEntity
  8
0
  6
Continuous
 62
     7
370
    15
100
AcDbLine
 10
-248.7784089321
 20
271.7780331581
 30
0.0
 11
-263.7784020776
 21
271.7780331581
 31
0.0
  0
LINE
  5
1FD
330
1F
100
AcDbEntity
  8
0
  6
Continuous
 62
     7
370
    15
100
AcDbLine
 10
-263.7784020776
 20
-78.221968332
 30
0.0
 11
-248.7784089321
 21
-78.221968332
 31
0.0
  0
LINE
  5
1FE
330
1F
100
AcDbEntity
  8
0
  6
Continuous
 62
     7
370
    15
100
AcDbLine
 10
-381.3784034723
 20
271.7780331581
 30
0.0
 11
-263.7784020776
 21
271.7780331581
 31
0.0
  0
LINE
  5
1FF
330
1F
100
AcDbEntity
  8
0
  6
Continuous
 62
     7
370
    15
100
AcDbLine
 10
-263.7784020776
 20
-78.221968332
 30
0.0
 11
-381.3784034723
 21
-78.221968332
 31
0.0
  0
LINE
  5
200
330
1F
100
AcDbEntity
  8
0
  6
Continuous
 62
     7
370
    15
100
AcDbLine
 10
-392.078405785
 20
-73.2353692443
 30
0.0
 11
-392.078405785
 21
-71.9719742925
 31
0.0
  0
LINE
  5
201
330
1F
100
AcDbEntity
  8
0
  6
Continuous
 62
     7
370
    15
100
AcDbLine
 10
-392.078405785
 20
236.0280314892
 30
0.0
 11
-392.078405785
 21
-71.9719742925
 31
0.0
  0
LINE
  5
202
330
1F
100
AcDbEntity
  8
0
  6
Continuous
 62
     7
370
    15
100
AcDbLine
 10
-392.078405785
 20
236.0280314892
 30
0.0
 11
-392.078405785
 21
263.291434428
 31
0.0
  0
LINE
  5
203
330
1F
100
AcDbEntity
  8
0
  6
Continuous
 62
     7
370
    15
100
AcDbLine
 10
-253.0784072155
 20
263.291434428
 30
0.0
 11
-392.078405785
 21
263.291434428
 31
0.0
  0
LINE
  5
204
330
1F
100
AcDbEntity
  8
0
  6
Continuous
 62
     7
370
    15
100
AcDbLine
 10
-253.0784072155
 20
263.291434428
 30
0.0
 11
-253.0784072155
 21
236.0280314892
 31
0.0
  0
LINE
  5
205
330
1F
100
AcDbEntity
  8
0
  6
Continuous
 62
     7
370
    15
100
AcDbLine
 10
-253.0784072155
 20
-71.9719742925
 30
0.0
 11
-253.0784072155
 21
236.0280314892
 31
0.0
  0
LINE
  5
206
330
1F
100
AcDbEntity
  8
0
  6
Continuous
 62
     7
370
    15
100
AcDbLine
 10
-253.0784072155
 20
-71.9719742925
 30
0.0
 11
-253.0784072155
 21
-73.2353692443
 31
0.0
  0
LINE
  5
207
330
1F
100
AcDbEntity
  8
0
  6
Continuous
 62
     7
370
    15
100
AcDbLine
 10
-392.078405785
 20
-73.2353692443
 30
0.0
 11
-253.0784072155
 21
-73.2353692443
 31
0.0
  0
CIRCLE
  5
208
330
1F
100
AcDbEntity
  8
0
  6
Continuous
 62
     7
370
    15
100
AcDbCircle
 10
-273.0784054586
 20
235.0280320119
 30
0.0
 40
3.0
  0
CIRCLE
  5
209
330
1F
100
AcDbEntity
  8
0
  6
Continuous
 62
     7
370
    15
100
AcDbCircle
 10
-372.0784054586
 20
235.0280320119
 30
0.0
 40
3.0
  0
CIRCLE
  5
20A
330
1F
100
AcDbEntity
  8
0
  6
Continuous
 62
     7
370
    15
100
AcDbCircle
 10
-286.5784054586
 20
45.0280320119
 30
0.0
 40
3.0
  0
CIRCLE
  5
20B
330
1F
100
AcDbEntity
  8
0
  6
Continuous
 62
     7
370
    15
100
AcDbCircle
 10
-358.5784054586
 20
45.0280320119
 30
0.0
 40
3.0
  0
LINE
  5
20C
330
1F
100
AcDbEntity
  8
0
  6
Continuous
 62
     7
370
    15
100
AcDbLine
 10
-394.8150040382
 20
-71.9719742925
 30
0.0
 11
-394.8150040382
 21
236.0280314892
 31
0.0
  0
LINE
  5
20D
330
1F
100
AcDbEntity
  8
0
  6
Continuous
 62
     7
370
    15
100
AcDbLine
 10
-394.8150040382
 20
236.0280314892
 30
0.0
 11
-392.078405785
 21
236.0280314892
 31
0.0
  0
LINE
  5
20E
330
1F
100
AcDbEntity
  8
0
  6
Continuous
 62
     7
370
    15
100
AcDbLine
 10
-392.078405785
 20
-71.9719742925
 30
0.0
 11
-394.8150040382
 21
-71.9719742925
 31
0.0
  0
LINE
  5
20F
330
1F
100
AcDbEntity
  8
0
  6
Continuous
 62
     7
370
    15
100
AcDbLine
 10
-253.0784072155
 20
236.0280314892
 30
0.0
 11
-250.3418089622
 21
236.0280314892
 31
0.0
  0
LINE
  5
210
330
1F
100
AcDbEntity
  8
0
  6
Continuous
 62
     7
370
    15
100
AcDbLine
 10
-250.3418089622
 20
236.0280314892
 30
0.0
 11
-250.3418089622
 21
-71.9719742925
 31
0.0
  0
LINE
  5
211
330
1F
100
AcDbEntity
  8
0
  6
Continuous
 62
     7
370
    15
100
AcDbLine
 10
-250.3418089622
 20
-71.9719742925
 30
0.0
 11
-253.0784072155
 21
-71.9719742925
 31
0.0
  0
LINE
  5
212
330
1F
100
AcDbEntity
  8
0
  6
Continuous
 62
     7
370
    15
100
AcDbLine
 10
-253.0784072155
 20
-73.2353692443
 30
0.0
 11
-253.0784072155
 21
-75.9719674975
 31
0.0
  0
LINE
  5
213
330
1F
100
AcDbEntity
  8
0
  6
Continuous
 62
     7
370
    15
100
AcDbLine
 10
-253.0784072155
 20
-75.9719674975
 30
0.0
 11
-392.078405785
 21
-75.9719674975
 31
0.0
  0
LINE
  5
214
330
1F
100
AcDbEntity
  8
0
  6
Continuous
 62
     7
370
    15
100
AcDbLine
 10
-392.078405785
 20
-75.9719674975
 30
0.0
 11
-392.078405785
 21
-73.2353692443
 31
0.0
  0
LINE
  5
215
330
1F
100
AcDbEntity
  8
0
  6
Continuous
 62
     7
370
    15
100
AcDbLine
 10
-392.078405785
 20
266.0280326813
 30
0.0
 11
-253.0784072155
 21
266.0280326813
 31
0.0
  0
LINE
  5
216
330
1F
100
AcDbEntity
  8
0
  6
Continuous
 62
     7
370
    15
100
AcDbLine
 10
-253.0784072155
 20
266.0280326813
 30
0.0
 11
-253.0784072155
 21
263.291434428
 31
0.0
  0
LINE
  5
217
330
1F
100
AcDbEntity
  8
0
  6
Continuous
 62
     7
370
    15
100
AcDbLine
 10
-392.078405785
 20
263.291434428
 30
0.0
 11
-392.078405785
 21
266.0280326813
 31
0.0
  0
CIRCLE
  5
218
330
1F
100
AcDbEntity
  8
0
  6
Continuous
 62
     7
370
    15
100
AcDbCircle
 10
-286.5784054586
 20
45.0280320119
 30
0.0
 40
2.749999999999943
  0
CIRCLE
  5
219
330
1F
100
AcDbEntity
  8
0
  6
Continuous
 62
     7
370
    15
100
AcDbCircle
 10
-358.5784054586
 20
45.0280320119
 30
0.0
 40
2.75
  0
LINE
  5
21A
330
1F
100
AcDbEntity
  8
0
  6
Continuous
 62
     8
370
    15
100
AcDbLine
 10
-381.3784034723
 20
-78.221968332
 30
0.0
 11
-381.3784034723
 21
-75.9719674975
 31
0.0
  0
LINE
  5
21B
330
1F
100
AcDbEntity
  8
0
  6
Continuous
 62
     8
370
    15
100
AcDbLine
 10
-381.3784034723
 20
266.0280326813
 30
0.0
 11
-381.3784034723
 21
271.7780331581
 31
0.0
  0
LINE
  5
21C
330
1F
100
AcDbEntity
  8
0
  6
Continuous
 62
     8
370
    15
100
AcDbLine
 10
-263.7784020776
 20
271.7780331581
 30
0.0
 11
-263.7784020776
 21
266.0280326813
 31
0.0
  0
LINE
  5
21D
330
1F
100
AcDbEntity
  8
0
  6
Continuous
 62
     8
370
    15
100
AcDbLine
 10
-263.7784020776
 20
-75.9719674975
 30
0.0
 11
-263.7784020776
 21
-78.221968332
 31
0.0
  0
LINE
  5
21E
330
1F
100
AcDbEntity
  8
0
  6
Continuous
 62
     8
370
    15
100
AcDbLine
 10
-360.8832867617
 20
43.528028807
 30
0.0
 11
-356.2735231394
 21
43.528028807
 31
0.0
  0
LINE
  5
21F
330
1F
100
AcDbEntity
  8
0
  6
Continuous
 62
     8
370
    15
100
AcDbLine
 10
-288.8832898611
 20
43.528028807
 30
0.0
 11
-284.2735262388
 21
43.528028807
 31
0.0
  0
LINE
  5
220
330
1F
100
AcDbEntity
  8
0
  6
Continuous
 62
     7
370
    15
100
AcDbLine
 10
87.5467749602
 20
-252.6651366821
 30
0.0
 11
87.6101794011
 21
-252.6017322412
 31
0.0
  0
LINE
  5
221
330
1F
100
AcDbEntity
  8
0
  6
Continuous
 62
     7
370
    15
100
AcDbLine
 10
87.6101794011
 20
-244.7285323611
 30
0.0
 11
87.5467749602
 21
-244.6651353708
 31
0.0
  0
LINE
  5
222
330
1F
100
AcDbEntity
  8
0
  6
Continuous
 62
     7
370
    15
100
AcDbLine
 10
232.1467789179
 20
-244.6651353708
 30
0.0
 11
232.0833744771
 21
-244.7285323611
 31
0.0
  0
LINE
  5
223
330
1F
100
AcDbEntity
  8
0
  6
Continuous
 62
     7
370
    15
100
AcDbLine
 10
232.0833744771
 20
-252.6017322412
 30
0.0
 11
232.1467789179
 21
-252.6651366821
 31
0.0
  0
LINE
  5
224
330
1F
100
AcDbEntity
  8
0
  6
Continuous
 62
     7
370
    15
100
AcDbLine
 10
87.5467749602
 20
-252.6651366821
 30
0.0
 11
87.6101794011
 21
-252.6017322412
 31
0.0
  0
LINE
  5
225
330
1F
100
AcDbEntity
  8
0
  6
Continuous
 62
     7
370
    15
100
AcDbLine
 10
87.6101794011
 20
-244.7285323611
 30
0.0
 11
87.5467749602
 21
-244.6651353708
 31
0.0
  0
LINE
  5
226
330
1F
100
AcDbEntity
  8
0
  6
Continuous
 62
     7
370
    15
100
AcDbLine
 10
232.1467789179
 20
-244.6651353708
 30
0.0
 11
232.0833744771
 21
-244.7285323611
 31
0.0
  0
LINE
  5
227
330
1F
100
AcDbEntity
  8
0
  6
Continuous
 62
     7
370
    15
100
AcDbLine
 10
232.0833744771
 20
-252.6017322412
 30
0.0
 11
232.1467789179
 21
-252.6651366821
 31
0.0
  0
LINE
  5
228
330
1F
100
AcDbEntity
  8
0
  6
Continuous
 62
     7
370
    15
100
AcDbLine
 10
86.0467793709
 20
-254.1651322713
 30
0.0
 11
87.5467749602
 21
-254.1651322713
 31
0.0
  0
LINE
  5
229
330
1F
100
AcDbEntity
  8
0
  6
Continuous
 62
     7
370
    15
100
AcDbLine
 10
87.5467749602
 20
-243.1651323309
 30
0.0
 11
86.0467793709
 21
-243.1651323309
 31
0.0
  0
LINE
  5
22A
330
1F
100
AcDbEntity
  8
0
  6
Continuous
 62
     7
370
    15
100
AcDbLine
 10
87.5467749602
 20
-252.4151324502
 30
0.0
 11
87.6101794011
 21
-252.3517354599
 31
0.0
  0
LINE
  5
22B
330
1F
100
AcDbEntity
  8
0
  6
Continuous
 62
     7
370
    15
100
AcDbLine
 10
87.6101794011
 20
-244.978536593
 30
0.0
 11
87.5467749602
 21
-244.9151321521
 31
0.0
  0
LINE
  5
22C
330
1F
100
AcDbEntity
  8
0
  6
Continuous
 62
     7
370
    15
100
AcDbLine
 10
89.6101760036
 20
-251.9151314369
 30
0.0
 11
90.3467776543
 21
-251.9151314369
 31
0.0
  0
LINE
  5
22D
330
1F
100
AcDbEntity
  8
0
  6
Continuous
 62
     7
370
    15
100
AcDbLine
 10
90.3467776543
 20
-245.4151331654
 30
0.0
 11
89.6101760036
 21
-245.4151331654
 31
0.0
  0
LINE
  5
22E
330
1F
100
AcDbEntity
  8
0
  6
Continuous
 62
     7
370
    15
100
AcDbLine
 10
233.6467745072
 20
-243.1651323309
 30
0.0
 11
232.1467789179
 21
-243.1651323309
 31
0.0
  0
LINE
  5
22F
330
1F
100
AcDbEntity
  8
0
  6
Continuous
 62
     7
370
    15
100
AcDbLine
 10
232.1467789179
 20
-254.1651322713
 30
0.0
 11
233.6467745072
 21
-254.1651322713
 31
0.0
  0
LINE
  5
230
330
1F
100
AcDbEntity
  8
0
  6
Continuous
 62
     7
370
    15
100
AcDbLine
 10
232.1467789179
 20
-244.9151321521
 30
0.0
 11
232.0833744771
 21
-244.978536593
 31
0.0
  0
LINE
  5
231
330
1F
100
AcDbEntity
  8
0
  6
Continuous
 62
     7
370
    15
100
AcDbLine
 10
232.0833744771
 20
-252.3517354599
 30
0.0
 11
232.1467789179
 21
-252.4151324502
 31
0.0
  0
LINE
  5
232
330
1F
100
AcDbEntity
  8
0
  6
Continuous
 62
     7
370
    15
100
AcDbLine
 10
230.083370424
 20
-245.4151331654
 30
0.0
 11
229.3467762238
 21
-245.4151331654
 31
0.0
  0
LINE
  5
233
330
1F
100
AcDbEntity
  8
0
  6
Continuous
 62
     7
370
    15
100
AcDbLine
 10
229.3467762238
 20
-251.9151314369
 30
0.0
 11
230.083370424
 21
-251.9151314369
 31
0.0
  0
LINE
  5
234
330
1F
100
AcDbEntity
  8
0
  6
Continuous
 62
     7
370
    15
100
AcDbLine
 10
160.4458781249
 20
-152.6641368142
 30
0.0
 11
160.4458781249
 21
-152.665135192
 31
0.0
  0
LINE
  5
235
330
1F
100
AcDbEntity
  8
0
  6
Continuous
 62
     7
370
    15
100
AcDbLine
 10
160.6166752345
 20
-152.6641368142
 30
0.0
 11
160.6166752345
 21
-152.665135192
 31
0.0
  0
LINE
  5
236
330
1F
100
AcDbEntity
  8
0
  6
Continuous
 62
     7
370
    15
100
AcDbLine
 10
160.655269242
 20
-152.6641368142
 30
0.0
 11
160.655269242
 21
-152.665135192
 31
0.0
  0
LINE
  5
237
330
1F
100
AcDbEntity
  8
0
  6
Continuous
 62
     7
370
    15
100
AcDbLine
 10
160.8468832738
 20
-152.6641368142
 30
0.0
 11
160.8468832738
 21
-152.665135192
 31
0.0
  0
LINE
  5
238
330
1F
100
AcDbEntity
  8
0
  6
Continuous
 62
     7
370
    15
100
AcDbLine
 10
154.3590816027
 20
-152.6641368142
 30
0.0
 11
154.3590816027
 21
-152.665135192
 31
0.0
  0
LINE
  5
239
330
1F
100
AcDbEntity
  8
0
  6
Continuous
 62
     7
370
    15
100
AcDbLine
 10
167.1451719767
 20
-152.6641368142
 30
0.0
 11
167.1451719767
 21
-152.665135192
 31
0.0
  0
LINE
  5
23A
330
1F
100
AcDbEntity
  8
0
  6
Continuous
 62
     7
370
    15
100
AcDbLine
 10
152.2365751034
 20
-152.6641368142
 30
0.0
 11
152.2365751034
 21
-152.665135192
 31
0.0
  0
LINE
  5
23B
330
1F
100
AcDbEntity
  8
0
  6
Continuous
 62
     7
370
    15
100
AcDbLine
 10
152.531975723
 20
-152.6641368142
 30
0.0
 11
152.531975723
 21
-152.665135192
 31
0.0
  0
LINE
  5
23C
330
1F
100
AcDbEntity
  8
0
  6
Continuous
 62
     7
370
    15
100
AcDbLine
 10
152.6151689059
 20
-152.6641368142
 30
0.0
 11
152.6151689059
 21
-152.665135192
 31
0.0
  0
LINE
  5
23D
330
1F
100
AcDbEntity
  8
0
  6
Continuous
 62
     7
370
    15
100
AcDbLine
 10
152.6388766534
 20
-152.6641368142
 30
0.0
 11
152.6388766534
 21
-152.665135192
 31
0.0
  0
LINE
  5
23E
330
1F
100
AcDbEntity
  8
0
  6
Continuous
 62
     7
370
    15
100
AcDbLine
 10
152.6151689059
 20
-152.6641368142
 30
0.0
 11
152.6388766534
 21
-152.6641368142
 31
0.0
  0
LINE
  5
23F
330
1F
100
AcDbEntity
  8
0
  6
Continuous
 62
     7
370
    15
100
AcDbLine
 10
152.6388766534
 20
-152.6641368142
 30
0.0
 11
154.3590816027
 21
-152.6641368142
 31
0.0
  0
LINE
  5
240
330
1F
100
AcDbEntity
  8
0
  6
Continuous
 62
     7
370
    15
100
AcDbLine
 10
151.5776755578
 20
-152.6641368142
 30
0.0
 11
151.5776755578
 21
-152.665135192
 31
0.0
  0
LINE
  5
241
330
1F
100
AcDbEntity
  8
0
  6
Continuous
 62
     7
370
    15
100
AcDbLine
 10
151.5776755578
 20
-152.6641368142
 30
0.0
 11
152.2365751034
 21
-152.6641368142
 31
0.0
  0
LINE
  5
242
330
1F
100
AcDbEntity
  8
0
  6
Continuous
 62
     7
370
    15
100
AcDbLine
 10
151.5738757617
 20
-152.6641368142
 30
0.0
 11
151.5738757617
 21
-152.665135192
 31
0.0
  0
LINE
  5
243
330
1F
100
AcDbEntity
  8
0
  6
Continuous
 62
     7
370
    15
100
AcDbLine
 10
151.5738757617
 20
-152.6641368142
 30
0.0
 11
151.5776755578
 21
-152.6641368142
 31
0.0
  0
LINE
  5
244
330
1F
100
AcDbEntity
  8
0
  6
Continuous
 62
     7
370
    15
100
AcDbLine
 10
87.5467749602
 20
-254.1651322713
 30
0.0
 11
87.5467749602
 21
-243.1651323309
 31
0.0
  0
LINE
  5
245
330
1F
100
AcDbEntity
  8
0
  6
Continuous
 62
     7
370
    15
100
AcDbLine
 10
232.1467789179
 20
-243.1651323309
 30
0.0
 11
232.1467789179
 21
-254.1651322713
 31
0.0
  0
LINE
  5
246
330
1F
100
AcDbEntity
  8
0
  6
Continuous
 62
     7
370
    15
100
AcDbLine
 10
234.8467799193
 20
-262.6651345959
 30
0.0
 11
233.6467745072
 21
-262.6651345959
 31
0.0
  0
LINE
  5
247
330
1F
100
AcDbEntity
  8
0
  6
Continuous
 62
     7
370
    15
100
AcDbLine
 10
233.6467745072
 20
-248.6651360264
 30
0.0
 11
234.8467799193
 21
-248.6651360264
 31
0.0
  0
LINE
  5
248
330
1F
100
AcDbEntity
  8
0
  6
Continuous
 62
     7
370
    15
100
AcDbLine
 10
233.6467745072
 20
-262.6651345959
 30
0.0
 11
233.6467745072
 21
-248.6651360264
 31
0.0
  0
LINE
  5
249
330
1F
100
AcDbEntity
  8
0
  6
Continuous
 62
     7
370
    15
100
AcDbLine
 10
234.8467799193
 20
-248.6651360264
 30
0.0
 11
234.8467799193
 21
-262.6651345959
 31
0.0
  0
LINE
  5
24A
330
1F
100
AcDbEntity
  8
0
  6
Continuous
 62
     7
370
    15
100
AcDbLine
 10
84.8467739588
 20
-248.6651360264
 30
0.0
 11
86.0467793709
 21
-248.6651360264
 31
0.0
  0
LINE
  5
24B
330
1F
100
AcDbEntity
  8
0
  6
Continuous
 62
     7
370
    15
100
AcDbLine
 10
86.0467793709
 20
-248.6651360264
 30
0.0
 11
86.0467793709
 21
-262.6651345959
 31
0.0
  0
LINE
  5
24C
330
1F
100
AcDbEntity
  8
0
  6
Continuous
 62
     7
370
    15
100
AcDbLine
 10
86.0467793709
 20
-262.6651345959
 30
0.0
 11
84.8467739588
 21
-262.6651345959
 31
0.0
  0
LINE
  5
24D
330
1F
100
AcDbEntity
  8
0
  6
Continuous
 62
     7
370
    15
100
AcDbLine
 10
84.8467739588
 20
-262.6651345959
 30
0.0
 11
84.8467739588
 21
-248.6651360264
 31
0.0
  0
LINE
  5
24E
330
1F
100
AcDbEntity
  8
0
  6
Continuous
 62
     7
370
    15
100
AcDbLine
 10
233.6467745072
 20
-168.8651412001
 30
0.0
 11
234.8467799193
 21
-168.8651412001
 31
0.0
  0
LINE
  5
24F
330
1F
100
AcDbEntity
  8
0
  6
Continuous
 62
     7
370
    15
100
AcDbLine
 10
233.6467745072
 20
-248.6651360264
 30
0.0
 11
233.6467745072
 21
-168.8651412001
 31
0.0
  0
LINE
  5
250
330
1F
100
AcDbEntity
  8
0
  6
Continuous
 62
     7
370
    15
100
AcDbLine
 10
234.8467799193
 20
-248.6651360264
 30
0.0
 11
234.8467799193
 21
-168.8651412001
 31
0.0
  0
LINE
  5
251
330
1F
100
AcDbEntity
  8
0
  6
Continuous
 62
     7
370
    15
100
AcDbLine
 10
86.0467793709
 20
-168.8651412001
 30
0.0
 11
84.8467739588
 21
-168.8651412001
 31
0.0
  0
LINE
  5
252
330
1F
100
AcDbEntity
  8
0
  6
Continuous
 62
     7
370
    15
100
AcDbLine
 10
86.0467793709
 20
-168.8651412001
 30
0.0
 11
86.0467793709
 21
-248.6651360264
 31
0.0
  0
LINE
  5
253
330
1F
100
AcDbEntity
  8
0
  6
Continuous
 62
     7
370
    15
100
AcDbLine
 10
84.8467739588
 20
-168.8651412001
 30
0.0
 11
84.8467739588
 21
-248.6651360264
 31
0.0
  0
LINE
  5
254
330
1F
100
AcDbEntity
  8
0
  6
Continuous
 62
     7
370
    15
100
AcDbLine
 10
101.0467725164
 20
-153.8651406041
 30
0.0
 11
101.0467725164
 21
-152.665135192
 31
0.0
  0
ARC
  5
255
330
1F
100
AcDbEntity
  8
0
  6
Continuous
 62
     7
370
    15
100
AcDbCircle
 10
101.0467758974
 20
-168.8651341386
 30
0.0
 40
16.19999999999999
100
AcDbArc
 50
90.0
 51
180.0
  0
ARC
  5
256
330
1F
100
AcDbEntity
  8
0
  6
Continuous
 62
     7
370
    15
100
AcDbCircle
 10
101.0467758974
 20
-168.8651341386
 30
0.0
 40
14.99999999999997
100
AcDbArc
 50
90.0
 51
180.0
  0
LINE
  5
257
330
1F
100
AcDbEntity
  8
0
  6
Continuous
 62
     7
370
    15
100
AcDbLine
 10
218.6467739112
 20
-153.8651406041
 30
0.0
 11
218.6467739112
 21
-152.665135192
 31
0.0
  0
ARC
  5
258
330
1F
100
AcDbEntity
  8
0
  6
Continuous
 62
     7
370
    15
100
AcDbCircle
 10
218.6467758974
 20
-168.8651341386
 30
0.0
 40
16.20000000000005
100
AcDbArc
 50
0.0
 51
90.0
  0
ARC
  5
259
330
1F
100
AcDbEntity
  8
0
  6
Continuous
 62
     7
370
    15
100
AcDbCircle
 10
218.6467758974
 20
-168.8651341386
 30
0.0
 40
15.00000000000003
100
AcDbArc
 50
0.0
 51
90.0
  0
LINE
  5
25A
330
1F
100
AcDbEntity
  8
0
  6
Continuous
 62
     7
370
    15
100
AcDbLine
 10
101.0467725164
 20
-152.665135192
 30
0.0
 11
218.6467739112
 21
-152.665135192
 31
0.0
  0
LINE
  5
25B
330
1F
100
AcDbEntity
  8
0
  6
Continuous
 62
     7
370
    15
100
AcDbLine
 10
101.0467725164
 20
-153.8651406041
 30
0.0
 11
218.6467739112
 21
-153.8651406041
 31
0.0
  0
LINE
  5
25C
330
1F
100
AcDbEntity
  8
0
  6
Continuous
 62
     7
370
    15
100
AcDbLine
 10
90.3467776543
 20
-259.4285353294
 30
0.0
 11
229.3467762238
 21
-259.4285353294
 31
0.0
  0
LINE
  5
25D
330
1F
100
AcDbEntity
  8
0
  6
Continuous
 62
     7
370
    15
100
AcDbLine
 10
90.3467776543
 20
-259.4285353294
 30
0.0
 11
90.3467776543
 21
-232.9017340413
 31
0.0
  0
LINE
  5
25E
330
1F
100
AcDbEntity
  8
0
  6
Continuous
 62
     7
370
    15
100
AcDbLine
 10
229.3467762238
 20
-232.9017340413
 30
0.0
 11
90.3467776543
 21
-232.9017340413
 31
0.0
  0
LINE
  5
25F
330
1F
100
AcDbEntity
  8
0
  6
Continuous
 62
     7
370
    15
100
AcDbLine
 10
229.3467762238
 20
-232.9017340413
 30
0.0
 11
229.3467762238
 21
-259.4285353294
 31
0.0
  0
LINE
  5
260
330
1F
100
AcDbEntity
  8
0
  6
Continuous
 62
     7
370
    15
100
AcDbLine
 10
90.3467776543
 20
-262.1651335826
 30
0.0
 11
90.3467776543
 21
-259.4285353294
 31
0.0
  0
LINE
  5
261
330
1F
100
AcDbEntity
  8
0
  6
Continuous
 62
     7
370
    15
100
AcDbLine
 10
229.3467762238
 20
-262.1651335826
 30
0.0
 11
90.3467776543
 21
-262.1651335826
 31
0.0
  0
LINE
  5
262
330
1F
100
AcDbEntity
  8
0
  6
Continuous
 62
     7
370
    15
100
AcDbLine
 10
229.3467762238
 20
-259.4285353294
 30
0.0
 11
229.3467762238
 21
-262.1651335826
 31
0.0
  0
LINE
  5
263
330
1F
100
AcDbEntity
  8
0
  6
Continuous
 62
     7
370
    15
100
AcDbLine
 10
90.3467776543
 20
-230.165135788
 30
0.0
 11
229.3467762238
 21
-230.165135788
 31
0.0
  0
LINE
  5
264
330
1F
100
AcDbEntity
  8
0
  6
Continuous
 62
     7
370
    15
100
AcDbLine
 10
90.3467776543
 20
-232.9017340413
 30
0.0
 11
90.3467776543
 21
-230.165135788
 31
0.0
  0
LINE
  5
265
330
1F
100
AcDbEntity
  8
0
  6
Continuous
 62
     7
370
    15
100
AcDbLine
 10
229.3467762238
 20
-230.165135788
 30
0.0
 11
229.3467762238
 21
-232.9017340413
 31
0.0
  0
LINE
  5
266
330
1F
100
AcDbEntity
  8
0
  6
Continuous
 62
     7
370
    15
100
AcDbLine
 10
89.6101760036
 20
-259.4285353294
 30
0.0
 11
87.6101794011
 21
-259.4285353294
 31
0.0
  0
ARC
  5
267
330
1F
100
AcDbEntity
  8
0
  6
Continuous
 62
     7
370
    15
100
AcDbCircle
 10
90.3467758974
 20
-259.4285341386
 30
0.0
 40
0.7366000000000668
100
AcDbArc
 50
180.0
 51
270.0
  0
ARC
  5
268
330
1F
100
AcDbEntity
  8
0
  6
Continuous
 62
     7
370
    15
100
AcDbCircle
 10
90.3467758974
 20
-259.4285341386
 30
0.0
 40
2.736600000000067
100
AcDbArc
 50
180.0
 51
270.0
  0
LINE
  5
269
330
1F
100
AcDbEntity
  8
0
  6
Continuous
 62
     7
370
    15
100
AcDbLine
 10
230.083370424
 20
-259.4285353294
 30
0.0
 11
232.0833744771
 21
-259.4285353294
 31
0.0
  0
ARC
  5
26A
330
1F
100
AcDbEntity
  8
0
  6
Continuous
 62
     7
370
    15
100
AcDbCircle
 10
229.3467758974
 20
-259.4285341386
 30
0.0
 40
2.736600000000067
100
AcDbArc
 50
270.0
 51
360.0
  0
ARC
  5
26B
330
1F
100
AcDbEntity
  8
0
  6
Continuous
 62
     7
370
    15
100
AcDbCircle
 10
229.3467758974
 20
-259.4285341386
 30
0.0
 40
0.7366000000000668
100
AcDbArc
 50
270.0
 51
360.0
  0
LINE
  5
26C
330
1F
100
AcDbEntity
  8
0
  6
Continuous
 62
     7
370
    15
100
AcDbLine
 10
89.6101760036
 20
-237.1651350728
 30
0.0
 11
87.6101794011
 21
-237.1651350728
 31
0.0
  0
LINE
  5
26D
330
1F
100
AcDbEntity
  8
0
  6
Continuous
 62
     7
370
    15
100
AcDbLine
 10
87.6101794011
 20
-237.1651350728
 30
0.0
 11
87.6101794011
 21
-259.4285353294
 31
0.0
  0
LINE
  5
26E
330
1F
100
AcDbEntity
  8
0
  6
Continuous
 62
     7
370
    15
100
AcDbLine
 10
89.6101760036
 20
-237.1651350728
 30
0.0
 11
89.6101760036
 21
-259.4285353294
 31
0.0
  0
LINE
  5
26F
330
1F
100
AcDbEntity
  8
0
  6
Continuous
 62
     7
370
    15
100
AcDbLine
 10
232.0833744771
 20
-237.1651350728
 30
0.0
 11
230.083370424
 21
-237.1651350728
 31
0.0
  0
LINE
  5
270
330
1F
100
AcDbEntity
  8
0
  6
Continuous
 62
     7
370
    15
100
AcDbLine
 10
230.083370424
 20
-259.4285353294
 30
0.0
 11
230.083370424
 21
-237.1651350728
 31
0.0
  0
LINE
  5
271
330
1F
100
AcDbEntity
  8
0
  6
Continuous
 62
     7
370
    15
100
AcDbLine
 10
232.0833744771
 20
-259.4285353294
 30
0.0
 11
232.0833744771
 21
-237.1651350728
 31
0.0
  0
LINE
  5
272
330
1F
100
AcDbEntity
  8
0
  6
Continuous
 62
     7
370
    15
100
AcDbLine
 10
87.6101794011
 20
-232.1651323905
 30
0.0
 11
89.6101760036
 21
-232.1651323905
 31
0.0
  0
LINE
  5
273
330
1F
100
AcDbEntity
  8
0
  6
Continuous
 62
     7
370
    15
100
AcDbLine
 10
87.6101794011
 20
-237.1651350728
 30
0.0
 11
87.6101794011
 21
-232.1651323905
 31
0.0
  0
LINE
  5
274
330
1F
100
AcDbEntity
  8
0
  6
Continuous
 62
     7
370
    15
100
AcDbLine
 10
89.6101760036
 20
-232.1651323905
 30
0.0
 11
89.6101760036
 21
-237.1651350728
 31
0.0
  0
LINE
  5
275
330
1F
100
AcDbEntity
  8
0
  6
Continuous
 62
     7
370
    15
100
AcDbLine
 10
230.083370424
 20
-232.1651323905
 30
0.0
 11
232.0833744771
 21
-232.1651323905
 31
0.0
  0
LINE
  5
276
330
1F
100
AcDbEntity
  8
0
  6
Continuous
 62
     7
370
    15
100
AcDbLine
 10
230.083370424
 20
-237.1651350728
 30
0.0
 11
230.083370424
 21
-232.1651323905
 31
0.0
  0
LINE
  5
277
330
1F
100
AcDbEntity
  8
0
  6
Continuous
 62
     7
370
    15
100
AcDbLine
 10
232.0833744771
 20
-232.1651323905
 30
0.0
 11
232.0833744771
 21
-237.1651350728
 31
0.0
  0
LINE
  5
278
330
1F
100
AcDbEntity
  8
0
  6
Continuous
 62
     7
370
    15
100
AcDbLine
 10
229.3467762238
 20
-229.4285341373
 30
0.0
 11
90.3467776543
 21
-229.4285341373
 31
0.0
  0
LINE
  5
279
330
1F
100
AcDbEntity
  8
0
  6
Continuous
 62
     7
370
    15
100
AcDbLine
 10
229.3467762238
 20
-230.165135788
 30
0.0
 11
229.3467762238
 21
-229.4285341373
 31
0.0
  0
LINE
  5
27A
330
1F
100
AcDbEntity
  8
0
  6
Continuous
 62
     7
370
    15
100
AcDbLine
 10
90.3467776543
 20
-229.4285341373
 30
0.0
 11
90.3467776543
 21
-230.165135788
 31
0.0
  0
ARC
  5
27B
330
1F
100
AcDbEntity
  8
0
  6
Continuous
 62
     7
370
    15
100
AcDbCircle
 10
157.3467758974
 20
-190.9934714649
 30
0.0
 40
5.0
100
AcDbArc
 50
180.0
 51
270.0
  0
LINE
  5
27C
330
1F
100
AcDbEntity
  8
0
  6
Continuous
 62
     7
370
    15
100
AcDbLine
 10
157.3467793233
 20
-195.9934651127
 30
0.0
 11
162.3467745549
 21
-195.9934651127
 31
0.0
  0
ARC
  5
27D
330
1F
100
AcDbEntity
  8
0
  6
Continuous
 62
     7
370
    15
100
AcDbCircle
 10
162.3467758974
 20
-190.9934714649
 30
0.0
 40
5.0
100
AcDbArc
 50
270.0
 51
0.0
  0
LINE
  5
27E
330
1F
100
AcDbEntity
  8
0
  6
Continuous
 62
     7
370
    15
100
AcDbLine
 10
167.3467697865
 20
-190.9934698811
 30
0.0
 11
167.3467697865
 21
-172.1651374569
 31
0.0
  0
ARC
  5
27F
330
1F
100
AcDbEntity
  8
0
  6
Continuous
 62
     7
370
    15
100
AcDbCircle
 10
172.3467758974
 20
-172.1651341386
 30
0.0
 40
5.000000000000028
100
AcDbArc
 50
90.0
 51
180.0
  0
LINE
  5
280
330
1F
100
AcDbEntity
  8
0
  6
Continuous
 62
     7
370
    15
100
AcDbLine
 10
219.3467708594
 20
-167.1651273242
 30
0.0
 11
172.3467799193
 21
-167.1651273242
 31
0.0
  0
ARC
  5
281
330
1F
100
AcDbEntity
  8
0
  6
Continuous
 62
     7
370
    15
100
AcDbCircle
 10
219.3467758974
 20
-177.1651341386
 30
0.0
 40
10.00000000000003
100
AcDbArc
 50
0.0
 51
90.0
  0
LINE
  5
282
330
1F
100
AcDbEntity
  8
0
  6
Continuous
 62
     7
370
    15
100
AcDbLine
 10
229.3467762238
 20
-229.4285341373
 30
0.0
 11
229.3467762238
 21
-177.1651326886
 31
0.0
  0
LINE
  5
283
330
1F
100
AcDbEntity
  8
0
  6
Continuous
 62
     7
370
    15
100
AcDbLine
 10
90.3467776543
 20
-177.1651326886
 30
0.0
 11
90.3467776543
 21
-229.4285341373
 31
0.0
  0
ARC
  5
284
330
1F
100
AcDbEntity
  8
0
  6
Continuous
 62
     7
370
    15
100
AcDbCircle
 10
100.3467758974
 20
-177.1651341386
 30
0.0
 40
10.00000000000003
100
AcDbArc
 50
90.0
 51
180.0
  0
LINE
  5
285
330
1F
100
AcDbEntity
  8
0
  6
Continuous
 62
     7
370
    15
100
AcDbLine
 10
147.3467739588
 20
-167.1651273242
 30
0.0
 11
100.3467755682
 21
-167.1651273242
 31
0.0
  0
ARC
  5
286
330
1F
100
AcDbEntity
  8
0
  6
Continuous
 62
     7
370
    15
100
AcDbCircle
 10
147.3467758974
 20
-172.1651341386
 30
0.0
 40
5.000000000000028
100
AcDbArc
 50
0.0
 51
90.0
  0
LINE
  5
287
330
1F
100
AcDbEntity
  8
0
  6
Continuous
 62
     7
370
    15
100
AcDbLine
 10
152.3467691905
 20
-172.1651374569
 30
0.0
 11
152.3467691905
 21
-190.9934698811
 31
0.0
  0
ARC
  5
288
330
1F
100
AcDbEntity
  8
0
  6
Continuous
 62
     7
370
    15
100
AcDbCircle
 10
140.6101758974
 20
-202.6651341386
 30
0.0
 40
5.0
100
AcDbArc
 50
270.0
 51
0.0
  0
LINE
  5
289
330
1F
100
AcDbEntity
  8
0
  6
Continuous
 62
     7
370
    15
100
AcDbLine
 10
145.6101777322
 20
-202.6651322117
 30
0.0
 11
145.6101777322
 21
-187.6651316157
 31
0.0
  0
ARC
  5
28A
330
1F
100
AcDbEntity
  8
0
  6
Continuous
 62
     7
370
    15
100
AcDbCircle
 10
140.6101758974
 20
-187.6651341386
 30
0.0
 40
5.0
100
AcDbArc
 50
0.0
 51
90.0
  0
LINE
  5
28B
330
1F
100
AcDbEntity
  8
0
  6
Continuous
 62
     7
370
    15
100
AcDbLine
 10
140.6101825005
 20
-182.6651363841
 30
0.0
 11
132.1101727254
 21
-182.6651363841
 31
0.0
  0
ARC
  5
28C
330
1F
100
AcDbEntity
  8
0
  6
Continuous
 62
     7
370
    15
100
AcDbCircle
 10
132.1101758974
 20
-187.6651341386
 30
0.0
 40
5.000000000000014
100
AcDbArc
 50
90.0
 51
180.0
  0
LINE
  5
28D
330
1F
100
AcDbEntity
  8
0
  6
Continuous
 62
     7
370
    15
100
AcDbLine
 10
127.1101774937
 20
-187.6651316157
 30
0.0
 11
127.1101774937
 21
-202.6651322117
 31
0.0
  0
ARC
  5
28E
330
1F
100
AcDbEntity
  8
0
  6
Continuous
 62
     7
370
    15
100
AcDbCircle
 10
132.1101758974
 20
-202.6651341386
 30
0.0
 40
5.000000000000014
100
AcDbArc
 50
180.0
 51
270.0
  0
LINE
  5
28F
330
1F
100
AcDbEntity
  8
0
  6
Continuous
 62
     7
370
    15
100
AcDbLine
 10
132.1101727254
 20
-207.6651348939
 30
0.0
 11
140.6101825005
 21
-207.6651348939
 31
0.0
  0
CIRCLE
  5
290
330
1F
100
AcDbEntity
  8
0
  6
Continuous
 62
     7
370
    15
100
AcDbCircle
 10
135.8601758974
 20
-217.1651341386
 30
0.0
 40
4.0
  0
ARC
  5
291
330
1F
100
AcDbEntity
  8
0
  6
Continuous
 62
     7
370
    15
100
AcDbCircle
 10
100.3467758974
 20
-167.1651341386
 30
0.0
 40
10.00000000000001
100
AcDbArc
 50
90.0
 51
180.0
  0
LINE
  5
292
330
1F
100
AcDbEntity
  8
0
  6
Continuous
 62
     7
370
    15
100
AcDbLine
 10
219.3467708594
 20
-157.1651368609
 30
0.0
 11
100.3467755682
 21
-157.1651368609
 31
0.0
  0
ARC
  5
293
330
1F
100
AcDbEntity
  8
0
  6
Continuous
 62
     7
370
    15
100
AcDbCircle
 10
219.3467758974
 20
-167.1651341386
 30
0.0
 40
10.0
100
AcDbArc
 50
0.0
 51
90.0
  0
LINE
  5
294
330
1F
100
AcDbEntity
  8
0
  6
Continuous
 62
     7
370
    15
100
AcDbLine
 10
229.3467762238
 20
-177.1651326886
 30
0.0
 11
229.3467762238
 21
-167.1651273242
 31
0.0
  0
LINE
  5
295
330
1F
100
AcDbEntity
  8
0
  6
Continuous
 62
     7
370
    15
100
AcDbLine
 10
90.3467776543
 20
-167.1651273242
 30
0.0
 11
90.3467776543
 21
-177.1651326886
 31
0.0
  0
CIRCLE
  5
296
330
1F
100
AcDbEntity
  8
0
  6
Continuous
 62
     7
370
    15
100
AcDbCircle
 10
152.8601758974
 20
-202.4151341386
 30
0.0
 40
2.445499999999996
  0
CIRCLE
  5
297
330
1F
100
AcDbEntity
  8
0
  6
Continuous
 62
     7
370
    15
100
AcDbCircle
 10
152.8601758974
 20
-202.4151341386
 30
0.0
 40
2.696088053559278
  0
LINE
  5
298
330
1F
100
AcDbEntity
  8
0
  6
Continuous
 62
     7
370
    15
100
AcDbLine
 10
154.1560830838
 20
-201.265942978
 30
0.0
 11
154.5033546454
 21
-202.9628276101
 31
0.0
  0
LINE
  5
299
330
1F
100
AcDbEntity
  8
0
  6
Continuous
 62
     7
370
    15
100
AcDbLine
 10
152.5129022366
 20
-200.7182507983
 30
0.0
 11
154.1560830838
 21
-201.265942978
 31
0.0
  0
LINE
  5
29A
330
1F
100
AcDbEntity
  8
0
  6
Continuous
 62
     7
370
    15
100
AcDbLine
 10
152.5129022366
 20
-200.7182507983
 30
0.0
 11
151.2169929511
 21
-201.8674432507
 31
0.0
  0
LINE
  5
29B
330
1F
100
AcDbEntity
  8
0
  6
Continuous
 62
     7
370
    15
100
AcDbLine
 10
151.5642794139
 20
-203.5643204322
 30
0.0
 11
151.2169929511
 21
-201.8674432507
 31
0.0
  0
LINE
  5
29C
330
1F
100
AcDbEntity
  8
0
  6
Continuous
 62
     7
370
    15
100
AcDbLine
 10
151.5642794139
 20
-203.5643204322
 30
0.0
 11
153.2074453599
 21
-204.1120126119
 31
0.0
  0
LINE
  5
29D
330
1F
100
AcDbEntity
  8
0
  6
Continuous
 62
     7
370
    15
100
AcDbLine
 10
153.2074453599
 20
-204.1120126119
 30
0.0
 11
154.5033546454
 21
-202.9628276101
 31
0.0
  0
CIRCLE
  5
29E
330
1F
100
AcDbEntity
  8
0
  6
Continuous
 62
     7
370
    15
100
AcDbCircle
 10
152.8601758974
 20
-202.4151341386
 30
0.0
 40
2.999999999999983
  0
CIRCLE
  5
29F
330
1F
100
AcDbEntity
  8
0
  6
Continuous
 62
     7
370
    15
100
AcDbCircle
 10
159.8467758974
 20
-187.1651341386
 30
0.0
 40
0.5
  0
CIRCLE
  5
2A0
330
1F
100
AcDbEntity
  8
0
  6
Continuous
 62
     7
370
    15
100
AcDbCircle
 10
159.8467758974
 20
-187.1651341386
 30
0.0
 40
3.5
  0
ARC
  5
2A1
330
1F
100
AcDbEntity
  8
0
  6
Continuous
 62
     7
370
    15
100
AcDbCircle
 10
159.8467758974
 20
-187.1651341386
 30
0.0
 40
8.0
100
AcDbArc
 50
270.0
 51
339.6358651937
  0
ARC
  5
2A2
330
1F
100
AcDbEntity
  8
0
  6
Continuous
 62
     7
370
    15
100
AcDbCircle
 10
159.8467758974
 20
-187.1651341386
 30
0.0
 40
7.999999999999998
100
AcDbArc
 50
20.3641348063
 51
159.6358651937
  0
ARC
  5
2A3
330
1F
100
AcDbEntity
  8
0
  6
Continuous
 62
     7
370
    15
100
AcDbCircle
 10
159.8467758974
 20
-187.1651341386
 30
0.0
 40
8.000000000000018
100
AcDbArc
 50
200.3641348063
 51
270.0
  0
ARC
  5
2A4
330
1F
100
AcDbEntity
  8
0
  6
Continuous
 62
     7
370
    15
100
AcDbCircle
 10
159.8467758974
 20
-187.1651341386
 30
0.0
 40
11.49999999999999
100
AcDbArc
 50
49.294293169
 51
130.705706831
  0
LINE
  5
2A5
330
1F
100
AcDbEntity
  8
0
  6
Continuous
 62
     7
370
    15
100
AcDbLine
 10
159.8467769391
 20
-166.1651401988
 30
0.0
 11
159.8467769391
 21
-160.1651280394
 31
0.0
  0
ARC
  5
2A6
330
1F
100
AcDbEntity
  8
0
  6
Continuous
 62
     7
370
    15
100
AcDbCircle
 10
159.8467758974
 20
-208.1651341386
 30
0.0
 40
48.00000000000001
100
AcDbArc
 50
58.6677932928
 51
90.0
  0
ARC
  5
2A7
330
1F
100
AcDbEntity
  8
0
  6
Continuous
 62
     7
370
    15
100
AcDbCircle
 10
159.8467758974
 20
-208.1651341386
 30
0.0
 40
47.99999999999999
100
AcDbArc
 50
90.0
 51
121.3322067072
  0
LINE
  5
2A8
330
1F
100
AcDbEntity
  8
0
  6
Continuous
 62
     7
370
    15
100
AcDbLine
 10
129.3467821843
 20
-195.9151297083
 30
0.0
 11
129.3467821843
 21
-202.1651311985
 31
0.0
  0
LINE
  5
2A9
330
1F
100
AcDbEntity
  8
0
  6
Continuous
 62
     7
370
    15
100
AcDbLine
 10
131.8467798001
 20
-204.6651362649
 30
0.0
 11
140.846783138
 21
-204.6651362649
 31
0.0
  0
LINE
  5
2AA
330
1F
100
AcDbEntity
  8
0
  6
Continuous
 62
     7
370
    15
100
AcDbLine
 10
143.3467807538
 20
-202.1651311985
 30
0.0
 11
143.3467807538
 21
-195.9151297083
 31
0.0
  0
LINE
  5
2AB
330
1F
100
AcDbEntity
  8
0
  6
Continuous
 62
     7
370
    15
100
AcDbLine
 10
143.3467807538
 20
-195.9151297083
 30
0.0
 11
129.3467821843
 21
-195.9151297083
 31
0.0
  0
LINE
  5
2AC
330
1F
100
AcDbEntity
  8
0
  6
Continuous
 62
     7
370
    15
100
AcDbLine
 10
127.8467716939
 20
-186.6651295891
 30
0.0
 11
127.8467716939
 21
-203.6651342383
 31
0.0
  0
ARC
  5
2AD
330
1F
100
AcDbEntity
  8
0
  6
Continuous
 62
     7
370
    15
100
AcDbCircle
 10
130.3467758974
 20
-186.6651341386
 30
0.0
 40
2.5
100
AcDbArc
 50
90.0
 51
180.0
  0
LINE
  5
2AE
330
1F
100
AcDbEntity
  8
0
  6
Continuous
 62
     7
370
    15
100
AcDbLine
 10
142.3467787272
 20
-184.1651319733
 30
0.0
 11
130.3467693097
 21
-184.1651319733
 31
0.0
  0
ARC
  5
2AF
330
1F
100
AcDbEntity
  8
0
  6
Continuous
 62
     7
370
    15
100
AcDbCircle
 10
142.3467758974
 20
-186.6651341386
 30
0.0
 40
2.5
100
AcDbArc
 50
0.0
 51
90.0
  0
LINE
  5
2B0
330
1F
100
AcDbEntity
  8
0
  6
Continuous
 62
     7
370
    15
100
AcDbLine
 10
144.846776343
 20
-203.6651342383
 30
0.0
 11
144.846776343
 21
-186.6651295891
 31
0.0
  0
ARC
  5
2B1
330
1F
100
AcDbEntity
  8
0
  6
Continuous
 62
     7
370
    15
100
AcDbCircle
 10
140.8467758974
 20
-188.1651341386
 30
0.0
 40
2.5
100
AcDbArc
 50
0.0
 51
90.0
  0
LINE
  5
2B2
330
1F
100
AcDbEntity
  8
0
  6
Continuous
 62
     7
370
    15
100
AcDbLine
 10
140.846783138
 20
-185.6651275626
 30
0.0
 11
131.8467798001
 21
-185.6651275626
 31
0.0
  0
ARC
  5
2B3
330
1F
100
AcDbEntity
  8
0
  6
Continuous
 62
     7
370
    15
100
AcDbCircle
 10
131.8467758974
 20
-188.1651341386
 30
0.0
 40
2.5
100
AcDbArc
 50
90.0
 51
180.0
  0
LINE
  5
2B4
330
1F
100
AcDbEntity
  8
0
  6
Continuous
 62
     7
370
    15
100
AcDbLine
 10
129.3467821843
 20
-188.1651400795
 30
0.0
 11
129.3467821843
 21
-194.4151341191
 31
0.0
  0
LINE
  5
2B5
330
1F
100
AcDbEntity
  8
0
  6
Continuous
 62
     7
370
    15
100
AcDbLine
 10
129.3467821843
 20
-194.4151341191
 30
0.0
 11
143.3467807538
 21
-194.4151341191
 31
0.0
  0
LINE
  5
2B6
330
1F
100
AcDbEntity
  8
0
  6
Continuous
 62
     7
370
    15
100
AcDbLine
 10
143.3467807538
 20
-194.4151341191
 30
0.0
 11
143.3467807538
 21
-188.1651400795
 31
0.0
  0
ARC
  5
2B7
330
1F
100
AcDbEntity
  8
0
  6
Continuous
 62
     7
370
    15
100
AcDbCircle
 10
142.3467758974
 20
-203.6651341386
 30
0.0
 40
2.5
100
AcDbArc
 50
270.0
 51
0.0
  0
LINE
  5
2B8
330
1F
100
AcDbEntity
  8
0
  6
Continuous
 62
     7
370
    15
100
AcDbLine
 10
130.3467693097
 20
-206.1651318541
 30
0.0
 11
142.3467787272
 21
-206.1651318541
 31
0.0
  0
ARC
  5
2B9
330
1F
100
AcDbEntity
  8
0
  6
Continuous
 62
     7
370
    15
100
AcDbCircle
 10
130.3467758974
 20
-203.6651341386
 30
0.0
 40
2.5
100
AcDbArc
 50
180.0
 51
270.0
  0
ARC
  5
2BA
330
1F
100
AcDbEntity
  8
0
  6
Continuous
 62
     7
370
    15
100
AcDbCircle
 10
131.8467758974
 20
-202.1651341386
 30
0.0
 40
2.5
100
AcDbArc
 50
180.0
 51
270.0
  0
ARC
  5
2BB
330
1F
100
AcDbEntity
  8
0
  6
Continuous
 62
     7
370
    15
100
AcDbCircle
 10
140.8467758974
 20
-202.1651341386
 30
0.0
 40
2.5
100
AcDbArc
 50
270.0
 51
0.0
  0
LINE
  5
2BC
330
1F
100
AcDbEntity
  8
0
  6
Continuous
 62
     7
370
    15
100
AcDbLine
 10
152.3467691905
 20
-183.1651299468
 30
0.0
 11
152.918571449
 21
-183.1651299468
 31
0.0
  0
LINE
  5
2BD
330
1F
100
AcDbEntity
  8
0
  6
Continuous
 62
     7
370
    15
100
AcDbLine
 10
166.7749824292
 20
-183.1651299468
 30
0.0
 11
167.3467697865
 21
-183.1651299468
 31
0.0
  0
CIRCLE
  5
2BE
330
1F
100
AcDbEntity
  8
0
  6
Continuous
 62
     7
370
    15
100
AcDbCircle
 10
135.8467758974
 20
-217.1651341386
 30
0.0
 40
3.0
  0
ARC
  5
2BF
330
1F
100
AcDbEntity
  8
0
  6
Continuous
 62
     8
370
    15
100
AcDbCircle
 10
159.8467758974
 20
-208.1651341386
 30
0.0
 40
42.00000000000001
100
AcDbArc
 50
90.0
 51
104.6509912602
  0
ARC
  5
2C0
330
1F
100
AcDbEntity
  8
0
  6
Continuous
 62
     8
370
    15
100
AcDbCircle
 10
159.8467758974
 20
-208.1651341386
 30
0.0
 40
41.99999999999999
100
AcDbArc
 50
75.3490087398
 51
90.0
  0
LINE
  5
2C1
330
1F
100
AcDbEntity
  8
0
  6
Continuous
 62
     7
370
    15
100
AcDbLine
 10
332.2285093758
 20
-30.3038721473
 30
0.0
 11
332.2295077536
 21
-30.3038721473
 31
0.0
  0
LINE
  5
2C2
330
1F
100
AcDbEntity
  8
0
  6
Continuous
 62
     7
370
    15
100
AcDbLine
 10
332.2285093758
 20
-29.2706703336
 30
0.0
 11
332.2295077536
 21
-29.2706703336
 31
0.0
  0
LINE
  5
2C3
330
1F
100
AcDbEntity
  8
0
  6
Continuous
 62
     7
370
    15
100
AcDbLine
 10
332.2285093758
 20
-29.0830647142
 30
0.0
 11
332.2295077536
 21
-29.0830647142
 31
0.0
  0
LINE
  5
2C4
330
1F
100
AcDbEntity
  8
0
  6
Continuous
 62
     7
370
    15
100
AcDbLine
 10
332.2285093758
 20
-29.2706703336
 30
0.0
 11
332.2285093758
 21
-29.0830647142
 31
0.0
  0
LINE
  5
2C5
330
1F
100
AcDbEntity
  8
0
  6
Continuous
 62
     7
370
    15
100
AcDbLine
 10
332.2285093758
 20
-28.4641747863
 30
0.0
 11
332.2295077536
 21
-28.4641747863
 31
0.0
  0
LINE
  5
2C6
330
1F
100
AcDbEntity
  8
0
  6
Continuous
 62
     7
370
    15
100
AcDbLine
 10
332.2285093758
 20
-33.1701701076
 30
0.0
 11
332.2295077536
 21
-33.1701701076
 31
0.0
  0
LINE
  5
2C7
330
1F
100
AcDbEntity
  8
0
  6
Continuous
 62
     7
370
    15
100
AcDbLine
 10
332.2285093758
 20
-26.926270643
 30
0.0
 11
332.2295077536
 21
-26.926270643
 31
0.0
  0
LINE
  5
2C8
330
1F
100
AcDbEntity
  8
0
  6
Continuous
 62
     7
370
    15
100
AcDbLine
 10
332.2285093758
 20
-28.4641747863
 30
0.0
 11
332.2285093758
 21
-26.926270643
 31
0.0
  0
LINE
  5
2C9
330
1F
100
AcDbEntity
  8
0
  6
Continuous
 62
     7
370
    15
100
AcDbLine
 10
332.2285093758
 20
-33.2202678115
 30
0.0
 11
332.2295077536
 21
-33.2202678115
 31
0.0
  0
LINE
  5
2CA
330
1F
100
AcDbEntity
  8
0
  6
Continuous
 62
     7
370
    15
100
AcDbLine
 10
332.2285093758
 20
-33.2218622357
 30
0.0
 11
332.2295077536
 21
-33.2218622357
 31
0.0
  0
LINE
  5
2CB
330
1F
100
AcDbEntity
  8
0
  6
Continuous
 62
     7
370
    15
100
AcDbLine
 10
332.2285093758
 20
-26.6672735602
 30
0.0
 11
332.2295077536
 21
-26.6672735602
 31
0.0
  0
LINE
  5
2CC
330
1F
100
AcDbEntity
  8
0
  6
Continuous
 62
     7
370
    15
100
AcDbLine
 10
332.2285093758
 20
-25.3343646915
 30
0.0
 11
332.2295077536
 21
-25.3343646915
 31
0.0
  0
LINE
  5
2CD
330
1F
100
AcDbEntity
  8
0
  6
Continuous
 62
     7
370
    15
100
AcDbLine
 10
332.2285093758
 20
-24.1309618146
 30
0.0
 11
332.2295077536
 21
-24.1309618146
 31
0.0
  0
LINE
  5
2CE
330
1F
100
AcDbEntity
  8
0
  6
Continuous
 62
     7
370
    15
100
AcDbLine
 10
332.2285093758
 20
-20.2952688129
 30
0.0
 11
332.2295077536
 21
-20.2952688129
 31
0.0
  0
LINE
  5
2CF
330
1F
100
AcDbEntity
  8
0
  6
Continuous
 62
     7
370
    15
100
AcDbLine
 10
332.2285093758
 20
-20.1460634858
 30
0.0
 11
332.2295077536
 21
-20.1460634858
 31
0.0
  0
LINE
  5
2D0
330
1F
100
AcDbEntity
  8
0
  6
Continuous
 62
     7
370
    15
100
AcDbLine
 10
332.2285093758
 20
-3.4332638175
 30
0.0
 11
332.2295077536
 21
-3.4332638175
 31
0.0
  0
LINE
  5
2D1
330
1F
100
AcDbEntity
  8
0
  6
Continuous
 62
     7
370
    15
100
AcDbLine
 10
332.2285093758
 20
-3.2219653518
 30
0.0
 11
332.2295077536
 21
-3.2219653518
 31
0.0
  0
LINE
  5
2D2
330
1F
100
AcDbEntity
  8
0
  6
Continuous
 62
     7
370
    15
100
AcDbLine
 10
332.2285093758
 20
-17.1244656236
 30
0.0
 11
332.2295077536
 21
-17.1244656236
 31
0.0
  0
LINE
  5
2D3
330
1F
100
AcDbEntity
  8
0
  6
Continuous
 62
     7
370
    15
100
AcDbLine
 10
332.2285093758
 20
-16.9131671578
 30
0.0
 11
332.2295077536
 21
-16.9131671578
 31
0.0
  0
LINE
  5
2D4
330
1F
100
AcDbEntity
  8
0
  6
Continuous
 62
     7
370
    15
100
AcDbLine
 10
332.2285093758
 20
-16.9131671578
 30
0.0
 11
332.2285093758
 21
-3.4332638175
 31
0.0
  0
LINE
  5
2D5
330
1F
100
AcDbEntity
  8
0
  6
Continuous
 62
     7
370
    15
100
AcDbLine
 10
332.2285093758
 20
-18.2664608152
 30
0.0
 11
332.2295077536
 21
-18.2664608152
 31
0.0
  0
LINE
  5
2D6
330
1F
100
AcDbEntity
  8
0
  6
Continuous
 62
     7
370
    15
100
AcDbLine
 10
332.2285093758
 20
-18.0548643262
 30
0.0
 11
332.2295077536
 21
-18.0548643262
 31
0.0
  0
LINE
  5
2D7
330
1F
100
AcDbEntity
  8
0
  6
Continuous
 62
     7
370
    15
100
AcDbLine
 10
332.2285093758
 20
-18.0548643262
 30
0.0
 11
332.2285093758
 21
-17.1244656236
 31
0.0
  0
LINE
  5
2D8
330
1F
100
AcDbEntity
  8
0
  6
Continuous
 62
     7
370
    15
100
AcDbLine
 10
332.2285093758
 20
218.9336354344
 30
0.0
 11
332.2295077536
 21
218.9336354344
 31
0.0
  0
LINE
  5
2D9
330
1F
100
AcDbEntity
  8
0
  6
Continuous
 62
     7
370
    15
100
AcDbLine
 10
332.2285093758
 20
223.1398309081
 30
0.0
 11
332.2295077536
 21
223.1398309081
 31
0.0
  0
LINE
  5
2DA
330
1F
100
AcDbEntity
  8
0
  6
Continuous
 62
     7
370
    15
100
AcDbLine
 10
332.2285093758
 20
227.3691306322
 30
0.0
 11
332.2295077536
 21
227.3691306322
 31
0.0
  0
LINE
  5
2DB
330
1F
100
AcDbEntity
  8
0
  6
Continuous
 62
     7
370
    15
100
AcDbLine
 10
332.2285093758
 20
222.871833524
 30
0.0
 11
332.2285093758
 21
223.4562347143
 31
0.0
  0
LINE
  5
2DC
330
1F
100
AcDbEntity
  8
0
  6
Continuous
 62
     7
370
    15
100
AcDbLine
 10
348.4295137617
 20
-78.221968332
 30
0.0
 11
348.4295137617
 21
271.7780331581
 31
0.0
  0
LINE
  5
2DD
330
1F
100
AcDbEntity
  8
0
  6
Continuous
 62
     7
370
    15
100
AcDbLine
 10
348.4295137617
 20
271.7780331581
 30
0.0
 11
437.2295044753
 21
271.7780331581
 31
0.0
  0
ARC
  5
2DE
330
1F
100
AcDbEntity
  8
0
  6
Continuous
 62
     7
370
    15
100
AcDbCircle
 10
437.2295067003
 20
266.7780320119
 30
0.0
 40
5.0
100
AcDbArc
 50
0.0
 51
90.0
  0
ARC
  5
2DF
330
1F
100
AcDbEntity
  8
0
  6
Continuous
 62
     7
370
    15
100
AcDbCircle
 10
428.2295067003
 20
-64.2219679881
 30
0.0
 40
14.00000000000001
100
AcDbArc
 50
270.0
 51
0.0
  0
LINE
  5
2E0
330
1F
100
AcDbEntity
  8
0
  6
Continuous
 62
     7
370
    15
100
AcDbLine
 10
428.2295085881
 20
-78.221968332
 30
0.0
 11
348.4295137617
 21
-78.221968332
 31
0.0
  0
LINE
  5
2E1
330
1F
100
AcDbEntity
  8
0
  6
Continuous
 62
     7
370
    15
100
AcDbLine
 10
442.2295071575
 20
266.7780304759
 30
0.0
 11
442.2295071575
 21
-64.2219697625
 31
0.0
  0
LINE
  5
2E2
330
1F
100
AcDbEntity
  8
0
  6
Continuous
 62
     7
370
    15
100
AcDbLine
 10
332.2295077536
 20
271.7780331581
 30
0.0
 11
348.4295137617
 21
271.7780331581
 31
0.0
  0
LINE
  5
2E3
330
1F
100
AcDbEntity
  8
0
  6
Continuous
 62
     7
370
    15
100
AcDbLine
 10
348.4295137617
 20
-78.221968332
 30
0.0
 11
332.2295077536
 21
-78.221968332
 31
0.0
  0
LINE
  5
2E4
330
1F
100
AcDbEntity
  8
0
  6
Continuous
 62
     7
370
    15
100
AcDbLine
 10
332.2295077536
 20
-78.221968332
 30
0.0
 11
332.2295077536
 21
271.7780331581
 31
0.0
  0
LINE
  5
2E5
330
1F
100
AcDbEntity
  8
0
  6
Continuous
 62
     7
370
    15
100
AcDbLine
 10
441.7295061443
 20
-71.9719742925
 30
0.0
 11
439.8887284491
 21
-71.9719742925
 31
0.0
  0
LINE
  5
2E6
330
1F
100
AcDbEntity
  8
0
  6
Continuous
 62
     7
370
    15
100
AcDbLine
 10
441.7295061443
 20
-67.930064121
 30
0.0
 11
441.7295061443
 21
-71.9719742925
 31
0.0
  0
LINE
  5
2E7
330
1F
100
AcDbEntity
  8
0
  6
Continuous
 62
     7
370
    15
100
AcDbLine
 10
439.7295095417
 20
-73.2353692443
 30
0.0
 11
441.7295061443
 21
-73.2353692443
 31
0.0
  0
LINE
  5
2E8
330
1F
100
AcDbEntity
  8
0
  6
Continuous
 62
     7
370
    15
100
AcDbLine
 10
441.7295061443
 20
-73.2353692443
 30
0.0
 11
441.7295061443
 21
-71.9719742925
 31
0.0
  0
LINE
  5
2E9
330
1F
100
AcDbEntity
  8
0
  6
Continuous
 62
     7
370
    15
100
AcDbLine
 10
439.7295095417
 20
-73.2353692443
 30
0.0
 11
439.7295095417
 21
-72.2063248546
 31
0.0
  0
ARC
  5
2EA
330
1F
100
AcDbEntity
  8
0
  6
Continuous
 62
     7
370
    15
100
AcDbCircle
 10
438.9929067003
 20
-73.2353679881
 30
0.0
 40
2.73660000000001
100
AcDbArc
 50
270.0
 51
0.0
  0
LINE
  5
2EB
330
1F
100
AcDbEntity
  8
0
  6
Continuous
 62
     7
370
    15
100
AcDbLine
 10
438.992907891
 20
-73.9719634444
 30
0.0
 11
438.992907891
 21
-75.9719674975
 31
0.0
  0
ARC
  5
2EC
330
1F
100
AcDbEntity
  8
0
  6
Continuous
 62
     7
370
    15
100
AcDbCircle
 10
438.9929067003
 20
-73.2353679881
 30
0.0
 40
0.7366000000000383
100
AcDbArc
 50
270.0
 51
0.0
  0
LINE
  5
2ED
330
1F
100
AcDbEntity
  8
0
  6
Continuous
 62
     7
370
    15
100
AcDbLine
 10
435.8411781881
 20
-75.9719674975
 30
0.0
 11
438.992907891
 21
-75.9719674975
 31
0.0
  0
LINE
  5
2EE
330
1F
100
AcDbEntity
  8
0
  6
Continuous
 62
     7
370
    15
100
AcDbLine
 10
438.2762737963
 20
-73.9719634444
 30
0.0
 11
438.992907891
 21
-73.9719634444
 31
0.0
  0
ENDSEC
  0
SECTION
  2
OBJECTS
  0
DICTIONARY
  5
C
330
0
100
AcDbDictionary
281
     1
  3
ACAD_GROUP
350
D
  3
ACAD_LAYOUT
350
1A
  3
ACAD_MLINESTYLE
350
17
  3
ACAD_PLOTSETTINGS
350
19
  3
ACAD_PLOTSTYLENAME
350
E
  3
ACAD_SCALELIST
350
47
  0
DICTIONARY
  5
D
102
{ACAD_REACTORS
330
C
102
}
330
C
100
AcDbDictionary
281
     1
  0
DICTIONARY
  5
1A
102
{ACAD_REACTORS
330
C
102
}
330
C
100
AcDbDictionary
281
     1
  3
Layout1
350
1E
  3
Layout2
350
26
  3
Model
350
22
  0
DICTIONARY
  5
17
102
{ACAD_REACTORS
330
C
102
}
330
C
100
AcDbDictionary
281
     1
  3
Standard
350
18
  0
DICTIONARY
  5
19
102
{ACAD_REACTORS
330
C
102
}
330
C
100
AcDbDictionary
281
     1
  0
ACDBDICTIONARYWDFLT
  5
E
102
{ACAD_REACTORS
330
C
102
}
330
C
100
AcDbDictionary
281
     1
  3
Normal
350
F
100
AcDbDictionaryWithDefault
340
F
  0
DICTIONARY
  5
47
102
{ACAD_REACTORS
330
C
102
}
330
C
100
AcDbDictionary
281
     1
  3
A0
350
48
  3
A1
350
49
  3
A2
350
4A
  3
A3
350
4B
  3
A4
350
4C
  3
A5
350
4D
  3
A6
350
4E
  3
A7
350
4F
  3
A8
350
50
  3
A9
350
51
  3
B0
350
52
  3
B1
350
53
  3
B2
350
54
  3
B3
350
55
  3
B4
350
56
  3
B5
350
57
  3
B6
350
58
  3
B7
350
59
  3
B8
350
5A
  3
B9
350
5B
  3
C0
350
5C
  3
C1
350
5D
  3
C2
350
5E
  3
C3
350
5F
  3
C4
350
60
  3
C5
350
61
  3
C6
350
62
  3
C7
350
63
  3
C8
350
64
  3
C9
350
65
  3
D0
350
66
  3
D1
350
67
  3
D2
350
68
  0
LAYOUT
  5
1E
102
{ACAD_REACTORS
330
1A
102
}
330
1A
100
AcDbPlotSettings
  1

  2
none_device
  4

  6

 40
0.0
 41
0.0
 42
0.0
 43
0.0
 44
0.0
 45
0.0
 46
0.0
 47
0.0
 48
0.0
 49
0.0
140
0.0
141
0.0
142
1.0
143
1.0
 70
   688
 72
     1
 73
     0
 74
     5
  7

 75
    16
147
1.0
148
0.0
149
0.0
100
AcDbLayout
  1
Layout1
 70
     1
 71
     1
 10
0.0
 20
0.0
 11
420.0
 21
297.0
 12
0.0
 22
0.0
 32
0.0
 14
1.0000000000E+20
 24
1.0000000000E+20
 34
1.0000000000E+20
 15
-1.0000000000E+20
 25
-1.0000000000E+20
 35
-1.0000000000E+20
146
0.0
 13
0.0
 23
0.0
 33
0.0
 16
1.0
 26
0.0
 36
0.0
 17
0.0
 27
1.0
 37
0.0
 76
     0
330
1B
  0
LAYOUT
  5
26
102
{ACAD_REACTORS
330
1A
102
}
330
1A
100
AcDbPlotSettings
  1

  2
none_device
  4

  6

 40
0.0
 41
0.0
 42
0.0
 43
0.0
 44
0.0
 45
0.0
 46
0.0
 47
0.0
 48
0.0
 49
0.0
140
0.0
141
0.0
142
1.0
143
1.0
 70
   688
 72
     1
 73
     0
 74
     5
  7

 75
    16
147
1.0
148
0.0
149
0.0
100
AcDbLayout
  1
Layout2
 70
     1
 71
     2
 10
0.0
 20
0.0
 11
0.0
 21
0.0
 12
0.0
 22
0.0
 32
0.0
 14
0.0
 24
0.0
 34
0.0
 15
0.0
 25
0.0
 35
0.0
146
0.0
 13
0.0
 23
0.0
 33
0.0
 16
1.0
 26
0.0
 36
0.0
 17
0.0
 27
1.0
 37
0.0
 76
     0
330
23
  0
LAYOUT
  5
22
102
{ACAD_REACTORS
330
1A
102
}
330
1A
100
AcDbPlotSettings
  1

  2
none_device
  4
Letter_(8.50_x_11.00_Inches)
  6

 40
6.35
 41
6.35
 42
6.35000508
 43
6.35000508
 44
215.9
 45
279.4
 46
0.0
 47
0.0
 48
0.0
 49
0.0
140
0.0
141
0.0
142
1.0
143
1.0
 70
  1712
 72
     1
 73
     0
 74
     0
  7

 75
     0
147
1.0
148
0.0
149
0.0
100
AcDbLayout
  1
Model
 70
     1
 71
     0
 10
0.0
 20
0.0
 11
279.4
 21
215.9
 12
0.0
 22
0.0
 32
0.0
 14
0.0
 24
0.0
 34
0.0
 15
279.4
 25
215.9
 35
0.0
146
0.0
 13
0.0
 23
0.0
 33
0.0
 16
1.0
 26
0.0
 36
0.0
 17
0.0
 27
1.0
 37
0.0
 76
     0
330
1F
331
29
  0
MLINESTYLE
  5
18
102
{ACAD_REACTORS
330
17
102
}
330
17
100
AcDbMlineStyle
  2
Standard
 70
     0
  3

 62
   256
 51
90.0
 52
90.0
 71
     2
 49
0.5
 62
   256
  6
BYLAYER
 49
-0.5
 62
   256
  6
BYLAYER
  0
ACDBPLACEHOLDER
  5
F
102
{ACAD_REACTORS
330
E
102
}
330
E
  0
SCALE
  5
48
102
{ACAD_REACTORS
330
47
102
}
330
47
100
AcDbScale
 70
     0
300
1:1
140
1.0
141
1.0
290
     1
  0
SCALE
  5
49
102
{ACAD_REACTORS
330
47
102
}
330
47
100
AcDbScale
 70
     0
300
1:2
140
1.0
141
2.0
290
     0
  0
SCALE
  5
4A
102
{ACAD_REACTORS
330
47
102
}
330
47
100
AcDbScale
 70
     0
300
1:4
140
1.0
141
4.0
290
     0
  0
SCALE
  5
4B
102
{ACAD_REACTORS
330
47
102
}
330
47
100
AcDbScale
 70
     0
300
1:5
140
1.0
141
5.0
290
     0
  0
SCALE
  5
4C
102
{ACAD_REACTORS
330
47
102
}
330
47
100
AcDbScale
 70
     0
300
1:8
140
1.0
141
8.0
290
     0
  0
SCALE
  5
4D
102
{ACAD_REACTORS
330
47
102
}
330
47
100
AcDbScale
 70
     0
300
1:10
140
1.0
141
10.0
290
     0
  0
SCALE
  5
4E
102
{ACAD_REACTORS
330
47
102
}
330
47
100
AcDbScale
 70
     0
300
1:16
140
1.0
141
16.0
290
     0
  0
SCALE
  5
4F
102
{ACAD_REACTORS
330
47
102
}
330
47
100
AcDbScale
 70
     0
300
1:20
140
1.0
141
20.0
290
     0
  0
SCALE
  5
50
102
{ACAD_REACTORS
330
47
102
}
330
47
100
AcDbScale
 70
     0
300
1:30
140
1.0
141
30.0
290
     0
  0
SCALE
  5
51
102
{ACAD_REACTORS
330
47
102
}
330
47
100
AcDbScale
 70
     0
300
1:40
140
1.0
141
40.0
290
     0
  0
SCALE
  5
52
102
{ACAD_REACTORS
330
47
102
}
330
47
100
AcDbScale
 70
     0
300
1:50
140
1.0
141
50.0
290
     0
  0
SCALE
  5
53
102
{ACAD_REACTORS
330
47
102
}
330
47
100
AcDbScale
 70
     0
300
1:100
140
1.0
141
100.0
290
     0
  0
SCALE
  5
54
102
{ACAD_REACTORS
330
47
102
}
330
47
100
AcDbScale
 70
     0
300
2:1
140
2.0
141
1.0
290
     0
  0
SCALE
  5
55
102
{ACAD_REACTORS
330
47
102
}
330
47
100
AcDbScale
 70
     0
300
4:1
140
4.0
141
1.0
290
     0
  0
SCALE
  5
56
102
{ACAD_REACTORS
330
47
102
}
330
47
100
AcDbScale
 70
     0
300
8:1
140
8.0
141
1.0
290
     0
  0
SCALE
  5
57
102
{ACAD_REACTORS
330
47
102
}
330
47
100
AcDbScale
 70
     0
300
10:1
140
10.0
141
1.0
290
     0
  0
SCALE
  5
58
102
{ACAD_REACTORS
330
47
102
}
330
47
100
AcDbScale
 70
     0
300
100:1
140
100.0
141
1.0
290
     0
  0
SCALE
  5
59
102
{ACAD_REACTORS
330
47
102
}
330
47
100
AcDbScale
 70
     0
300
1/128" = 1'-0"
140
0.0078125
141
12.0
290
     0
  0
SCALE
  5
5A
102
{ACAD_REACTORS
330
47
102
}
330
47
100
AcDbScale
 70
     0
300
1/64" = 1'-0"
140
0.015625
141
12.0
290
     0
  0
SCALE
  5
5B
102
{ACAD_REACTORS
330
47
102
}
330
47
100
AcDbScale
 70
     0
300
1/32" = 1'-0"
140
0.03125
141
12.0
290
     0
  0
SCALE
  5
5C
102
{ACAD_REACTORS
330
47
102
}
330
47
100
AcDbScale
 70
     0
300
1/16" = 1'-0"
140
0.0625
141
12.0
290
     0
  0
SCALE
  5
5D
102
{ACAD_REACTORS
330
47
102
}
330
47
100
AcDbScale
 70
     0
300
3/32" = 1'-0"
140
0.09375
141
12.0
290
     0
  0
SCALE
  5
5E
102
{ACAD_REACTORS
330
47
102
}
330
47
100
AcDbScale
 70
     0
300
1/8" = 1'-0"
140
0.125
141
12.0
290
     0
  0
SCALE
  5
5F
102
{ACAD_REACTORS
330
47
102
}
330
47
100
AcDbScale
 70
     0
300
3/16" = 1'-0"
140
0.1875
141
12.0
290
     0
  0
SCALE
  5
60
102
{ACAD_REACTORS
330
47
102
}
330
47
100
AcDbScale
 70
     0
300
1/4" = 1'-0"
140
0.25
141
12.0
290
     0
  0
SCALE
  5
61
102
{ACAD_REACTORS
330
47
102
}
330
47
100
AcDbScale
 70
     0
300
3/8" = 1'-0"
140
0.375
141
12.0
290
     0
  0
SCALE
  5
62
102
{ACAD_REACTORS
330
47
102
}
330
47
100
AcDbScale
 70
     0
300
1/2" = 1'-0"
140
0.5
141
12.0
290
     0
  0
SCALE
  5
63
102
{ACAD_REACTORS
330
47
102
}
330
47
100
AcDbScale
 70
     0
300
3/4" = 1'-0"
140
0.75
141
12.0
290
     0
  0
SCALE
  5
64
102
{ACAD_REACTORS
330
47
102
}
330
47
100
AcDbScale
 70
     0
300
1" = 1'-0"
140
1.0
141
12.0
290
     0
  0
SCALE
  5
65
102
{ACAD_REACTORS
330
47
102
}
330
47
100
AcDbScale
 70
     0
300
1-1/2" = 1'-0"
140
1.5
141
12.0
290
     0
  0
SCALE
  5
66
102
{ACAD_REACTORS
330
47
102
}
330
47
100
AcDbScale
 70
     0
300
3" = 1'-0"
140
3.0
141
12.0
290
     0
  0
SCALE
  5
67
102
{ACAD_REACTORS
330
47
102
}
330
47
100
AcDbScale
 70
     0
300
6" = 1'-0"
140
6.0
141
12.0
290
     0
  0
SCALE
  5
68
102
{ACAD_REACTORS
330
47
102
}
330
47
100
AcDbScale
 70
     0
300
1'-0" = 1'-0"
140
12.0
141
12.0
290
     0
  0
ENDSEC
  0
EOF
