  0
SECTION
  2
HEADER
  9
$ACADVER
  1
AC1015
  9
$ACADMAINTVER
 70
     6
  9
$DWGCODEPAGE
  3
ANSI_1252
  9
$INSBASE
 10
0.0
 20
0.0
 30
0.0
  9
$EXTMIN
 10
0.0
 20
0.0
 30
0.0
  9
$EXTMAX
 10
279.4
 20
215.9
 30
0.0
  9
$LIMMIN
 10
0.0
 20
0.0
  9
$LIMMAX
 10
279.4
 20
215.9
  9
$ORTHOMODE
 70
     0
  9
$REGENMODE
 70
     1
  9
$FILLMODE
 70
     1
  9
$QTEXTMODE
 70
     0
  9
$MIRRTEXT
 70
     1
  9
$LTSCALE
 40
1.0
  9
$ATTMODE
 70
     1
  9
$TEXTSIZE
 40
3.5
  9
$TRACEWID
 40
1.0
  9
$TEXTSTYLE
  7
STANDARD
  9
$CLAYER
  8
0
  9
$CELTYPE
  6
ByLayer
  9
$CECOLOR
 62
   256
  9
$CELTSCALE
 40
1.0
  9
$DISPSILH
 70
     0
  9
$DIMSCALE
 40
1.0
  9
$DIMASZ
 40
3.302
  9
$DIMEXO
 40
1.0
  9
$DIMDLI
 40
3.75
  9
$DIMRND
 40
0.0
  9
$DIMDLE
 40
0.0
  9
$DIMEXE
 40
1.0
  9
$DIMTP
 40
0.0
  9
$DIMTM
 40
0.0
  9
$DIMTXT
 40
3.5
  9
$DIMCEN
 40
2.5
  9
$DIMTSZ
 40
0.0
  9
$DIMTOL
 70
     0
  9
$DIMLIM
 70
     0
  9
$DIMTIH
 70
     1
  9
$DIMTOH
 70
     1
  9
$DIMSE1
 70
     0
  9
$DIMSE2
 70
     0
  9
$DIMTAD
 70
     1
  9
$DIMZIN
 70
     0
  9
$DIMBLK
  1

  9
$DIMASO
 70
     1
  9
$DIMSHO
 70
     1
  9
$DIMPOST
  1

  9
$DIMAPOST
  1

  9
$DIMALT
 70
     0
  9
$DIMALTD
 70
     3
  9
$DIMALTF
 40
0.0393700787
  9
$DIMLFAC
 40
5.0
  9
$DIMTOFL
 70
     1
  9
$DIMTVP
 40
0.0
  9
$DIMTIX
 70
     0
  9
$DIMSOXD
 70
     0
  9
$DIMSAH
 70
     0
  9
$DIMBLK1
  1

  9
$DIMBLK2
  1

  9
$DIMSTYLE
  2
ISO-25
  9
$DIMCLRD
 70
     0
  9
$DIMCLRE
 70
     0
  9
$DIMCLRT
 70
     0
  9
$DIMTFAC
 40
1.0
  9
$DIMGAP
 40
1.524
  9
$DIMJUST
 70
     0
  9
$DIMSD1
 70
     0
  9
$DIMSD2
 70
     0
  9
$DIMTOLJ
 70
     0
  9
$DIMTZIN
 70
     0
  9
$DIMALTZ
 70
     0
  9
$DIMALTTZ
 70
     0
  9
$DIMUPT
 70
     0
  9
$DIMDEC
 70
     3
  9
$DIMTDEC
 70
     3
  9
$DIMALTU
 70
     2
  9
$DIMALTTD
 70
     3
  9
$DIMTXSTY
  7
STANDARD
  9
$DIMAUNIT
 70
     0
  9
$DIMADEC
 70
     2
  9
$DIMALTRND
 40
0.0
  9
$DIMAZIN
 70
     0
  9
$DIMDSEP
 70
    44
  9
$DIMATFIT
 70
     3
  9
$DIMFRAC
 70
     0
  9
$DIMLDRBLK
  1

  9
$DIMLUNIT
 70
     2
  9
$DIMLWD
 70
    -2
  9
$DIMLWE
 70
    -2
  9
$DIMTMOVE
 70
     0
  9
$LUNITS
 70
     2
  9
$LUPREC
 70
     2
  9
$SKETCHINC
 40
1.0
  9
$FILLETRAD
 40
10.0
  9
$AUNITS
 70
     0
  9
$AUPREC
 70
     2
  9
$MENU
  1
.
  9
$ELEVATION
 40
0.0
  9
$PELEVATION
 40
0.0
  9
$THICKNESS
 40
0.0
  9
$LIMCHECK
 70
     0
  9
$CHAMFERA
 40
0.0
  9
$CHAMFERB
 40
0.0
  9
$CHAMFERC
 40
0.0
  9
$CHAMFERD
 40
0.0
  9
$SKPOLY
 70
     0
  9
$TDCREATE
 40
2457221.661236424
  9
$TDUCREATE
 40
2457221.619569757
  9
$TDUPDATE
 40
2457221.661236864
  9
$TDUUPDATE
 40
2457221.619570197
  9
$TDINDWG
 40
0.0000000116
  9
$TDUSRTIMER
 40
0.0000000116
  9
$USRTIMER
 70
     1
  9
$ANGBASE
 50
0.0
  9
$ANGDIR
 70
     0
  9
$PDMODE
 70
     0
  9
$PDSIZE
 40
-1.0
  9
$PLINEWID
 40
0.0
  9
$SPLFRAME
 70
     0
  9
$SPLINETYPE
 70
     6
  9
$SPLINESEGS
 70
     8
  9
$HANDSEED
  5
3AE
  9
$SURFTAB1
 70
     6
  9
$SURFTAB2
 70
     6
  9
$SURFTYPE
 70
     6
  9
$SURFU
 70
     6
  9
$SURFV
 70
     6
  9
$UCSBASE
  2

  9
$UCSNAME
  2

  9
$UCSORG
 10
0.0
 20
0.0
 30
0.0
  9
$UCSXDIR
 10
1.0
 20
0.0
 30
0.0
  9
$UCSYDIR
 10
0.0
 20
1.0
 30
0.0
  9
$UCSORTHOREF
  2

  9
$UCSORTHOVIEW
 70
     0
  9
$UCSORGTOP
 10
0.0
 20
0.0
 30
0.0
  9
$UCSORGBOTTOM
 10
0.0
 20
0.0
 30
0.0
  9
$UCSORGLEFT
 10
0.0
 20
0.0
 30
0.0
  9
$UCSORGRIGHT
 10
0.0
 20
0.0
 30
0.0
  9
$UCSORGFRONT
 10
0.0
 20
0.0
 30
0.0
  9
$UCSORGBACK
 10
0.0
 20
0.0
 30
0.0
  9
$PUCSBASE
  2

  9
$PUCSNAME
  2

  9
$PUCSORG
 10
0.0
 20
0.0
 30
0.0
  9
$PUCSXDIR
 10
1.0
 20
0.0
 30
0.0
  9
$PUCSYDIR
 10
0.0
 20
1.0
 30
0.0
  9
$PUCSORTHOREF
  2

  9
$PUCSORTHOVIEW
 70
     0
  9
$PUCSORGTOP
 10
0.0
 20
0.0
 30
0.0
  9
$PUCSORGBOTTOM
 10
0.0
 20
0.0
 30
0.0
  9
$PUCSORGLEFT
 10
0.0
 20
0.0
 30
0.0
  9
$PUCSORGRIGHT
 10
0.0
 20
0.0
 30
0.0
  9
$PUCSORGFRONT
 10
0.0
 20
0.0
 30
0.0
  9
$PUCSORGBACK
 10
0.0
 20
0.0
 30
0.0
  9
$USERI1
 70
     0
  9
$USERI2
 70
     0
  9
$USERI3
 70
     0
  9
$USERI4
 70
     0
  9
$USERI5
 70
     0
  9
$USERR1
 40
0.0
  9
$USERR2
 40
0.0
  9
$USERR3
 40
0.0
  9
$USERR4
 40
0.0
  9
$USERR5
 40
0.0
  9
$WORLDVIEW
 70
     1
  9
$SHADEDGE
 70
     3
  9
$SHADEDIF
 70
    70
  9
$TILEMODE
 70
     1
  9
$MAXACTVP
 70
    64
  9
$PINSBASE
 10
0.0
 20
0.0
 30
0.0
  9
$PLIMCHECK
 70
     0
  9
$PEXTMIN
 10
1.0000000000E+20
 20
1.0000000000E+20
 30
1.0000000000E+20
  9
$PEXTMAX
 10
-1.0000000000E+20
 20
-1.0000000000E+20
 30
-1.0000000000E+20
  9
$PLIMMIN
 10
0.0
 20
0.0
  9
$PLIMMAX
 10
420.0
 20
297.0
  9
$UNITMODE
 70
     0
  9
$VISRETAIN
 70
     1
  9
$PLINEGEN
 70
     0
  9
$PSLTSCALE
 70
     1
  9
$TREEDEPTH
 70
  3020
  9
$CMLSTYLE
  2
Standard
  9
$CMLJUST
 70
     0
  9
$CMLSCALE
 40
20.0
  9
$PROXYGRAPHICS
 70
     1
  9
$MEASUREMENT
 70
     1
  9
$CELWEIGHT
370
    -1
  9
$ENDCAPS
280
     0
  9
$JOINSTYLE
280
     0
  9
$LWDISPLAY
290
     1
  9
$INSUNITS
 70
     4
  9
$HYPERLINKBASE
  1

  9
$STYLESHEET
  1

  9
$XEDIT
290
     1
  9
$CEPSNTYPE
380
     0
  9
$PSTYLEMODE
290
     1
  9
$FINGERPRINTGUID
  2
{AE3334D2-6073-4651-920E-B2AF6B706BA6}
  9
$VERSIONGUID
  2
{FAEB1C32-E019-11D5-929B-00C0DF256EC4}
  9
$EXTNAMES
290
     1
  9
$PSVPSCALE
 40
0.0
  9
$OLESTARTUP
290
     0
  0
ENDSEC
  0
SECTION
  2
CLASSES
  0
CLASS
  1
ACDBDICTIONARYWDFLT
  2
AcDbDictionaryWithDefault
  3
ObjectDBX Classes
 90
        0
280
     0
281
     0
  0
CLASS
  1
VISUALSTYLE
  2
AcDbVisualStyle
  3
ObjectDBX Classes
 90
     4095
280
     0
281
     0
  0
CLASS
  1
MATERIAL
  2
AcDbMaterial
  3
ObjectDBX Classes
 90
     1153
280
     0
281
     0
  0
CLASS
  1
SCALE
  2
AcDbScale
  3
ObjectDBX Classes
 90
     1153
280
     0
281
     0
  0
CLASS
  1
TABLESTYLE
  2
AcDbTableStyle
  3
ObjectDBX Classes
 90
     4095
280
     0
281
     0
  0
CLASS
  1
MLEADERSTYLE
  2
AcDbMLeaderStyle
  3
ACDB_MLEADERSTYLE_CLASS
 90
     4095
280
     0
281
     0
  0
CLASS
  1
SUN
  2
AcDbSun
  3
SCENEOE
 90
     1153
280
     0
281
     0
  0
CLASS
  1
ACDBPLACEHOLDER
  2
AcDbPlaceHolder
  3
ObjectDBX Classes
 90
        0
280
     0
281
     0
  0
CLASS
  1
LAYOUT
  2
AcDbLayout
  3
ObjectDBX Classes
 90
        0
280
     0
281
     0
  0
ENDSEC
  0
SECTION
  2
TABLES
  0
TABLE
  2
VPORT
  5
8
330
0
100
AcDbSymbolTable
 70
     1
  0
VPORT
  5
29
330
8
100
AcDbSymbolTableRecord
100
AcDbViewportTableRecord
  2
*Active
 70
     0
 10
0.0
 20
0.0
 11
1.0
 21
1.0
 12
139.7
 22
107.95
 13
0.0
 23
0.0
 14
10.0
 24
10.0
 15
10.0
 25
10.0
 16
0.0
 26
0.0
 36
1.0
 17
0.0
 27
0.0
 37
0.0
 40
215.9
 41
1.2941176471
 42
50.0
 43
0.0
 44
0.0
 50
0.0
 51
0.0
 71
     0
 72
  2000
 73
     1
 74
     3
 75
     0
 76
     0
 77
     0
 78
     0
281
     0
 65
     1
110
0.0
120
0.0
130
0.0
111
1.0
121
0.0
131
0.0
112
0.0
122
1.0
132
0.0
 79
     0
146
0.0
  0
ENDTAB
  0
TABLE
  2
LTYPE
  5
5
330
0
100
AcDbSymbolTable
 70
     8
  0
LTYPE
  5
14
330
5
100
AcDbSymbolTableRecord
100
AcDbLinetypeTableRecord
  2
ByBlock
 70
     0
  3

 72
    65
 73
     0
 40
0.0
  0
LTYPE
  5
15
330
5
100
AcDbSymbolTableRecord
100
AcDbLinetypeTableRecord
  2
ByLayer
 70
     0
  3

 72
    65
 73
     0
 40
0.0
  0
LTYPE
  5
16
330
5
100
AcDbSymbolTableRecord
100
AcDbLinetypeTableRecord
  2
Continuous
 70
     0
  3
Solid line
 72
    65
 73
     0
 40
0.0
  0
LTYPE
  5
6E
330
5
100
AcDbSymbolTableRecord
100
AcDbLinetypeTableRecord
  2
SLD-Solid
 70
     0
  3
SolidWorks Line Style
 72
    65
 73
     0
 40
0.0
  0
LTYPE
  5
6F
330
5
100
AcDbSymbolTableRecord
100
AcDbLinetypeTableRecord
  2
SLD-Dashed
 70
     0
  3
SolidWorks Line Style
 72
    65
 73
     2
 40
1.905
 49
1.27
 74
     0
 49
-0.635
 74
     0
  0
LTYPE
  5
70
330
5
100
AcDbSymbolTableRecord
100
AcDbLinetypeTableRecord
  2
SLD-Phantom
 70
     0
  3
SolidWorks Line Style
 72
    65
 73
     6
 40
12.7
 49
6.35
 74
     0
 49
-1.27
 74
     0
 49
1.27
 74
     0
 49
-1.27
 74
     0
 49
1.27
 74
     0
 49
-1.27
 74
     0
  0
LTYPE
  5
71
330
5
100
AcDbSymbolTableRecord
100
AcDbLinetypeTableRecord
  2
SLD-Chain
 70
     0
  3
SolidWorks Line Style
 72
    65
 73
     4
 40
10.16
 49
6.35
 74
     0
 49
-1.27
 74
     0
 49
1.27
 74
     0
 49
-1.27
 74
     0
  0
LTYPE
  5
72
330
5
100
AcDbSymbolTableRecord
100
AcDbLinetypeTableRecord
  2
SLD-Center
 70
     0
  3
SolidWorks Line Style
 72
    65
 73
     4
 40
19.05
 49
15.24
 74
     0
 49
-1.27
 74
     0
 49
1.27
 74
     0
 49
-1.27
 74
     0
  0
LTYPE
  5
73
330
5
100
AcDbSymbolTableRecord
100
AcDbLinetypeTableRecord
  2
SLD-Stitch
 70
     0
  3
SolidWorks Line Style
 72
    65
 73
     2
 40
0.635
 49
0.0
 74
     0
 49
-0.635
 74
     0
  0
LTYPE
  5
74
330
5
100
AcDbSymbolTableRecord
100
AcDbLinetypeTableRecord
  2
SLD-Thin-Thick-Chain
 70
     0
  3
SolidWorks Line Style
 72
    65
 73
     4
 40
10.16
 49
6.35
 74
     0
 49
-1.27
 74
     0
 49
1.27
 74
     0
 49
-1.27
 74
     0
  0
ENDTAB
  0
TABLE
  2
LAYER
  5
2
330
0
100
AcDbSymbolTable
 70
     1
  0
LAYER
  5
10
330
2
100
AcDbSymbolTableRecord
100
AcDbLayerTableRecord
  2
0
 70
     0
 62
     7
  6
Continuous
370
    -3
390
F
  0
ENDTAB
  0
TABLE
  2
STYLE
  5
3
330
0
100
AcDbSymbolTable
 70
     1
  0
STYLE
  5
11
330
3
100
AcDbSymbolTableRecord
100
AcDbTextStyleTableRecord
  2
STANDARD
 70
     0
 40
0.0
 41
1.0
 50
0.0
 71
     0
 42
3.5
  3
GOTHIC_1.TTF
  4

1001
ACAD
1000
CENTURY GOTHIC
1071
       34
  0
ENDTAB
  0
TABLE
  2
VIEW
  5
6
330
0
100
AcDbSymbolTable
 70
     0
  0
ENDTAB
  0
TABLE
  2
UCS
  5
7
330
0
100
AcDbSymbolTable
 70
     0
  0
ENDTAB
  0
TABLE
  2
APPID
  5
9
330
0
100
AcDbSymbolTable
 70
     1
  0
APPID
  5
12
330
9
100
AcDbSymbolTableRecord
100
AcDbRegAppTableRecord
  2
ACAD
 70
     0
  0
ENDTAB
  0
TABLE
  2
DIMSTYLE
  5
A
330
0
100
AcDbSymbolTable
 70
     1
100
AcDbDimStyleTable
  0
DIMSTYLE
105
27
330
A
100
AcDbSymbolTableRecord
100
AcDbDimStyleTableRecord
  2
ISO-25
 70
     0
 41
2.5
 42
0.625
 43
3.75
 44
1.25
 73
     0
 74
     0
 77
     1
 78
     8
140
2.5
141
2.5
143
0.0393700787
147
0.625
171
     3
172
     1
178
     0
271
     2
272
     2
274
     3
278
    44
283
     0
284
     8
340
11
  0
ENDTAB
  0
TABLE
  2
BLOCK_RECORD
  5
1
330
0
100
AcDbSymbolTable
 70
     1
  0
BLOCK_RECORD
  5
1F
330
1
100
AcDbSymbolTableRecord
100
AcDbBlockTableRecord
  2
*Model_Space
340
22
  0
BLOCK_RECORD
  5
1B
330
1
100
AcDbSymbolTableRecord
100
AcDbBlockTableRecord
  2
*Paper_Space
340
1E
  0
BLOCK_RECORD
  5
23
330
1
100
AcDbSymbolTableRecord
100
AcDbBlockTableRecord
  2
*Paper_Space0
340
26
  0
ENDTAB
  0
ENDSEC
  0
SECTION
  2
BLOCKS
  0
BLOCK
  5
20
330
1F
100
AcDbEntity
  8
0
100
AcDbBlockBegin
  2
*Model_Space
 70
     0
 10
0.0
 20
0.0
 30
0.0
  3
*Model_Space
  1

  0
ENDBLK
  5
21
330
1F
100
AcDbEntity
  8
0
100
AcDbBlockEnd
  0
BLOCK
  5
1C
330
1B
100
AcDbEntity
 67
     1
  8
0
100
AcDbBlockBegin
  2
*Paper_Space
 70
     0
 10
0.0
 20
0.0
 30
0.0
  3
*Paper_Space
  1

  0
ENDBLK
  5
1D
330
1B
100
AcDbEntity
 67
     1
  8
0
100
AcDbBlockEnd
  0
BLOCK
  5
24
330
23
100
AcDbEntity
  8
0
100
AcDbBlockBegin
  2
*Paper_Space0
 70
     0
 10
0.0
 20
0.0
 30
0.0
  3
*Paper_Space0
  1

  0
ENDBLK
  5
25
330
23
100
AcDbEntity
  8
0
100
AcDbBlockEnd
  0
ENDSEC
  0
SECTION
  2
ENTITIES
  0
ARC
  5
75
330
1F
100
AcDbEntity
  8
0
  6
SLD-Solid
 62
     7
370
    15
100
AcDbCircle
 10
-227.1464510474
 20
134.9446324644
 30
0.0
 40
0.2500000000000284
100
AcDbArc
 50
244.2586887967
 51
0.0
  0
ARC
  5
76
330
1F
100
AcDbEntity
  8
0
  6
SLD-Solid
 62
     7
370
    15
100
AcDbCircle
 10
-227.1464510474
 20
144.1801139163
 30
0.0
 40
0.2500000000000284
100
AcDbArc
 50
0.0
 51
115.7413112033
  0
ARC
  5
77
330
1F
100
AcDbEntity
  8
0
  6
SLD-Solid
 62
     7
370
    15
100
AcDbCircle
 10
-224.9199804592
 20
139.5623731904
 30
0.0
 40
5.3764705882353
100
AcDbArc
 50
204.9243761343
 51
244.2586887966
  0
ARC
  5
78
330
1F
100
AcDbEntity
  8
0
  6
SLD-Solid
 62
     7
370
    15
100
AcDbCircle
 10
-224.9199804592
 20
139.5623731904
 30
0.0
 40
5.37647058823535
100
AcDbArc
 50
115.7413112034
 51
155.0756238657
  0
ARC
  5
79
330
1F
100
AcDbEntity
  8
0
  6
SLD-Solid
 62
     7
370
    15
100
AcDbCircle
 10
-224.9199804592
 20
139.5623731904
 30
0.0
 40
5.006304677581671
100
AcDbArc
 50
166.9291230311
 51
193.2998098687
  0
ARC
  5
7A
330
1F
100
AcDbEntity
  8
0
  6
SLD-Solid
 62
     7
370
    15
100
AcDbCircle
 10
48.3535489525
 20
144.1801139163
 30
0.0
 40
0.2500000000000284
100
AcDbArc
 50
64.2586887966
 51
180.0
  0
ARC
  5
7B
330
1F
100
AcDbEntity
  8
0
  6
SLD-Solid
 62
     7
370
    15
100
AcDbCircle
 10
48.3535489525
 20
134.9446324644
 30
0.0
 40
0.2500000000000284
100
AcDbArc
 50
180.0
 51
295.7413112034
  0
ARC
  5
7C
330
1F
100
AcDbEntity
  8
0
  6
SLD-Solid
 62
     7
370
    15
100
AcDbCircle
 10
46.1270783643
 20
139.5623731904
 30
0.0
 40
5.376470588235309
100
AcDbArc
 50
24.9243761343
 51
64.2586887966
  0
ARC
  5
7D
330
1F
100
AcDbEntity
  8
0
  6
SLD-Solid
 62
     7
370
    15
100
AcDbCircle
 10
46.1270783643
 20
139.5623731904
 30
0.0
 40
5.376470588235309
100
AcDbArc
 50
295.7413112034
 51
335.0756238657
  0
ARC
  5
7E
330
1F
100
AcDbEntity
  8
0
  6
SLD-Solid
 62
     7
370
    15
100
AcDbCircle
 10
46.1270783643
 20
139.5623731904
 30
0.0
 40
5.00630467758163
100
AcDbArc
 50
346.9291230311
 51
13.2998098687
  0
ARC
  5
7F
330
1F
100
AcDbEntity
  8
0
  6
SLD-Solid
 62
     7
370
    15
100
AcDbCircle
 10
-228.6173198334
 20
137.8630524078
 30
0.0
 40
1.307470520960881
100
AcDbArc
 50
154.3270513487
 51
205.6729486513
  0
ARC
  5
80
330
1F
100
AcDbEntity
  8
0
  6
SLD-Solid
 62
     7
370
    15
100
AcDbCircle
 10
-224.9199804592
 20
139.5623731904
 30
0.0
 40
5.005614902235687
100
AcDbArc
 50
166.9193732411
 51
193.0806267589
  0
ARC
  5
81
330
1F
100
AcDbEntity
  8
0
  6
SLD-Solid
 62
     7
370
    15
100
AcDbCircle
 10
-228.6173181366
 20
141.2616941189
 30
0.0
 40
1.307472151145154
100
AcDbArc
 50
154.3270743671
 51
205.6729256329
  0
ARC
  5
82
330
1F
100
AcDbEntity
  8
0
  6
SLD-Solid
 62
     7
370
    15
100
AcDbCircle
 10
-228.6110689517
 20
141.2498733071
 30
0.0
 40
1.304430300808793
100
AcDbArc
 50
154.4548182418
 51
205.5451817582
  0
ARC
  5
83
330
1F
100
AcDbEntity
  8
0
  6
SLD-Solid
 62
     7
370
    15
100
AcDbCircle
 10
-228.6110677032
 20
137.8748732196
 30
0.0
 40
1.3044315277137
100
AcDbArc
 50
154.4548326636
 51
205.5451673364
  0
ARC
  5
84
330
1F
100
AcDbEntity
  8
0
  6
SLD-Solid
 62
     7
370
    15
100
AcDbCircle
 10
49.8244543851
 20
141.2616941189
 30
0.0
 40
1.30742734200585
100
AcDbArc
 50
334.3261304485
 51
25.6738695515
  0
ARC
  5
85
330
1F
100
AcDbEntity
  8
0
  6
SLD-Solid
 62
     7
370
    15
100
AcDbCircle
 10
46.1270783643
 20
139.5623731904
 30
0.0
 40
5.005614902235672
100
AcDbArc
 50
346.9193732411
 51
13.0806267589
  0
ARC
  5
86
330
1F
100
AcDbEntity
  8
0
  6
SLD-Solid
 62
     7
370
    15
100
AcDbCircle
 10
49.8244560818
 20
137.8630524078
 30
0.0
 40
1.307425711865227
100
AcDbArc
 50
334.3261074288
 51
25.6738925712
  0
ARC
  5
87
330
1F
100
AcDbEntity
  8
0
  6
SLD-Solid
 62
     7
370
    15
100
AcDbCircle
 10
49.8180371428
 20
137.8748732196
 30
0.0
 40
1.304550618842605
100
AcDbArc
 50
334.4573325093
 51
25.5426674907
  0
ARC
  5
88
330
1F
100
AcDbEntity
  8
0
  6
SLD-Solid
 62
     7
370
    15
100
AcDbCircle
 10
49.8180383915
 20
141.2498733071
 30
0.0
 40
1.304549391796346
100
AcDbArc
 50
334.4573180885
 51
25.5426819115
  0
ARC
  5
89
330
1F
100
AcDbEntity
  8
0
  6
SLD-Solid
 62
     7
370
    15
100
AcDbCircle
 10
-89.3964845758
 20
92.4916891
 30
0.0
 40
0.2113832293162614
100
AcDbArc
 50
359.941155902
 51
90.0585919198
  0
LINE
  5
8A
330
1F
100
AcDbEntity
  8
0
  6
SLD-Solid
 62
     7
370
    15
100
AcDbLine
 10
-89.185101458
 20
92.4914720045
 30
0.0
 11
-89.185101458
 21
86.3163749264
 31
0.0
  0
ARC
  5
8B
330
1F
100
AcDbEntity
  8
0
  6
SLD-Solid
 62
     7
370
    15
100
AcDbCircle
 10
-89.396626816
 20
86.316396916
 30
0.0
 40
0.2115253591789565
100
AcDbArc
 50
269.9799759992
 51
359.9940436961
  0
ARC
  5
8C
330
1F
100
AcDbEntity
  8
0
  6
SLD-Solid
 62
     7
370
    15
100
AcDbCircle
 10
-89.3965772545
 20
86.315995803
 30
0.0
 40
0.2111242693629016
100
AcDbArc
 50
179.8971118522
 51
269.966487732
  0
LINE
  5
8D
330
1F
100
AcDbEntity
  8
0
  6
SLD-Solid
 62
     7
370
    15
100
AcDbLine
 10
-89.6077011834
 20
86.3163749264
 30
0.0
 11
-89.6077011834
 21
92.4914720045
 31
0.0
  0
ARC
  5
8E
330
1F
100
AcDbEntity
  8
0
  6
SLD-Solid
 62
     7
370
    15
100
AcDbCircle
 10
-89.396757771
 20
92.4921277946
 30
0.0
 40
0.2109444318385084
100
AcDbArc
 50
89.9845097568
 51
180.1781230533
  0
ARC
  5
8F
330
1F
100
AcDbEntity
  8
0
  6
SLD-Solid
 62
     7
370
    15
100
AcDbCircle
 10
-88.0342505154
 20
82.9790230176
 30
0.0
 40
0.2109499013264303
100
AcDbArc
 50
269.9590743234
 51
0.1230187251
  0
LINE
  5
90
330
1F
100
AcDbEntity
  8
0
  6
SLD-Solid
 62
     7
370
    15
100
AcDbLine
 10
-90.7585010986
 20
82.7680731701
 30
0.0
 11
-88.0344011943
 21
82.7680731701
 31
0.0
  0
ARC
  5
91
330
1F
100
AcDbEntity
  8
0
  6
SLD-Solid
 62
     7
370
    15
100
AcDbCircle
 10
-90.7587562521
 20
82.9791184934
 30
0.0
 40
0.2110454776260229
100
AcDbArc
 50
179.9029573464
 51
270.0692704718
  0
LINE
  5
92
330
1F
100
AcDbEntity
  8
0
  6
SLD-Solid
 62
     7
370
    15
100
AcDbLine
 10
-90.969801427
 20
83.9100758122
 30
0.0
 11
-90.969801427
 21
82.9794759439
 31
0.0
  0
LINE
  5
93
330
1F
100
AcDbEntity
  8
0
  6
SLD-Solid
 62
     7
370
    15
100
AcDbLine
 10
-92.4840015482
 20
83.9100758122
 30
0.0
 11
-90.969801427
 21
83.9100758122
 31
0.0
  0
LINE
  5
94
330
1F
100
AcDbEntity
  8
0
  6
SLD-Solid
 62
     7
370
    15
100
AcDbLine
 10
-92.6953018765
 20
97.601273893
 30
0.0
 11
-92.6953018765
 21
84.1211731123
 31
0.0
  0
ARC
  5
95
330
1F
100
AcDbEntity
  8
0
  6
SLD-Solid
 62
     7
370
    15
100
AcDbCircle
 10
-92.4843368571
 20
97.6014101214
 30
0.0
 40
0.210965063419546
100
AcDbArc
 50
89.90893376
 51
180.0369981288
  0
LINE
  5
96
330
1F
100
AcDbEntity
  8
0
  6
SLD-Solid
 62
     7
370
    15
100
AcDbLine
 10
-86.3091009791
 20
97.8123749183
 30
0.0
 11
-92.4840015482
 21
97.8123749183
 31
0.0
  0
ARC
  5
97
330
1F
100
AcDbEntity
  8
0
  6
SLD-Solid
 62
     7
370
    15
100
AcDbCircle
 10
-86.3087468596
 20
97.6012296988
 30
0.0
 40
0.2111455164571392
100
AcDbArc
 50
0.0119923878
 51
90.0960928123
  0
LINE
  5
98
330
1F
100
AcDbEntity
  8
0
  6
SLD-Solid
 62
     7
370
    15
100
AcDbLine
 10
-86.0976013477
 20
84.1211731123
 30
0.0
 11
-86.0976013477
 21
97.601273893
 31
0.0
  0
ARC
  5
99
330
1F
100
AcDbEntity
  8
0
  6
SLD-Solid
 62
     7
370
    15
100
AcDbCircle
 10
-86.3086531511
 20
84.1211271455
 30
0.0
 40
0.2110518083656631
100
AcDbArc
 50
269.8784247509
 51
0.0124789459
  0
LINE
  5
9A
330
1F
100
AcDbEntity
  8
0
  6
SLD-Solid
 62
     7
370
    15
100
AcDbLine
 10
-92.2726006369
 20
84.3327696012
 30
0.0
 11
-92.2726006369
 21
97.3896736788
 31
0.0
  0
LINE
  5
9B
330
1F
100
AcDbEntity
  8
0
  6
SLD-Solid
 62
     7
370
    15
100
AcDbLine
 10
-90.5473013531
 20
83.1907744096
 30
0.0
 11
-90.5473013531
 21
83.9100758122
 31
0.0
  0
LINE
  5
9C
330
1F
100
AcDbEntity
  8
0
  6
SLD-Solid
 62
     7
370
    15
100
AcDbLine
 10
-86.5203007247
 20
84.3327696012
 30
0.0
 11
-92.2726006369
 21
84.3327696012
 31
0.0
  0
LINE
  5
9D
330
1F
100
AcDbEntity
  8
0
  6
SLD-Solid
 62
     7
370
    15
100
AcDbLine
 10
-86.5203007247
 20
97.3896736788
 30
0.0
 11
-86.5203007247
 21
84.3327696012
 31
0.0
  0
LINE
  5
9E
330
1F
100
AcDbEntity
  8
0
  6
SLD-Solid
 62
     7
370
    15
100
AcDbLine
 10
-88.2457005914
 20
83.1907744096
 30
0.0
 11
-90.5473013531
 21
83.1907744096
 31
0.0
  0
LINE
  5
9F
330
1F
100
AcDbEntity
  8
0
  6
SLD-Solid
 62
     7
370
    15
100
AcDbLine
 10
-88.2457005914
 20
83.9100758122
 30
0.0
 11
-88.2457005914
 21
83.1907744096
 31
0.0
  0
LINE
  5
A0
330
1F
100
AcDbEntity
  8
0
  6
SLD-Solid
 62
     7
370
    15
100
AcDbLine
 10
-90.5473013531
 20
83.9100758122
 30
0.0
 11
-88.2457005914
 21
83.9100758122
 31
0.0
  0
LINE
  5
A1
330
1F
100
AcDbEntity
  8
0
  6
SLD-Solid
 62
     7
370
    15
100
AcDbLine
 10
-87.8233011003
 20
83.9100758122
 30
0.0
 11
-86.3091009791
 21
83.9100758122
 31
0.0
  0
LINE
  5
A2
330
1F
100
AcDbEntity
  8
0
  6
SLD-Solid
 62
     7
370
    15
100
AcDbLine
 10
-87.8233011003
 20
82.9794759439
 30
0.0
 11
-87.8233011003
 21
83.9100758122
 31
0.0
  0
ARC
  5
A3
330
1F
100
AcDbEntity
  8
0
  6
SLD-Solid
 62
     7
370
    15
100
AcDbCircle
 10
-92.4843810738
 20
84.1209963476
 30
0.0
 40
0.210920876849093
100
AcDbArc
 50
179.9519826097
 51
270.1030966059
  0
LINE
  5
A4
330
1F
100
AcDbEntity
  8
0
  6
SLD-Solid
 62
     7
370
    15
100
AcDbLine
 10
-92.2726006369
 20
97.3896736788
 30
0.0
 11
-86.5203007247
 21
97.3896736788
 31
0.0
  0
ARC
  5
A5
330
1F
100
AcDbEntity
  8
0
  6
SLD-Solid
 62
     7
370
    15
100
AcDbCircle
 10
-87.540813379
 20
77.1585926998
 30
0.0
 40
0.2113230697598109
100
AcDbArc
 50
192.0231598646
 51
269.9220048983
  0
LINE
  5
A6
330
1F
100
AcDbEntity
  8
0
  6
SLD-Solid
 62
     7
370
    15
100
AcDbLine
 10
-87.747500756
 20
77.1145726131
 30
0.0
 11
-88.7062014203
 21
81.5877745436
 31
0.0
  0
ARC
  5
A7
330
1F
100
AcDbEntity
  8
0
  6
SLD-Solid
 62
     7
370
    15
100
AcDbCircle
 10
-88.4997426991
 20
81.6321024162
 30
0.0
 40
0.2111638317986745
100
AcDbArc
 50
102.0985546152
 51
192.1177642594
  0
ARC
  5
A8
330
1F
100
AcDbEntity
  8
0
  6
SLD-Solid
 62
     7
370
    15
100
AcDbCircle
 10
-88.5012678897
 20
81.6297679494
 30
0.0
 40
0.2131359786953994
100
AcDbArc
 50
12.5207892731
 51
101.566115766
  0
LINE
  5
A9
330
1F
100
AcDbEntity
  8
0
  6
SLD-Solid
 62
     7
370
    15
100
AcDbLine
 10
-88.2932008366
 20
81.6759745167
 30
0.0
 11
-87.3344014521
 21
77.2027725862
 31
0.0
  0
ARC
  5
AA
330
1F
100
AcDbEntity
  8
0
  6
SLD-Solid
 62
     7
370
    15
100
AcDbCircle
 10
-87.5401985046
 20
77.1581198127
 30
0.0
 40
0.210585604938832
100
AcDbArc
 50
281.9204925073
 51
12.2419844974
  0
LWPOLYLINE
  5
AB
330
1F
100
AcDbEntity
  8
0
  6
SLD-Solid
 62
     7
370
    15
100
AcDbPolyline
 90
        3
 70
   128
 43
0.0
 10
-87.4967011745
 20
76.9520754503
 10
-87.5215646933
 20
76.9482011484
 10
-87.541101047
 20
76.9472698258
  0
ARC
  5
AC
330
1F
100
AcDbEntity
  8
0
  6
SLD-Solid
 62
     7
370
    15
100
AcDbCircle
 10
-89.3969579631
 20
75.1408132059
 30
0.0
 40
0.2107435301813403
100
AcDbArc
 50
179.9017506656
 51
270.0699321495
  0
LINE
  5
AD
330
1F
100
AcDbEntity
  8
0
  6
SLD-Solid
 62
     7
370
    15
100
AcDbLine
 10
-89.6077011834
 20
75.1411745833
 30
0.0
 11
-89.6077011834
 21
81.6318745302
 31
0.0
  0
ARC
  5
AE
330
1F
100
AcDbEntity
  8
0
  6
SLD-Solid
 62
     7
370
    15
100
AcDbCircle
 10
-89.3969329559
 20
81.6322034739
 30
0.0
 40
0.2107684842290762
100
AcDbArc
 50
89.936874148
 51
180.089420845
  0
ARC
  5
AF
330
1F
100
AcDbEntity
  8
0
  6
SLD-Solid
 62
     7
370
    15
100
AcDbCircle
 10
-89.3962747417
 20
81.6317989627
 30
0.0
 40
0.2111732972682997
100
AcDbArc
 50
0.0205030692
 51
90.1155826591
  0
LINE
  5
B0
330
1F
100
AcDbEntity
  8
0
  6
SLD-Solid
 62
     7
370
    15
100
AcDbLine
 10
-89.185101458
 20
81.6318745302
 30
0.0
 11
-89.185101458
 21
75.1411745833
 31
0.0
  0
ARC
  5
B1
330
1F
100
AcDbEntity
  8
0
  6
SLD-Solid
 62
     7
370
    15
100
AcDbCircle
 10
-89.3962874658
 20
75.1412554516
 30
0.0
 40
0.2111860233003572
100
AcDbArc
 50
269.8878764137
 51
359.9780600444
  0
LWPOLYLINE
  5
B2
330
1F
100
AcDbEntity
  8
0
  6
SLD-Solid
 62
     7
370
    15
100
AcDbPolyline
 90
        3
 70
   128
 43
0.0
 10
-91.2675005506
 20
76.9002715634
 10
-91.304950894
 20
76.9034529613
 10
-91.3345017593
 20
76.9110749053
  0
LINE
  5
B3
330
1F
100
AcDbEntity
  8
0
  6
SLD-Solid
 62
     7
370
    15
100
AcDbLine
 10
-91.4523010265
 20
77.2255713628
 30
0.0
 11
-90.4996008735
 21
81.6759745167
 31
0.0
  0
ARC
  5
B4
330
1F
100
AcDbEntity
  8
0
  6
SLD-Solid
 62
     7
370
    15
100
AcDbCircle
 10
-90.2930326144
 20
81.6320726746
 30
0.0
 40
0.2112292156782664
100
AcDbArc
 50
347.8942945874
 51
77.8572772552
  0
LINE
  5
B5
330
1F
100
AcDbEntity
  8
0
  6
SLD-Solid
 62
     7
370
    15
100
AcDbLine
 10
-90.0865006383
 20
81.5877745436
 30
0.0
 11
-91.0672010045
 21
77.0447755741
 31
0.0
  0
ARC
  5
B6
330
1F
100
AcDbEntity
  8
0
  6
SLD-Solid
 62
     7
370
    15
100
AcDbCircle
 10
-91.2678625307
 20
77.1118446744
 30
0.0
 40
0.2115734206844178
100
AcDbArc
 50
270.0980271708
 51
341.5183126466
  0
ARC
  5
B7
330
1F
100
AcDbEntity
  8
0
  6
SLD-Solid
 62
     7
370
    15
100
AcDbCircle
 10
-91.2675317015
 20
77.1115087791
 30
0.0
 40
0.2113261139291686
100
AcDbArc
 50
161.5547707684
 51
251.5242145783
  0
LINE
  5
B8
330
1F
100
AcDbEntity
  8
0
  6
SLD-Solid
 62
     7
370
    15
100
AcDbLine
 10
-91.4680012624
 20
77.1783719348
 30
0.0
 11
-91.4523010265
 21
77.2255713628
 31
0.0
  0
ARC
  5
B9
330
1F
100
AcDbEntity
  8
0
  6
SLD-Solid
 62
     7
370
    15
100
AcDbCircle
 10
-90.2911414949
 20
81.6292148371
 30
0.0
 40
0.2136393694269765
100
AcDbArc
 50
78.5143413729
 51
167.3572102434
  0
ARC
  5
BA
330
1F
100
AcDbEntity
  8
0
  6
SLD-Solid
 62
     7
370
    15
100
AcDbCircle
 10
-88.0021719311
 20
71.4882571243
 30
0.0
 40
0.8727814893911735
100
AcDbArc
 50
269.9586757709
 51
334.7006257498
  0
LWPOLYLINE
  5
BB
330
1F
100
AcDbEntity
  8
0
  6
SLD-Solid
 62
     7
370
    15
100
AcDbPolyline
 90
        3
 70
   128
 43
0.0
 10
-88.3786012541
 20
70.7004720854
 10
-88.1699449505
 20
70.6315616654
 10
-88.0028014194
 20
70.6154758619
  0
LINE
  5
BC
330
1F
100
AcDbEntity
  8
0
  6
SLD-Solid
 62
     7
370
    15
100
AcDbLine
 10
-91.2330006372
 20
72.0688755201
 30
0.0
 11
-91.2194014649
 21
72.063369541
 31
0.0
  0
LWPOLYLINE
  5
BD
330
1F
100
AcDbEntity
  8
0
  6
SLD-Solid
 62
     7
370
    15
100
AcDbPolyline
 90
        3
 70
   128
 43
0.0
 10
-91.2932013284
 20
72.0813701438
 10
-91.258554266
 20
72.0772723244
 10
-91.2330006372
 20
72.0688755201
  0
LWPOLYLINE
  5
BE
330
1F
100
AcDbEntity
  8
0
  6
SLD-Solid
 62
     7
370
    15
100
AcDbPolyline
 90
        3
 70
   128
 43
0.0
 10
-91.3349003653
 20
72.0754767345
 10
-91.3115409325
 20
72.0801556991
 10
-91.2932013284
 20
72.0813701438
  0
ARC
  5
BF
330
1F
100
AcDbEntity
  8
0
  6
SLD-Solid
 62
     7
370
    15
100
AcDbCircle
 10
-91.2922054758
 20
71.9237084955
 30
0.0
 40
0.1576592907790181
100
AcDbArc
 50
105.7121615628
 51
195.5395332941
  0
LWPOLYLINE
  5
C0
330
1F
100
AcDbEntity
  8
0
  6
SLD-Solid
 62
     7
370
    15
100
AcDbPolyline
 90
        3
 70
   128
 43
0.0
 10
-91.3747013669
 20
71.7901716517
 10
-91.4214686613
 20
71.8340555714
 10
-91.4441016625
 20
71.8814710664
  0
LINE
  5
C1
330
1F
100
AcDbEntity
  8
0
  6
SLD-Solid
 62
     7
370
    15
100
AcDbLine
 10
-91.3467002224
 20
71.7749724673
 30
0.0
 11
-91.3747013669
 21
71.7901716517
 31
0.0
  0
LINE
  5
C2
330
1F
100
AcDbEntity
  8
0
  6
SLD-Solid
 62
     7
370
    15
100
AcDbLine
 10
-88.4985006537
 20
70.390572636
 30
0.0
 11
-91.3467002224
 21
71.7749724673
 31
0.0
  0
ARC
  5
C3
330
1F
100
AcDbEntity
  8
0
  6
SLD-Solid
 62
     7
370
    15
100
AcDbCircle
 10
-88.0170952399
 20
71.3942634421
 30
0.0
 40
1.104730916219026
100
AcDbArc
 50
269.5121847889
 51
323.9777624861
  0
LWPOLYLINE
  5
C4
330
1F
100
AcDbEntity
  8
0
  6
SLD-Solid
 62
     7
370
    15
100
AcDbPolyline
 90
        3
 70
   128
 43
0.0
 10
-86.8983012746
 20
71.1889768528
 10
-87.0081293519
 20
70.9331090139
 10
-87.123601244
 20
70.7445720719
  0
LWPOLYLINE
  5
C5
330
1F
100
AcDbEntity
  8
0
  6
SLD-Solid
 62
     7
370
    15
100
AcDbPolyline
 90
        3
 70
   128
 43
0.0
 10
-86.8455008726
 20
71.4126730846
 10
-86.8701604317
 20
71.2867880748
 10
-86.8983012746
 20
71.1889768528
  0
LINE
  5
C6
330
1F
100
AcDbEntity
  8
0
  6
SLD-Solid
 62
     7
370
    15
100
AcDbLine
 10
-82.4841009575
 20
72.5322718309
 30
0.0
 11
-86.8455008726
 21
71.4126730846
 31
0.0
  0
LINE
  5
C7
330
1F
100
AcDbEntity
  8
0
  6
SLD-Solid
 62
     7
370
    15
100
AcDbLine
 10
-82.4489011552
 20
72.5380758332
 30
0.0
 11
-82.4841009575
 21
72.5322718309
 31
0.0
  0
LWPOLYLINE
  5
C8
330
1F
100
AcDbEntity
  8
0
  6
SLD-Solid
 62
     7
370
    15
100
AcDbPolyline
 90
        3
 70
   128
 43
0.0
 10
-82.2181012604
 20
72.5701729344
 10
-82.3472631286
 20
72.5604350256
 10
-82.4489011552
 20
72.5380758332
  0
ARC
  5
C9
330
1F
100
AcDbEntity
  8
0
  6
SLD-Solid
 62
     7
370
    15
100
AcDbCircle
 10
-82.218890789
 20
71.7219347718
 30
0.0
 40
0.848238530002375
100
AcDbArc
 50
15.7005771234
 51
89.9466698774
  0
LINE
  5
CA
330
1F
100
AcDbEntity
  8
0
  6
SLD-Solid
 62
     7
370
    15
100
AcDbLine
 10
-81.3479009207
 20
71.7637742447
 30
0.0
 11
-81.4023008692
 21
71.9514767216
 31
0.0
  0
LWPOLYLINE
  5
CB
330
1F
100
AcDbEntity
  8
0
  6
SLD-Solid
 62
     7
370
    15
100
AcDbPolyline
 90
        8
 70
   128
 43
0.0
 10
-88.1953011389
 20
67.8642744707
 10
-87.7115815069
 20
68.0844465779
 10
-86.8250583421
 20
68.488662927
 10
-85.6951032888
 20
69.0039599823
 10
-84.4810879912
 20
69.5573742078
 10
-83.2927506539
 20
70.0985173272
 10
-82.3703087057
 20
70.5175156282
 10
-81.8970012601
 20
70.7304755734
  0
LWPOLYLINE
  5
CC
330
1F
100
AcDbEntity
  8
0
  6
SLD-Solid
 62
     7
370
    15
100
AcDbPolyline
 90
        3
 70
   128
 43
0.0
 10
-88.386601315
 20
67.8142736243
 10
-88.2803811814
 20
67.8333098577
 10
-88.1953011389
 20
67.8642744707
  0
LWPOLYLINE
  5
CD
330
1F
100
AcDbEntity
  8
0
  6
SLD-Solid
 62
     7
370
    15
100
AcDbPolyline
 90
        3
 70
   128
 43
0.0
 10
-88.4255007963
 20
67.8124705838
 10
-88.4037851478
 20
67.812999575
 10
-88.386601315
 20
67.8142736243
  0
LWPOLYLINE
  5
CE
330
1F
100
AcDbEntity
  8
0
  6
SLD-Solid
 62
     7
370
    15
100
AcDbPolyline
 90
        3
 70
   128
 43
0.0
 10
-88.596000814
 20
67.8403730081
 10
-88.5114106472
 20
67.8199211644
 10
-88.4255007963
 20
67.8124705838
  0
LWPOLYLINE
  5
CF
330
1F
100
AcDbEntity
  8
0
  6
SLD-Solid
 62
     7
370
    15
100
AcDbPolyline
 90
        4
 70
   128
 43
0.0
 10
-94.6831018786
 20
70.0329745697
 10
-88.9963577624
 20
67.9840127515
 10
-88.7027275871
 20
67.8784827279
 10
-88.596000814
 20
67.8403730081
  0
LINE
  5
D0
330
1F
100
AcDbEntity
  8
0
  6
SLD-Solid
 62
     7
370
    15
100
AcDbLine
 10
-96.4035005431
 20
69.5470700549
 30
0.0
 11
-94.6831018786
 21
70.0329745697
 31
0.0
  0
LWPOLYLINE
  5
D1
330
1F
100
AcDbEntity
  8
0
  6
SLD-Solid
 62
     7
370
    15
100
AcDbPolyline
 90
        3
 70
   128
 43
0.0
 10
-96.5104014735
 20
69.5287714289
 10
-96.4636174153
 20
69.5323626088
 10
-96.42720084
 20
69.5402751254
  0
ARC
  5
D2
330
1F
100
AcDbEntity
  8
0
  6
SLD-Solid
 62
     7
370
    15
100
AcDbCircle
 10
-96.5101038968
 20
69.8359409589
 30
0.0
 40
0.3071696740882792
100
AcDbArc
 50
195.7092178999
 51
269.9444935715
  0
LINE
  5
D3
330
1F
100
AcDbEntity
  8
0
  6
SLD-Solid
 62
     7
370
    15
100
AcDbLine
 10
-97.4647016387
 20
72.5108737634
 30
0.0
 11
-96.8058002304
 21
69.7527731346
 31
0.0
  0
LINE
  5
D4
330
1F
100
AcDbEntity
  8
0
  6
SLD-Solid
 62
     7
370
    15
100
AcDbLine
 10
-97.4685014348
 20
72.5249702619
 30
0.0
 11
-97.4647016387
 21
72.5108737634
 31
0.0
  0
ARC
  5
D5
330
1F
100
AcDbEntity
  8
0
  6
SLD-Solid
 62
     7
370
    15
100
AcDbCircle
 10
-97.1725048048
 20
72.6092768959
 30
0.0
 40
0.3077687662507325
100
AcDbArc
 50
128.7875063356
 51
195.8981694635
  0
LINE
  5
D6
330
1F
100
AcDbEntity
  8
0
  6
SLD-Solid
 62
     7
370
    15
100
AcDbLine
 10
-97.3528013687
 20
72.8598738598
 30
0.0
 11
-97.3653015803
 21
72.849174826
 31
0.0
  0
LINE
  5
D7
330
1F
100
AcDbEntity
  8
0
  6
SLD-Solid
 62
     7
370
    15
100
AcDbLine
 10
-92.5618005108
 20
74.2805729197
 30
0.0
 11
-92.625601695
 21
74.2628703402
 31
0.0
  0
LWPOLYLINE
  5
D8
330
1F
100
AcDbEntity
  8
0
  6
SLD-Solid
 62
     7
370
    15
100
AcDbPolyline
 90
        3
 70
   128
 43
0.0
 10
-91.9379019301
 20
74.3670741605
 10
-92.2866561572
 20
74.3403340267
 10
-92.5618005108
 20
74.2805729197
  0
LINE
  5
D9
330
1F
100
AcDbEntity
  8
0
  6
SLD-Solid
 62
     7
370
    15
100
AcDbLine
 10
-91.2194014649
 20
72.063369541
 30
0.0
 11
-88.3786012541
 21
70.7004720854
 31
0.0
  0
LINE
  5
DA
330
1F
100
AcDbEntity
  8
0
  6
SLD-Solid
 62
     7
370
    15
100
AcDbLine
 10
-97.0310014795
 20
72.5146735595
 30
0.0
 11
-92.5122001331
 21
73.8558749245
 31
0.0
  0
LINE
  5
DB
330
1F
100
AcDbEntity
  8
0
  6
SLD-Solid
 62
     7
370
    15
100
AcDbLine
 10
-96.425500245
 20
69.9798742818
 30
0.0
 11
-97.0310014795
 21
72.5146735595
 31
0.0
  0
LINE
  5
DC
330
1F
100
AcDbEntity
  8
0
  6
SLD-Solid
 62
     7
370
    15
100
AcDbLine
 10
-94.7982003103
 20
70.4389716076
 30
0.0
 11
-96.425500245
 21
69.9798742818
 31
0.0
  0
LINE
  5
DD
330
1F
100
AcDbEntity
  8
0
  6
SLD-Solid
 62
     7
370
    15
100
AcDbLine
 10
-94.6675003629
 20
70.4763735222
 30
0.0
 11
-94.7982003103
 21
70.4389716076
 31
0.0
  0
LINE
  5
DE
330
1F
100
AcDbEntity
  8
0
  6
SLD-Solid
 62
     7
370
    15
100
AcDbLine
 10
-94.5400004398
 20
70.4300756143
 30
0.0
 11
-94.6675003629
 21
70.4763735222
 31
0.0
  0
LWPOLYLINE
  5
DF
330
1F
100
AcDbEntity
  8
0
  6
SLD-Solid
 62
     7
370
    15
100
AcDbPolyline
 90
        6
 70
   128
 43
0.0
 10
-88.4592007037
 20
68.2404766368
 10
-88.8362606178
 20
68.375607817
 10
-89.5075868006
 20
68.6171481894
 10
-91.2262736942
 20
69.2361275243
 10
-92.9720574181
 20
69.8651204394
 10
-94.5400004398
 20
70.4300756143
  0
LWPOLYLINE
  5
E0
330
1F
100
AcDbEntity
  8
0
  6
SLD-Solid
 62
     7
370
    15
100
AcDbPolyline
 90
        3
 70
   128
 43
0.0
 10
-88.4255007963
 20
68.234769492
 10
-88.44035446
 20
68.2361478494
 10
-88.4592007037
 20
68.2404766368
  0
LINE
  5
E1
330
1F
100
AcDbEntity
  8
0
  6
SLD-Solid
 62
     7
370
    15
100
AcDbLine
 10
-92.625601695
 20
74.2628703402
 30
0.0
 11
-97.3528013687
 21
72.8598738598
 31
0.0
  0
LWPOLYLINE
  5
E2
330
1F
100
AcDbEntity
  8
0
  6
SLD-Solid
 62
     7
370
    15
100
AcDbPolyline
 90
        3
 70
   128
 43
0.0
 10
-86.9927010621
 20
68.876271932
 10
-87.9663149949
 20
68.4322918342
 10
-88.367901289
 20
68.2492757724
  0
LWPOLYLINE
  5
E3
330
1F
100
AcDbEntity
  8
0
  6
SLD-Solid
 62
     7
370
    15
100
AcDbPolyline
 90
        6
 70
   128
 43
0.0
 10
-82.0669010404
 20
71.1176747965
 10
-82.475891349
 20
70.933675258
 10
-83.2680873695
 20
70.5739388751
 10
-84.3104464124
 20
70.0993592428
 10
-85.6791320379
 20
69.4754327224
 10
-86.9927010621
 20
68.876271932
  0
ARC
  5
E4
330
1F
100
AcDbEntity
  8
0
  6
SLD-Solid
 62
     7
370
    15
100
AcDbCircle
 10
-82.1794236542
 20
71.5412321062
 30
0.0
 40
0.4382489397699752
100
AcDbArc
 50
284.8776030453
 51
14.2722841472
  0
LINE
  5
E5
330
1F
100
AcDbEntity
  8
0
  6
SLD-Solid
 62
     7
370
    15
100
AcDbLine
 10
-81.8078010465
 20
71.8335712837
 30
0.0
 11
-81.7547012243
 21
71.649273722
 31
0.0
  0
ARC
  5
E6
330
1F
100
AcDbEntity
  8
0
  6
SLD-Solid
 62
     7
370
    15
100
AcDbCircle
 10
-82.2213470668
 20
71.718676388
 30
0.0
 40
0.4292099112487473
100
AcDbArc
 50
15.5268122013
 51
89.5667090281
  0
LWPOLYLINE
  5
E7
330
1F
100
AcDbEntity
  8
0
  6
SLD-Solid
 62
     7
370
    15
100
AcDbPolyline
 90
        3
 70
   128
 43
0.0
 10
-82.3342008639
 20
72.131676464
 10
-82.2694036301
 20
72.1447075294
 10
-82.2181012604
 20
72.1478740262
  0
LINE
  5
E8
330
1F
100
AcDbEntity
  8
0
  6
SLD-Solid
 62
     7
370
    15
100
AcDbLine
 10
-82.3573009233
 20
72.1250752495
 30
0.0
 11
-82.3342008639
 21
72.131676464
 31
0.0
  0
LINE
  5
E9
330
1F
100
AcDbEntity
  8
0
  6
SLD-Solid
 62
     7
370
    15
100
AcDbLine
 10
-82.3807008687
 20
72.121372311
 30
0.0
 11
-82.3573009233
 21
72.1250752495
 31
0.0
  0
ARC
  5
EA
330
1F
100
AcDbEntity
  8
0
  6
SLD-Solid
 62
     7
370
    15
100
AcDbCircle
 10
-82.1638599875
 20
71.5348324398
 30
0.0
 40
0.8474689073021968
100
AcDbArc
 50
288.3541194186
 51
15.6730580689
  0
LINE
  5
EB
330
1F
100
AcDbEntity
  8
0
  6
SLD-Solid
 62
     7
370
    15
100
AcDbLine
 10
-86.4938008721
 20
71.0671747612
 30
0.0
 11
-82.3969012249
 21
72.1184740351
 31
0.0
  0
LWPOLYLINE
  5
EC
330
1F
100
AcDbEntity
  8
0
  6
SLD-Solid
 62
     7
370
    15
100
AcDbPolyline
 90
        3
 70
   128
 43
0.0
 10
-86.4959010045
 20
71.0599700497
 10
-86.4948905195
 20
71.0637996482
 10
-86.4938008721
 20
71.0671747612
  0
LWPOLYLINE
  5
ED
330
1F
100
AcDbEntity
  8
0
  6
SLD-Solid
 62
     7
370
    15
100
AcDbPolyline
 90
        3
 70
   128
 43
0.0
 10
-86.780800962
 20
70.4971755432
 10
-86.5997434716
 20
70.8043629812
 10
-86.4959010045
 20
71.0599700497
  0
ARC
  5
EE
330
1F
100
AcDbEntity
  8
0
  6
SLD-Solid
 62
     7
370
    15
100
AcDbCircle
 10
-88.0214342577
 20
71.402977747
 30
0.0
 40
1.53611477658446
100
AcDbArc
 50
269.8110224857
 51
323.8663412849
  0
LWPOLYLINE
  5
EF
330
1F
100
AcDbEntity
  8
0
  6
SLD-Solid
 62
     7
370
    15
100
AcDbPolyline
 90
        3
 70
   128
 43
0.0
 10
-88.6711008038
 20
70.004669814
 10
-88.3169551502
 20
69.8937381195
 10
-88.0265007849
 20
69.8668713258
  0
LINE
  5
F0
330
1F
100
AcDbEntity
  8
0
  6
SLD-Solid
 62
     7
370
    15
100
AcDbLine
 10
-91.531601281
 20
71.3950748132
 30
0.0
 11
-88.6711008038
 21
70.004669814
 31
0.0
  0
LINE
  5
F1
330
1F
100
AcDbEntity
  8
0
  6
SLD-Solid
 62
     7
370
    15
100
AcDbLine
 10
-91.54150124
 20
71.3999698447
 30
0.0
 11
-91.531601281
 21
71.3950748132
 31
0.0
  0
LINE
  5
F2
330
1F
100
AcDbEntity
  8
0
  6
SLD-Solid
 62
     7
370
    15
100
AcDbLine
 10
-91.5509001474
 20
71.4053715156
 30
0.0
 11
-91.54150124
 21
71.3999698447
 31
0.0
  0
LINE
  5
F3
330
1F
100
AcDbEntity
  8
0
  6
SLD-Solid
 62
     7
370
    15
100
AcDbLine
 10
-91.5788007091
 20
71.4204738425
 30
0.0
 11
-91.5509001474
 21
71.4053715156
 31
0.0
  0
LWPOLYLINE
  5
F4
330
1F
100
AcDbEntity
  8
0
  6
SLD-Solid
 62
     7
370
    15
100
AcDbPolyline
 90
        3
 70
   128
 43
0.0
 10
-91.8504004489
 20
71.7670748519
 10
-91.7347711633
 20
71.5503300117
 10
-91.5788007091
 20
71.4204738425
  0
LWPOLYLINE
  5
F5
330
1F
100
AcDbEntity
  8
0
  6
SLD-Solid
 62
     7
370
    15
100
AcDbPolyline
 90
        3
 70
   128
 43
0.0
 10
-91.7981010984
 20
72.2080747174
 10
-91.871107475
 20
71.9660500573
 10
-91.8504004489
 20
71.7670748519
  0
LWPOLYLINE
  5
F6
330
1F
100
AcDbEntity
  8
0
  6
SLD-Solid
 62
     7
370
    15
100
AcDbPolyline
 90
        3
 70
   128
 43
0.0
 10
-91.4489016991
 20
72.4823752927
 10
-91.6717616032
 20
72.3627189683
 10
-91.7981010984
 20
72.2080747174
  0
LWPOLYLINE
  5
F7
330
1F
100
AcDbEntity
  8
0
  6
SLD-Solid
 62
     7
370
    15
100
AcDbPolyline
 90
        3
 70
   128
 43
0.0
 10
-91.2932013284
 20
72.5040713834
 10
-91.3794287603
 20
72.4972839044
 10
-91.4489016991
 20
72.4823752927
  0
LWPOLYLINE
  5
F8
330
1F
100
AcDbEntity
  8
0
  6
SLD-Solid
 62
     7
370
    15
100
AcDbPolyline
 90
        3
 70
   128
 43
0.0
 10
-91.0670007701
 20
72.4575723098
 10
-91.1913435097
 20
72.4949742244
 10
-91.2932013284
 20
72.5040713834
  0
LINE
  5
F9
330
1F
100
AcDbEntity
  8
0
  6
SLD-Solid
 62
     7
370
    15
100
AcDbLine
 10
-91.0586011718
 20
72.454070537
 30
0.0
 11
-91.0670007701
 21
72.4575723098
 31
0.0
  0
LINE
  5
FA
330
1F
100
AcDbEntity
  8
0
  6
SLD-Solid
 62
     7
370
    15
100
AcDbLine
 10
-91.0370010074
 20
72.444369881
 30
0.0
 11
-91.0586011718
 21
72.454070537
 31
0.0
  0
LINE
  5
FB
330
1F
100
AcDbEntity
  8
0
  6
SLD-Solid
 62
     7
370
    15
100
AcDbLine
 10
-88.1957006763
 20
71.0812712597
 30
0.0
 11
-91.0370010074
 21
72.444369881
 31
0.0
  0
LWPOLYLINE
  5
FC
330
1F
100
AcDbEntity
  8
0
  6
SLD-Solid
 62
     7
370
    15
100
AcDbPolyline
 90
        3
 70
   128
 43
0.0
 10
-88.0028014194
 20
71.0381696509
 10
-88.1133978377
 20
71.0518265651
 10
-88.1957006763
 20
71.0812712597
  0
ARC
  5
FD
330
1F
100
AcDbEntity
  8
0
  6
SLD-Solid
 62
     7
370
    15
100
AcDbCircle
 10
-88.003751213
 20
71.4913538661
 30
0.0
 40
0.4531852105136214
100
AcDbArc
 50
270.1200815993
 51
330.1471526699
  0
LINE
  5
FE
330
1F
100
AcDbEntity
  8
0
  6
SLD-Solid
 62
     7
370
    15
100
AcDbLine
 10
-87.5770007383
 20
71.3392699646
 30
0.0
 11
-87.6086014445
 21
71.2741742419
 31
0.0
  0
ARC
  5
FF
330
1F
100
AcDbEntity
  8
0
  6
SLD-Solid
 62
     7
370
    15
100
AcDbCircle
 10
-87.9697044101
 20
71.5613012576
 30
0.0
 40
0.4511253361792005
100
AcDbArc
 50
330.516553958
 51
60.6372704001
  0
LINE
  5
100
330
1F
100
AcDbEntity
  8
0
  6
SLD-Solid
 62
     7
370
    15
100
AcDbLine
 10
-91.0810013424
 20
73.7353766845
 30
0.0
 11
-87.7485009964
 21
71.954471855
 31
0.0
  0
LWPOLYLINE
  5
101
330
1F
100
AcDbEntity
  8
0
  6
SLD-Solid
 62
     7
370
    15
100
AcDbPolyline
 90
        3
 70
   128
 43
0.0
 10
-91.9379019301
 20
73.9443729209
 10
-91.4440476458
 20
73.8774890588
 10
-91.0810013424
 20
73.7353766845
  0
LWPOLYLINE
  5
102
330
1F
100
AcDbEntity
  8
0
  6
SLD-Solid
 62
     7
370
    15
100
AcDbPolyline
 90
        3
 70
   128
 43
0.0
 10
-92.4473018508
 20
73.8740766929
 10
-92.1635185491
 20
73.9306415008
 10
-91.9379019301
 20
73.9443729209
  0
LINE
  5
103
330
1F
100
AcDbEntity
  8
0
  6
SLD-Solid
 62
     7
370
    15
100
AcDbLine
 10
-92.5122001331
 20
73.8558749245
 30
0.0
 11
-92.4473018508
 21
73.8740766929
 31
0.0
  0
LINE
  5
104
330
1F
100
AcDbEntity
  8
0
  6
SLD-Solid
 62
     7
370
    15
100
AcDbLine
 10
-87.2131013434
 20
71.1152757095
 30
0.0
 11
-87.2090007301
 21
71.131272106
 31
0.0
  0
ARC
  5
105
330
1F
100
AcDbEntity
  8
0
  6
SLD-Solid
 62
     7
370
    15
100
AcDbCircle
 10
-87.9700358751
 20
71.5614402534
 30
0.0
 40
0.8741962748866691
100
AcDbArc
 50
330.5230926331
 51
60.5632098127
  0
LWPOLYLINE
  5
106
330
1F
100
AcDbEntity
  8
0
  6
SLD-Solid
 62
     7
370
    15
100
AcDbPolyline
 90
        3
 70
   128
 43
0.0
 10
-88.0265007849
 20
70.2895725654
 10
-88.2931598585
 20
70.3208501028
 10
-88.4985006537
 20
70.390572636
  0
LINE
  5
107
330
1F
100
AcDbEntity
  8
0
  6
SLD-Solid
 62
     7
370
    15
100
AcDbLine
 10
-82.3969012249
 20
72.1184740351
 30
0.0
 11
-82.3807008687
 21
72.121372311
 31
0.0
  0
LINE
  5
108
330
1F
100
AcDbEntity
  8
0
  6
SLD-Solid
 62
     7
370
    15
100
AcDbLine
 10
-96.42720084
 20
69.5402751254
 30
0.0
 11
-96.4035005431
 21
69.5470700549
 31
0.0
  0
LWPOLYLINE
  5
109
330
1F
100
AcDbEntity
  8
0
  6
SLD-Solid
 62
     7
370
    15
100
AcDbPolyline
 90
        3
 70
   128
 43
0.0
 10
-88.367901289
 20
68.2492757724
 10
-88.4035988833
 20
68.2379285382
 10
-88.4255007963
 20
68.234769492
  0
LWPOLYLINE
  5
10A
330
1F
100
AcDbEntity
  8
0
  6
SLD-Solid
 62
     7
370
    15
100
AcDbPolyline
 90
        3
 70
   128
 43
0.0
 10
-90.8815008711
 20
74.1080696272
 10
-91.4545902173
 20
74.3152479218
 10
-91.9379019301
 20
74.3670741605
  0
LINE
  5
10B
330
1F
100
AcDbEntity
  8
0
  6
SLD-Solid
 62
     7
370
    15
100
AcDbLine
 10
-87.5404006924
 20
72.3227764057
 30
0.0
 11
-90.8815008711
 21
74.1080696272
 31
0.0
  0
LINE
  5
10C
330
1F
100
AcDbEntity
  8
0
  6
SLD-Solid
 62
     7
370
    15
100
AcDbLine
 10
-87.6086014445
 20
71.2741742419
 30
0.0
 11
-87.6107006456
 21
71.265769987
 31
0.0
  0
LWPOLYLINE
  5
10D
330
1F
100
AcDbEntity
  8
0
  6
SLD-Solid
 62
     7
370
    15
100
AcDbPolyline
 90
        7
 70
   128
 43
0.0
 10
-96.4936507057
 20
202.2459747778
 10
-96.3498228352
 20
203.0228393661
 10
-95.9359356325
 20
203.7553879009
 10
-95.2783865045
 20
204.4253478335
 10
-94.4035765837
 20
205.014461516
 10
-92.1077546786
 20
205.8770636605
 10
-89.2596510361
 20
206.1970735477
  0
LWPOLYLINE
  5
10E
330
1F
100
AcDbEntity
  8
0
  6
SLD-Solid
 62
     7
370
    15
100
AcDbPolyline
 90
        7
 70
   128
 43
0.0
 10
-89.2596510361
 20
206.1970735477
 10
-86.415324838
 20
205.8770636605
 10
-84.1277134727
 20
205.014461516
 10
-83.2572789054
 20
204.4253478335
 10
-82.6035463374
 20
203.7553879009
 10
-82.1923567105
 20
203.0228393661
 10
-82.0495509665
 20
202.2459747778
  0
LWPOLYLINE
  5
10F
330
1F
100
AcDbEntity
  8
0
  6
SLD-Solid
 62
     7
370
    15
100
AcDbPolyline
 90
        7
 70
   128
 43
0.0
 10
-96.7716504942
 20
202.2459747778
 10
-96.6153894673
 20
201.385190575
 10
-96.1688240181
 20
200.5895020949
 10
-95.4652880441
 20
199.8742165552
 10
-94.5381135802
 20
199.2546486245
 10
-92.1461717348
 20
198.3639093624
 10
-89.2596510361
 20
198.0397718536
  0
LWPOLYLINE
  5
110
330
1F
100
AcDbEntity
  8
0
  6
SLD-Solid
 62
     7
370
    15
100
AcDbPolyline
 90
        7
 70
   128
 43
0.0
 10
-89.2596510361
 20
206.4752745019
 10
-92.1465926926
 20
206.1508203434
 10
-94.5384879719
 20
205.2576223897
 10
-95.4655525397
 20
204.6353238212
 10
-96.1689655791
 20
203.9159255611
 10
-96.6154304455
 20
203.1144666063
 10
-96.7716504942
 20
202.2459747778
  0
LWPOLYLINE
  5
111
330
1F
100
AcDbEntity
  8
0
  6
SLD-Solid
 62
     7
370
    15
100
AcDbPolyline
 90
        7
 70
   128
 43
0.0
 10
-81.771551178
 20
202.2459747778
 10
-81.9266834419
 20
203.1144666063
 10
-82.3702914763
 20
203.9159255611
 10
-83.0696919124
 20
204.6353238212
 10
-83.9922013815
 20
205.2576223897
 10
-86.3758106838
 20
206.1508203434
 10
-89.2596510361
 20
206.4752745019
  0
LWPOLYLINE
  5
112
330
1F
100
AcDbEntity
  8
0
  6
SLD-Solid
 62
     7
370
    15
100
AcDbPolyline
 90
        7
 70
   128
 43
0.0
 10
-89.2596510361
 20
198.0397718536
 10
-86.376232573
 20
198.3639764177
 10
-83.9925757732
 20
199.254834889
 10
-83.0699559424
 20
199.8744363474
 10
-82.370432106
 20
200.5897107111
 10
-81.9267244201
 20
201.3853358613
 10
-81.771551178
 20
202.2459747778
  0
LWPOLYLINE
  5
113
330
1F
100
AcDbEntity
  8
0
  6
SLD-Solid
 62
     7
370
    15
100
AcDbPolyline
 90
        7
 70
   128
 43
0.0
 10
-89.2596510361
 20
198.3181739734
 10
-92.1077546786
 20
198.6378299581
 10
-94.4035765837
 20
199.497910081
 10
-95.2783865045
 20
200.0842521475
 10
-95.9359356325
 20
200.7500732826
 10
-96.3498228352
 20
201.4768252658
 10
-96.4936507057
 20
202.2459747778
  0
LWPOLYLINE
  5
114
330
1F
100
AcDbEntity
  8
0
  6
SLD-Solid
 62
     7
370
    15
100
AcDbPolyline
 90
        7
 70
   128
 43
0.0
 10
-82.0495509665
 20
202.2459747778
 10
-82.1923567105
 20
201.4766837047
 10
-82.6035463374
 20
200.749860941
 10
-83.2572789054
 20
200.0840323554
 10
-84.1277134727
 20
199.4977238165
 10
-86.415324838
 20
198.6377591776
 10
-89.2596510361
 20
198.3181739734
  0
LINE
  5
115
330
1F
100
AcDbEntity
  8
0
  6
SLD-Solid
 62
     7
370
    15
100
AcDbLine
 10
-94.8233516078
 20
200.8841725575
 30
0.0
 11
-92.4126510631
 21
200.8841725575
 31
0.0
  0
LWPOLYLINE
  5
116
330
1F
100
AcDbEntity
  8
0
  6
SLD-Solid
 62
     7
370
    15
100
AcDbPolyline
 90
        3
 70
   128
 43
0.0
 10
-95.3349513124
 20
201.0995725678
 10
-95.070966066
 20
200.9260038422
 10
-94.8233516078
 20
200.8841725575
  0
LINE
  5
117
330
1F
100
AcDbEntity
  8
0
  6
SLD-Solid
 62
     7
370
    15
100
AcDbLine
 10
-95.5457505892
 20
202.10157135
 30
0.0
 11
-95.5457505892
 21
201.5155720102
 31
0.0
  0
LINE
  5
118
330
1F
100
AcDbEntity
  8
0
  6
SLD-Solid
 62
     7
370
    15
100
AcDbLine
 10
-94.5060518693
 20
202.10157135
 30
0.0
 11
-95.5457505892
 21
202.10157135
 31
0.0
  0
LINE
  5
119
330
1F
100
AcDbEntity
  8
0
  6
SLD-Solid
 62
     7
370
    15
100
AcDbLine
 10
-94.5060518693
 20
201.5809732066
 30
0.0
 11
-94.5060518693
 21
202.10157135
 31
0.0
  0
LINE
  5
11A
330
1F
100
AcDbEntity
  8
0
  6
SLD-Solid
 62
     7
370
    15
100
AcDbLine
 10
-92.6110507111
 20
201.5809732066
 30
0.0
 11
-94.5060518693
 21
201.5809732066
 31
0.0
  0
LINE
  5
11B
330
1F
100
AcDbEntity
  8
0
  6
SLD-Solid
 62
     7
370
    15
100
AcDbLine
 10
-92.6110507111
 20
202.9560747133
 30
0.0
 11
-92.6110507111
 21
201.5809732066
 31
0.0
  0
LINE
  5
11C
330
1F
100
AcDbEntity
  8
0
  6
SLD-Solid
 62
     7
370
    15
100
AcDbLine
 10
-93.7716518651
 20
202.9560747133
 30
0.0
 11
-92.6110507111
 21
202.9560747133
 31
0.0
  0
LINE
  5
11D
330
1F
100
AcDbEntity
  8
0
  6
SLD-Solid
 62
     7
370
    15
100
AcDbLine
 10
-93.7716518651
 20
203.6346735941
 30
0.0
 11
-93.7716518651
 21
202.9560747133
 31
0.0
  0
LINE
  5
11E
330
1F
100
AcDbEntity
  8
0
  6
SLD-Solid
 62
     7
370
    15
100
AcDbLine
 10
-91.5711508255
 20
203.6346735941
 30
0.0
 11
-93.7716518651
 21
203.6346735941
 31
0.0
  0
LINE
  5
11F
330
1F
100
AcDbEntity
  8
0
  6
SLD-Solid
 62
     7
370
    15
100
AcDbLine
 10
-91.5711508255
 20
201.6194740819
 30
0.0
 11
-91.5711508255
 21
203.6346735941
 31
0.0
  0
ARC
  5
120
330
1F
100
AcDbEntity
  8
0
  6
SLD-Solid
 62
     7
370
    15
100
AcDbCircle
 10
-92.2375832047
 20
201.63213808
 30
0.0
 40
0.6665526932318522
100
AcDbArc
 50
306.9667270589
 51
358.9113579305
  0
LWPOLYLINE
  5
121
330
1F
100
AcDbEntity
  8
0
  6
SLD-Solid
 62
     7
370
    15
100
AcDbPolyline
 90
        3
 70
   128
 43
0.0
 10
-92.4126510631
 20
200.8841725575
 10
-92.0797516714
 20
200.9518871592
 10
-91.8367509853
 20
201.0995725678
  0
ARC
  5
122
330
1F
100
AcDbEntity
  8
0
  6
SLD-Solid
 62
     7
370
    15
100
AcDbCircle
 10
-94.942833429
 20
201.5596791986
 30
0.0
 40
0.6045283667274198
100
AcDbArc
 50
184.1840936325
 51
229.5612809317
  0
LINE
  5
123
330
1F
100
AcDbEntity
  8
0
  6
SLD-Solid
 62
     7
370
    15
100
AcDbLine
 10
-88.2921512361
 20
200.8841725575
 30
0.0
 11
-87.2477511998
 21
200.8841725575
 31
0.0
  0
LINE
  5
124
330
1F
100
AcDbEntity
  8
0
  6
SLD-Solid
 62
     7
370
    15
100
AcDbLine
 10
-88.2921512361
 20
202.947473018
 30
0.0
 11
-88.2921512361
 21
200.8841725575
 31
0.0
  0
LINE
  5
125
330
1F
100
AcDbEntity
  8
0
  6
SLD-Solid
 62
     7
370
    15
100
AcDbLine
 10
-90.254950815
 20
202.947473018
 30
0.0
 11
-88.2921512361
 21
202.947473018
 31
0.0
  0
LINE
  5
126
330
1F
100
AcDbEntity
  8
0
  6
SLD-Solid
 62
     7
370
    15
100
AcDbLine
 10
-90.254950815
 20
200.8841725575
 30
0.0
 11
-90.254950815
 21
202.947473018
 31
0.0
  0
LINE
  5
127
330
1F
100
AcDbEntity
  8
0
  6
SLD-Solid
 62
     7
370
    15
100
AcDbLine
 10
-91.2905507843
 20
200.8841725575
 30
0.0
 11
-90.254950815
 21
200.8841725575
 31
0.0
  0
LINE
  5
128
330
1F
100
AcDbEntity
  8
0
  6
SLD-Solid
 62
     7
370
    15
100
AcDbLine
 10
-91.2905507843
 20
203.6309743808
 30
0.0
 11
-91.2905507843
 21
200.8841725575
 31
0.0
  0
LINE
  5
129
330
1F
100
AcDbEntity
  8
0
  6
SLD-Solid
 62
     7
370
    15
100
AcDbLine
 10
-87.9686507519
 20
203.6309743808
 30
0.0
 11
-91.2905507843
 21
203.6309743808
 31
0.0
  0
LWPOLYLINE
  5
12A
330
1F
100
AcDbEntity
  8
0
  6
SLD-Solid
 62
     7
370
    15
100
AcDbPolyline
 90
        3
 70
   128
 43
0.0
 10
-87.4626510899
 20
203.4197727727
 10
-87.7250325988
 20
203.589988737
 10
-87.9686507519
 20
203.6309743808
  0
LWPOLYLINE
  5
12B
330
1F
100
AcDbEntity
  8
0
  6
SLD-Solid
 62
     7
370
    15
100
AcDbPolyline
 90
        3
 70
   128
 43
0.0
 10
-87.2477511998
 20
202.9081749307
 10
-87.3150057282
 20
203.2171356069
 10
-87.4626510899
 20
203.4197727727
  0
LINE
  5
12C
330
1F
100
AcDbEntity
  8
0
  6
SLD-Solid
 62
     7
370
    15
100
AcDbLine
 10
-87.2477511998
 20
200.8841725575
 30
0.0
 11
-87.2477511998
 21
202.9081749307
 31
0.0
  0
LINE
  5
12D
330
1F
100
AcDbEntity
  8
0
  6
SLD-Solid
 62
     7
370
    15
100
AcDbLine
 10
-83.247151238
 20
203.6309743808
 30
0.0
 11
-86.2638508092
 21
203.6309743808
 31
0.0
  0
LWPOLYLINE
  5
12E
330
1F
100
AcDbEntity
  8
0
  6
SLD-Solid
 62
     7
370
    15
100
AcDbPolyline
 90
        3
 70
   128
 43
0.0
 10
-86.7754514452
 20
203.4197727727
 10
-86.9448096614
 20
203.1557539986
 10
-86.9857506018
 20
202.9081749307
  0
LWPOLYLINE
  5
12F
330
1F
100
AcDbEntity
  8
0
  6
SLD-Solid
 62
     7
370
    15
100
AcDbPolyline
 90
        3
 70
   128
 43
0.0
 10
-86.2638508092
 20
203.6309743808
 10
-86.5699858527
 20
203.5646157848
 10
-86.7754514452
 20
203.4197727727
  0
LINE
  5
130
330
1F
100
AcDbEntity
  8
0
  6
SLD-Solid
 62
     7
370
    15
100
AcDbLine
 10
-86.9857506018
 20
202.9081749307
 30
0.0
 11
-86.9857506018
 21
200.8841725575
 31
0.0
  0
LINE
  5
131
330
1F
100
AcDbEntity
  8
0
  6
SLD-Solid
 62
     7
370
    15
100
AcDbLine
 10
-83.247151238
 20
202.947473018
 30
0.0
 11
-83.247151238
 21
203.6309743808
 31
0.0
  0
LINE
  5
132
330
1F
100
AcDbEntity
  8
0
  6
SLD-Solid
 62
     7
370
    15
100
AcDbLine
 10
-85.9454511787
 20
202.947473018
 30
0.0
 11
-83.247151238
 21
202.947473018
 31
0.0
  0
LINE
  5
133
330
1F
100
AcDbEntity
  8
0
  6
SLD-Solid
 62
     7
370
    15
100
AcDbLine
 10
-85.9454511787
 20
200.8841725575
 30
0.0
 11
-85.9454511787
 21
202.947473018
 31
0.0
  0
LINE
  5
134
330
1F
100
AcDbEntity
  8
0
  6
SLD-Solid
 62
     7
370
    15
100
AcDbLine
 10
-86.9857506018
 20
200.8841725575
 30
0.0
 11
-85.9454511787
 21
200.8841725575
 31
0.0
  0
LINE
  5
135
330
1F
100
AcDbEntity
  8
0
  6
SLD-Solid
 62
     7
370
    15
100
AcDbLine
 10
-85.5656513135
 20
201.9779736685
 30
0.0
 11
-83.8331510435
 21
201.9779736685
 31
0.0
  0
LINE
  5
136
330
1F
100
AcDbEntity
  8
0
  6
SLD-Solid
 62
     7
370
    15
100
AcDbLine
 10
-83.8331510435
 20
201.9779736685
 30
0.0
 11
-83.8331510435
 21
202.5623748587
 31
0.0
  0
LINE
  5
137
330
1F
100
AcDbEntity
  8
0
  6
SLD-Solid
 62
     7
370
    15
100
AcDbLine
 10
-85.5656513135
 20
202.5623748587
 30
0.0
 11
-85.5656513135
 21
201.9779736685
 31
0.0
  0
LINE
  5
138
330
1F
100
AcDbEntity
  8
0
  6
SLD-Solid
 62
     7
370
    15
100
AcDbLine
 10
-83.8331510435
 20
202.5623748587
 30
0.0
 11
-85.5656513135
 21
202.5623748587
 31
0.0
  0
LINE
  5
139
330
1F
100
AcDbEntity
  8
0
  6
SLD-Solid
 62
     7
370
    15
100
AcDbLine
 10
-210.6964537065
 20
225.3123725342
 30
0.0
 11
-210.6964537065
 21
52.8123731302
 31
0.0
  0
LINE
  5
13A
330
1F
100
AcDbEntity
  8
0
  6
SLD-Solid
 62
     7
370
    15
100
AcDbLine
 10
31.9035476883
 20
52.8123731302
 30
0.0
 11
31.9035476883
 21
225.3123725342
 31
0.0
  0
LINE
  5
13B
330
1F
100
AcDbEntity
  8
0
  6
SLD-Solid
 62
     7
370
    15
100
AcDbLine
 10
31.9035476883
 20
225.3123725342
 30
0.0
 11
-210.6964537065
 21
225.3123725342
 31
0.0
  0
LINE
  5
13C
330
1F
100
AcDbEntity
  8
0
  6
SLD-Solid
 62
     7
370
    15
100
AcDbLine
 10
-210.6964537065
 20
52.8123731302
 30
0.0
 11
31.9035476883
 21
52.8123731302
 31
0.0
  0
LINE
  5
13D
330
1F
100
AcDbEntity
  8
0
  6
SLD-Solid
 62
     7
370
    15
100
AcDbLine
 10
48.1035462458
 20
52.8123731302
 30
0.0
 11
48.1035462458
 21
225.3123725342
 31
0.0
  0
LINE
  5
13E
330
1F
100
AcDbEntity
  8
0
  6
SLD-Solid
 62
     7
370
    15
100
AcDbLine
 10
48.1035462458
 20
52.8123731302
 30
0.0
 11
31.9035476883
 21
52.8123731302
 31
0.0
  0
LINE
  5
13F
330
1F
100
AcDbEntity
  8
0
  6
SLD-Solid
 62
     7
370
    15
100
AcDbLine
 10
31.9035476883
 20
225.3123725342
 30
0.0
 11
48.1035462458
 21
225.3123725342
 31
0.0
  0
LINE
  5
140
330
1F
100
AcDbEntity
  8
0
  6
SLD-Solid
 62
     7
370
    15
100
AcDbLine
 10
-210.6964537065
 20
52.8123731302
 30
0.0
 11
-226.8964448135
 21
52.8123731302
 31
0.0
  0
LINE
  5
141
330
1F
100
AcDbEntity
  8
0
  6
SLD-Solid
 62
     7
370
    15
100
AcDbLine
 10
-226.8964448135
 20
52.8123731302
 30
0.0
 11
-226.8964448135
 21
225.3123725342
 31
0.0
  0
LINE
  5
142
330
1F
100
AcDbEntity
  8
0
  6
SLD-Solid
 62
     7
370
    15
100
AcDbLine
 10
-226.8964448135
 20
225.3123725342
 30
0.0
 11
-210.6964537065
 21
225.3123725342
 31
0.0
  0
LINE
  5
143
330
1F
100
AcDbEntity
  8
0
  6
SLD-Solid
 62
     8
370
    15
100
AcDbLine
 10
-227.2550263564
 20
134.7194415094
 30
0.0
 11
-227.2550263564
 21
144.4053050173
 31
0.0
  0
LINE
  5
144
330
1F
100
AcDbEntity
  8
0
  6
SLD-Solid
 62
     8
370
    15
100
AcDbLine
 10
48.4621277888
 20
144.4053050173
 30
0.0
 11
48.4621277888
 21
134.7194415094
 31
0.0
  0
LINE
  5
145
330
1F
100
AcDbEntity
  8
0
  6
SLD-Solid
 62
     7
370
    15
100
AcDbLine
 10
196.5366568819
 20
193.5623715209
 30
0.0
 11
198.5366572097
 21
193.5623715209
 31
0.0
  0
LINE
  5
146
330
1F
100
AcDbEntity
  8
0
  6
SLD-Solid
 62
     7
370
    15
100
AcDbLine
 10
198.5366572097
 20
213.5623747991
 30
0.0
 11
196.5366568819
 21
213.5623747991
 31
0.0
  0
LINE
  5
147
330
1F
100
AcDbEntity
  8
0
  6
SLD-Solid
 62
     7
370
    15
100
AcDbLine
 10
196.5366568819
 20
63.5623762892
 30
0.0
 11
198.5366572097
 21
63.5623762892
 31
0.0
  0
LINE
  5
148
330
1F
100
AcDbEntity
  8
0
  6
SLD-Solid
 62
     7
370
    15
100
AcDbLine
 10
198.5366572097
 20
83.5623721169
 30
0.0
 11
196.5366568819
 21
83.5623721169
 31
0.0
  0
CIRCLE
  5
149
330
1F
100
AcDbEntity
  8
0
  6
SLD-Solid
 62
     7
370
    15
100
AcDbCircle
 10
217.0366578191
 20
139.5623731904
 30
0.0
 40
4.86774072591399
  0
LINE
  5
14A
330
1F
100
AcDbEntity
  8
0
  6
SLD-Solid
 62
     7
370
    15
100
AcDbLine
 10
196.5366568819
 20
213.5623747991
 30
0.0
 11
196.5366568819
 21
193.5623715209
 31
0.0
  0
LINE
  5
14B
330
1F
100
AcDbEntity
  8
0
  6
SLD-Solid
 62
     7
370
    15
100
AcDbLine
 10
196.5366568819
 20
83.5623721169
 30
0.0
 11
196.5366568819
 21
63.5623762892
 31
0.0
  0
LWPOLYLINE
  5
14C
330
1F
100
AcDbEntity
  8
0
  6
SLD-Solid
 62
     7
370
    15
100
AcDbPolyline
 90
        9
 70
   128
 43
0.0
 10
218.9852152422
 20
140.6873733314
 10
218.7444068894
 20
140.8264044249
 10
218.5012329772
 20
140.9667999061
 10
218.2564814046
 20
141.1081080833
 10
218.0109363451
 20
141.2498730743
 10
217.7653912857
 20
141.3916380653
 10
217.5206397131
 20
141.5329462426
 10
217.2774658009
 20
141.6733421894
 10
217.0366574481
 20
141.8123732829
  0
LINE
  5
14D
330
1F
100
AcDbEntity
  8
0
  6
SLD-Solid
 62
     7
370
    15
100
AcDbLine
 10
217.0366574481
 20
141.8123732829
 30
0.0
 11
217.0366574481
 21
141.8281345205
 31
0.0
  0
LWPOLYLINE
  5
14E
330
1F
100
AcDbEntity
  8
0
  6
SLD-Solid
 62
     7
370
    15
100
AcDbPolyline
 90
        9
 70
   128
 43
0.0
 10
217.0366574481
 20
141.8281345205
 10
217.2791235551
 20
141.688146493
 10
217.5239961997
 20
141.5467693979
 10
217.770476307
 20
141.4044642398
 10
218.017761077
 20
141.2616938861
 10
218.265045847
 20
141.1189239981
 10
218.5115259543
 20
140.97661884
 10
218.7563985988
 20
140.8352417448
 10
218.9988647058
 20
140.6952537173
  0
LWPOLYLINE
  5
14F
330
1F
100
AcDbEntity
  8
0
  6
SLD-Solid
 62
     7
370
    15
100
AcDbPolyline
 90
        9
 70
   128
 43
0.0
 10
218.9852152422
 20
140.6873733314
 10
218.9856250241
 20
140.6876094216
 10
218.9868376061
 20
140.6883093105
 10
218.9886667237
 20
140.689365896
 10
218.9910527721
 20
140.6907442534
 10
218.9939994767
 20
140.6924448484
 10
218.9973950788
 20
140.6944057481
 10
218.9983357146
 20
140.6949487092
 10
218.9988647058
 20
140.6952537173
  0
LWPOLYLINE
  5
150
330
1F
100
AcDbEntity
  8
0
  6
SLD-Solid
 62
     7
370
    15
100
AcDbPolyline
 90
        9
 70
   128
 43
0.0
 10
217.0366574481
 20
137.2966122391
 10
216.7941913411
 20
137.4366002666
 10
216.5493186965
 20
137.577976896
 10
216.3028404519
 20
137.7202820541
 10
216.0555538192
 20
137.8630519422
 10
215.8082690492
 20
138.0058227615
 10
215.5617889419
 20
138.1481279196
 10
215.31691816
 20
138.2895045491
 10
215.0744501904
 20
138.4294925766
  0
LWPOLYLINE
  5
151
330
1F
100
AcDbEntity
  8
0
  6
SLD-Solid
 62
     7
370
    15
100
AcDbPolyline
 90
        9
 70
   128
 43
0.0
 10
215.0744501904
 20
138.4294925766
 10
215.0749791816
 20
138.4297971191
 10
215.0759198174
 20
138.4303410115
 10
215.0793154195
 20
138.4323014455
 10
215.0822621241
 20
138.4340020405
 10
215.0846500352
 20
138.4353803979
 10
215.0864791527
 20
138.4364365177
 10
215.0876917347
 20
138.4371368723
 10
215.0881015167
 20
138.4373734282
  0
LWPOLYLINE
  5
152
330
1F
100
AcDbEntity
  8
0
  6
SLD-Solid
 62
     7
370
    15
100
AcDbPolyline
 90
        9
 70
   128
 43
0.0
 10
215.0881015167
 20
138.4373734282
 10
215.3289098695
 20
138.298341869
 10
215.572081919
 20
138.1579459222
 10
215.8168353543
 20
138.0166382106
 10
216.0623785511
 20
137.8748732196
 10
216.3079236105
 20
137.7331082286
 10
216.5526770458
 20
137.5917995857
 10
216.7958490953
 20
137.4514045702
 10
217.0366574481
 20
137.312373011
  0
LINE
  5
153
330
1F
100
AcDbEntity
  8
0
  6
SLD-Solid
 62
     7
370
    15
100
AcDbLine
 10
217.0366574481
 20
137.2966122391
 30
0.0
 11
217.0366574481
 21
137.312373011
 31
0.0
  0
LWPOLYLINE
  5
154
330
1F
100
AcDbEntity
  8
0
  6
SLD-Solid
 62
     7
370
    15
100
AcDbPolyline
 90
        9
 70
   128
 43
0.0
 10
217.0366574481
 20
141.8123732829
 10
216.7958490953
 20
141.6733421894
 10
216.5526770458
 20
141.5329462426
 10
216.3079236105
 20
141.3916380653
 10
216.0623785511
 20
141.2498730743
 10
215.8168353543
 20
141.1081080833
 10
215.572081919
 20
140.9667999061
 10
215.3289098695
 20
140.8264044249
 10
215.0881015167
 20
140.6873733314
  0
LWPOLYLINE
  5
155
330
1F
100
AcDbEntity
  8
0
  6
SLD-Solid
 62
     7
370
    15
100
AcDbPolyline
 90
        9
 70
   128
 43
0.0
 10
215.0881015167
 20
140.6873733314
 10
215.0876917347
 20
140.6876094216
 10
215.0864791527
 20
140.6883093105
 10
215.0846500352
 20
140.689365896
 10
215.0822621241
 20
140.6907442534
 10
215.0793154195
 20
140.6924448484
 10
215.0759198174
 20
140.6944057481
 10
215.0749791816
 20
140.6949487092
 10
215.0744501904
 20
140.6952537173
  0
LWPOLYLINE
  5
156
330
1F
100
AcDbEntity
  8
0
  6
SLD-Solid
 62
     7
370
    15
100
AcDbPolyline
 90
        9
 70
   128
 43
0.0
 10
215.0744501904
 20
140.6952537173
 10
215.31691816
 20
140.8352417448
 10
215.5617889419
 20
140.97661884
 10
215.8082690492
 20
141.1189239981
 10
216.0555538192
 20
141.2616938861
 10
216.3028404519
 20
141.4044642398
 10
216.5493186965
 20
141.5467693979
 10
216.7941913411
 20
141.688146493
 10
217.0366574481
 20
141.8281345205
  0
LINE
  5
157
330
1F
100
AcDbEntity
  8
0
  6
SLD-Solid
 62
     7
370
    15
100
AcDbLine
 10
215.0744501904
 20
138.4294925766
 30
0.0
 11
215.0744501904
 21
140.6952537173
 31
0.0
  0
LINE
  5
158
330
1F
100
AcDbEntity
  8
0
  6
SLD-Solid
 62
     7
370
    15
100
AcDbLine
 10
215.0881015167
 20
140.6873733314
 30
0.0
 11
215.0881015167
 21
138.4373734282
 31
0.0
  0
LWPOLYLINE
  5
159
330
1F
100
AcDbEntity
  8
0
  6
SLD-Solid
 62
     7
370
    15
100
AcDbPolyline
 90
        9
 70
   128
 43
0.0
 10
218.9988647058
 20
138.4294925766
 10
218.7563985988
 20
138.2895045491
 10
218.5115259543
 20
138.1481279196
 10
218.265045847
 20
138.0058227615
 10
218.017761077
 20
137.8630519422
 10
217.770476307
 20
137.7202820541
 10
217.5239961997
 20
137.577976896
 10
217.2791235551
 20
137.4366002666
 10
217.0366574481
 20
137.2966122391
  0
LWPOLYLINE
  5
15A
330
1F
100
AcDbEntity
  8
0
  6
SLD-Solid
 62
     7
370
    15
100
AcDbPolyline
 90
        9
 70
   128
 43
0.0
 10
217.0366574481
 20
137.312373011
 10
217.2774658009
 20
137.4514045702
 10
217.5206397131
 20
137.5917995857
 10
217.7653912857
 20
137.7331082286
 10
218.0109363451
 20
137.8748732196
 10
218.2564814046
 20
138.0166382106
 10
218.5012329772
 20
138.1579459222
 10
218.7444068894
 20
138.298341869
 10
218.9852152422
 20
138.4373734282
  0
LWPOLYLINE
  5
15B
330
1F
100
AcDbEntity
  8
0
  6
SLD-Solid
 62
     7
370
    15
100
AcDbPolyline
 90
        9
 70
   128
 43
0.0
 10
218.9988647058
 20
138.4294925766
 10
218.9983357146
 20
138.4297971191
 10
218.9973950788
 20
138.4303410115
 10
218.9939994767
 20
138.4323014455
 10
218.9910527721
 20
138.4340020405
 10
218.9886667237
 20
138.4353803979
 10
218.9868376061
 20
138.4364365177
 10
218.9856250241
 20
138.4371368723
 10
218.9852152422
 20
138.4373734282
  0
LINE
  5
15C
330
1F
100
AcDbEntity
  8
0
  6
SLD-Solid
 62
     7
370
    15
100
AcDbLine
 10
218.9988647058
 20
140.6952537173
 30
0.0
 11
218.9988647058
 21
138.4294925766
 31
0.0
  0
LINE
  5
15D
330
1F
100
AcDbEntity
  8
0
  6
SLD-Solid
 62
     7
370
    15
100
AcDbLine
 10
218.9852152422
 20
138.4373734282
 30
0.0
 11
218.9852152422
 21
140.6873733314
 31
0.0
  0
CIRCLE
  5
15E
330
1F
100
AcDbEntity
  8
0
  6
SLD-Solid
 62
     7
370
    15
100
AcDbCircle
 10
217.0366578191
 20
139.5623731904
 30
0.0
 40
4.842931753855879
  0
CIRCLE
  5
15F
330
1F
100
AcDbEntity
  8
0
  6
SLD-Solid
 62
     7
370
    15
100
AcDbCircle
 10
217.0366578191
 20
139.5623731904
 30
0.0
 40
0.9000000000000057
  0
CIRCLE
  5
160
330
1F
100
AcDbEntity
  8
0
  6
SLD-Solid
 62
     7
370
    15
100
AcDbCircle
 10
217.0366578191
 20
139.5623731904
 30
0.0
 40
1.0
  0
LINE
  5
161
330
1F
100
AcDbEntity
  8
0
  6
SLD-Solid
 62
     7
370
    15
100
AcDbLine
 10
217.0366574481
 20
141.8123732829
 30
0.0
 11
217.0366574481
 21
141.6969032535
 31
0.0
  0
LINE
  5
162
330
1F
100
AcDbEntity
  8
0
  6
SLD-Solid
 62
     7
370
    15
100
AcDbLine
 10
217.0366574481
 20
141.6969032535
 30
0.0
 11
215.1881013468
 21
140.6296383167
 31
0.0
  0
LINE
  5
163
330
1F
100
AcDbEntity
  8
0
  6
SLD-Solid
 62
     7
370
    15
100
AcDbLine
 10
215.0881015167
 20
140.6873733314
 30
0.0
 11
215.1881013468
 21
140.6296383167
 31
0.0
  0
CIRCLE
  5
164
330
1F
100
AcDbEntity
  8
0
  6
SLD-Solid
 62
     7
370
    15
100
AcDbCircle
 10
217.0366578191
 20
139.5623731904
 30
0.0
 40
1.099999999999994
  0
LINE
  5
165
330
1F
100
AcDbEntity
  8
0
  6
SLD-Solid
 62
     7
370
    15
100
AcDbLine
 10
215.1881013468
 20
140.6296383167
 30
0.0
 11
215.1881013468
 21
138.4951079773
 31
0.0
  0
LINE
  5
166
330
1F
100
AcDbEntity
  8
0
  6
SLD-Solid
 62
     7
370
    15
100
AcDbLine
 10
215.1881013468
 20
138.4951079773
 30
0.0
 11
215.0881015167
 21
138.4373734282
 31
0.0
  0
LINE
  5
167
330
1F
100
AcDbEntity
  8
0
  6
SLD-Solid
 62
     7
370
    15
100
AcDbLine
 10
215.1881013468
 20
138.4951079773
 30
0.0
 11
217.0366574481
 21
137.4278430404
 31
0.0
  0
LINE
  5
168
330
1F
100
AcDbEntity
  8
0
  6
SLD-Solid
 62
     7
370
    15
100
AcDbLine
 10
217.0366574481
 20
137.4278430404
 30
0.0
 11
217.0366574481
 21
137.312373011
 31
0.0
  0
LINE
  5
169
330
1F
100
AcDbEntity
  8
0
  6
SLD-Solid
 62
     7
370
    15
100
AcDbLine
 10
218.9852152422
 20
140.6873733314
 30
0.0
 11
218.8852154121
 21
140.6296383167
 31
0.0
  0
LINE
  5
16A
330
1F
100
AcDbEntity
  8
0
  6
SLD-Solid
 62
     7
370
    15
100
AcDbLine
 10
218.8852154121
 20
140.6296383167
 30
0.0
 11
217.0366574481
 21
141.6969032535
 31
0.0
  0
LINE
  5
16B
330
1F
100
AcDbEntity
  8
0
  6
SLD-Solid
 62
     7
370
    15
100
AcDbLine
 10
217.0366574481
 20
137.4278430404
 30
0.0
 11
218.8852154121
 21
138.4951079773
 31
0.0
  0
LINE
  5
16C
330
1F
100
AcDbEntity
  8
0
  6
SLD-Solid
 62
     7
370
    15
100
AcDbLine
 10
218.8852154121
 20
138.4951079773
 30
0.0
 11
218.9852152422
 21
138.4373734282
 31
0.0
  0
LINE
  5
16D
330
1F
100
AcDbEntity
  8
0
  6
SLD-Solid
 62
     7
370
    15
100
AcDbLine
 10
218.8852154121
 20
138.4951079773
 30
0.0
 11
218.8852154121
 21
140.6296383167
 31
0.0
  0
LINE
  5
16E
330
1F
100
AcDbEntity
  8
0
  6
SLD-Solid
 62
     7
370
    15
100
AcDbLine
 10
343.5367573455
 20
97.601273893
 30
0.0
 11
343.5366604879
 21
97.601273893
 31
0.0
  0
LINE
  5
16F
330
1F
100
AcDbEntity
  8
0
  6
SLD-Solid
 62
     7
370
    15
100
AcDbLine
 10
343.5367573455
 20
84.1211731123
 30
0.0
 11
343.5366604879
 21
84.1211731123
 31
0.0
  0
LINE
  5
170
330
1F
100
AcDbEntity
  8
0
  6
SLD-Solid
 62
     7
370
    15
100
AcDbLine
 10
343.5367573455
 20
97.601273893
 30
0.0
 11
343.5367573455
 21
84.1211731123
 31
0.0
  0
LINE
  5
171
330
1F
100
AcDbEntity
  8
0
  6
SLD-Solid
 62
     7
370
    15
100
AcDbLine
 10
343.5367573455
 20
83.9100758122
 30
0.0
 11
343.5366604879
 21
83.9100758122
 31
0.0
  0
LINE
  5
172
330
1F
100
AcDbEntity
  8
0
  6
SLD-Solid
 62
     7
370
    15
100
AcDbLine
 10
343.5367573455
 20
97.8123749183
 30
0.0
 11
343.5366604879
 21
97.8123749183
 31
0.0
  0
LINE
  5
173
330
1F
100
AcDbEntity
  8
0
  6
SLD-Solid
 62
     7
370
    15
100
AcDbLine
 10
343.5367573455
 20
82.9794759439
 30
0.0
 11
343.5366604879
 21
82.9794759439
 31
0.0
  0
LINE
  5
174
330
1F
100
AcDbEntity
  8
0
  6
SLD-Solid
 62
     7
370
    15
100
AcDbLine
 10
343.5367573455
 20
83.9100758122
 30
0.0
 11
343.5367573455
 21
82.9794759439
 31
0.0
  0
LINE
  5
175
330
1F
100
AcDbEntity
  8
0
  6
SLD-Solid
 62
     7
370
    15
100
AcDbLine
 10
343.5367573455
 20
82.7680731701
 30
0.0
 11
343.5366604879
 21
82.7680731701
 31
0.0
  0
LINE
  5
176
330
1F
100
AcDbEntity
  8
0
  6
SLD-Solid
 62
     7
370
    15
100
AcDbLine
 10
343.5367573455
 20
81.8429718302
 30
0.0
 11
343.5366604879
 21
81.8429718302
 31
0.0
  0
LINE
  5
177
330
1F
100
AcDbEntity
  8
0
  6
SLD-Solid
 62
     7
370
    15
100
AcDbLine
 10
343.5367573455
 20
75.1411745833
 30
0.0
 11
343.5366604879
 21
75.1411745833
 31
0.0
  0
LINE
  5
178
330
1F
100
AcDbEntity
  8
0
  6
SLD-Solid
 62
     7
370
    15
100
AcDbLine
 10
343.5367573455
 20
74.9300698327
 30
0.0
 11
343.5366604879
 21
74.9300698327
 31
0.0
  0
LINE
  5
179
330
1F
100
AcDbEntity
  8
0
  6
SLD-Solid
 62
     7
370
    15
100
AcDbLine
 10
343.5367573455
 20
75.1411745833
 30
0.0
 11
343.5367573455
 21
76.888909428
 31
0.0
  0
LINE
  5
17A
330
1F
100
AcDbEntity
  8
0
  6
SLD-Solid
 62
     7
370
    15
100
AcDbLine
 10
343.5367573455
 20
77.1783719348
 30
0.0
 11
343.5366604879
 21
77.1783719348
 31
0.0
  0
LINE
  5
17B
330
1F
100
AcDbEntity
  8
0
  6
SLD-Solid
 62
     7
370
    15
100
AcDbLine
 10
343.5367573455
 20
76.9110749053
 30
0.0
 11
343.5366604879
 21
76.9110749053
 31
0.0
  0
LINE
  5
17C
330
1F
100
AcDbEntity
  8
0
  6
SLD-Solid
 62
     7
370
    15
100
AcDbLine
 10
343.5367573455
 20
77.2255713628
 30
0.0
 11
343.5366604879
 21
77.2255713628
 31
0.0
  0
LINE
  5
17D
330
1F
100
AcDbEntity
  8
0
  6
SLD-Solid
 62
     7
370
    15
100
AcDbLine
 10
343.5367573455
 20
77.1783719348
 30
0.0
 11
343.5367573455
 21
77.2255713628
 31
0.0
  0
LINE
  5
17E
330
1F
100
AcDbEntity
  8
0
  6
SLD-Solid
 62
     7
370
    15
100
AcDbLine
 10
343.5367573455
 20
81.6759745167
 30
0.0
 11
343.5366604879
 21
81.6759745167
 31
0.0
  0
LINE
  5
17F
330
1F
100
AcDbEntity
  8
0
  6
SLD-Solid
 62
     7
370
    15
100
AcDbLine
 10
343.5367573455
 20
77.2255713628
 30
0.0
 11
343.5367573455
 21
81.6759745167
 31
0.0
  0
LINE
  5
180
330
1F
100
AcDbEntity
  8
0
  6
SLD-Solid
 62
     7
370
    15
100
AcDbLine
 10
343.5367573455
 20
76.9002715634
 30
0.0
 11
343.5366604879
 21
76.9002715634
 31
0.0
  0
LINE
  5
181
330
1F
100
AcDbEntity
  8
0
  6
SLD-Solid
 62
     7
370
    15
100
AcDbLine
 10
343.5367573455
 20
72.849174826
 30
0.0
 11
343.5366604879
 21
72.849174826
 31
0.0
  0
LINE
  5
182
330
1F
100
AcDbEntity
  8
0
  6
SLD-Solid
 62
     7
370
    15
100
AcDbLine
 10
343.5367573455
 20
72.5249702619
 30
0.0
 11
343.5366604879
 21
72.5249702619
 31
0.0
  0
LINE
  5
183
330
1F
100
AcDbEntity
  8
0
  6
SLD-Solid
 62
     7
370
    15
100
AcDbLine
 10
343.5367573455
 20
72.5108737634
 30
0.0
 11
343.5366604879
 21
72.5108737634
 31
0.0
  0
LINE
  5
184
330
1F
100
AcDbEntity
  8
0
  6
SLD-Solid
 62
     7
370
    15
100
AcDbLine
 10
343.5367573455
 20
72.5249702619
 30
0.0
 11
343.5367573455
 21
72.5108737634
 31
0.0
  0
LINE
  5
185
330
1F
100
AcDbEntity
  8
0
  6
SLD-Solid
 62
     7
370
    15
100
AcDbLine
 10
343.5367573455
 20
69.7527731346
 30
0.0
 11
343.5366604879
 21
69.7527731346
 31
0.0
  0
LINE
  5
186
330
1F
100
AcDbEntity
  8
0
  6
SLD-Solid
 62
     7
370
    15
100
AcDbLine
 10
343.5367573455
 20
72.5108737634
 30
0.0
 11
343.5367573455
 21
69.7527731346
 31
0.0
  0
LINE
  5
187
330
1F
100
AcDbEntity
  8
0
  6
SLD-Solid
 62
     7
370
    15
100
AcDbLine
 10
343.5367573455
 20
72.8598738598
 30
0.0
 11
343.5366604879
 21
72.8598738598
 31
0.0
  0
LINE
  5
188
330
1F
100
AcDbEntity
  8
0
  6
SLD-Solid
 62
     7
370
    15
100
AcDbLine
 10
343.5367573455
 20
72.8598738598
 30
0.0
 11
343.5367573455
 21
72.849174826
 31
0.0
  0
LINE
  5
189
330
1F
100
AcDbEntity
  8
0
  6
SLD-Solid
 62
     7
370
    15
100
AcDbLine
 10
343.5367573455
 20
74.2628703402
 30
0.0
 11
343.5366604879
 21
74.2628703402
 31
0.0
  0
LINE
  5
18A
330
1F
100
AcDbEntity
  8
0
  6
SLD-Solid
 62
     7
370
    15
100
AcDbLine
 10
343.5367573455
 20
74.2628703402
 30
0.0
 11
343.5367573455
 21
72.8598738598
 31
0.0
  0
LINE
  5
18B
330
1F
100
AcDbEntity
  8
0
  6
SLD-Solid
 62
     7
370
    15
100
AcDbLine
 10
343.5367573455
 20
69.5287714289
 30
0.0
 11
343.5366604879
 21
69.5287714289
 31
0.0
  0
LINE
  5
18C
330
1F
100
AcDbEntity
  8
0
  6
SLD-Solid
 62
     7
370
    15
100
AcDbLine
 10
343.5367573455
 20
67.8403730081
 30
0.0
 11
343.5366604879
 21
67.8403730081
 31
0.0
  0
LINE
  5
18D
330
1F
100
AcDbEntity
  8
0
  6
SLD-Solid
 62
     7
370
    15
100
AcDbLine
 10
343.5367573455
 20
74.2805729197
 30
0.0
 11
343.5366604879
 21
74.2805729197
 31
0.0
  0
LINE
  5
18E
330
1F
100
AcDbEntity
  8
0
  6
SLD-Solid
 62
     7
370
    15
100
AcDbLine
 10
343.5367573455
 20
74.2805729197
 30
0.0
 11
343.5367573455
 21
74.2628703402
 31
0.0
  0
LINE
  5
18F
330
1F
100
AcDbEntity
  8
0
  6
SLD-Solid
 62
     7
370
    15
100
AcDbLine
 10
343.5367573455
 20
74.3670741605
 30
0.0
 11
343.5366604879
 21
74.3670741605
 31
0.0
  0
LINE
  5
190
330
1F
100
AcDbEntity
  8
0
  6
SLD-Solid
 62
     7
370
    15
100
AcDbLine
 10
343.5367573455
 20
67.8124705838
 30
0.0
 11
343.5366604879
 21
67.8124705838
 31
0.0
  0
LINE
  5
191
330
1F
100
AcDbEntity
  8
0
  6
SLD-Solid
 62
     7
370
    15
100
AcDbLine
 10
343.5376588657
 20
206.4752745019
 30
0.0
 11
343.5366604879
 21
206.4752745019
 31
0.0
  0
LINE
  5
192
330
1F
100
AcDbEntity
  8
0
  6
SLD-Solid
 62
     7
370
    15
100
AcDbLine
 10
343.5376588657
 20
202.2459747778
 30
0.0
 11
343.5366604879
 21
202.2459747778
 31
0.0
  0
LINE
  5
193
330
1F
100
AcDbEntity
  8
0
  6
SLD-Solid
 62
     7
370
    15
100
AcDbLine
 10
343.5376588657
 20
198.0397718536
 30
0.0
 11
343.5366604879
 21
198.0397718536
 31
0.0
  0
ARC
  5
194
330
1F
100
AcDbEntity
  8
0
  6
SLD-Solid
 62
     7
370
    15
100
AcDbCircle
 10
201.0366578191
 20
222.8123731904
 30
0.0
 40
2.5
100
AcDbArc
 50
90.0
 51
180.0
  0
LINE
  5
195
330
1F
100
AcDbEntity
  8
0
  6
SLD-Solid
 62
     7
370
    15
100
AcDbLine
 10
201.0366585508
 20
225.3123725342
 30
0.0
 11
327.3366544798
 21
225.3123725342
 31
0.0
  0
LINE
  5
196
330
1F
100
AcDbEntity
  8
0
  6
SLD-Solid
 62
     7
370
    15
100
AcDbLine
 10
327.3366544798
 20
52.8123731302
 30
0.0
 11
327.3366544798
 21
225.3123725342
 31
0.0
  0
LINE
  5
197
330
1F
100
AcDbEntity
  8
0
  6
SLD-Solid
 62
     7
370
    15
100
AcDbLine
 10
327.3366544798
 20
52.8123731302
 30
0.0
 11
201.0366585508
 21
52.8123731302
 31
0.0
  0
ARC
  5
198
330
1F
100
AcDbEntity
  8
0
  6
SLD-Solid
 62
     7
370
    15
100
AcDbCircle
 10
201.0366578191
 20
55.3123731904
 30
0.0
 40
2.5
100
AcDbArc
 50
180.0
 51
270.0
  0
LINE
  5
199
330
1F
100
AcDbEntity
  8
0
  6
SLD-Solid
 62
     7
370
    15
100
AcDbLine
 10
198.5366572097
 20
55.312370746
 30
0.0
 11
198.5366572097
 21
222.8123749183
 31
0.0
  0
LINE
  5
19A
330
1F
100
AcDbEntity
  8
0
  6
SLD-Solid
 62
     7
370
    15
100
AcDbLine
 10
343.5366604879
 20
52.8123731302
 30
0.0
 11
327.3366544798
 21
52.8123731302
 31
0.0
  0
LINE
  5
19B
330
1F
100
AcDbEntity
  8
0
  6
SLD-Solid
 62
     7
370
    15
100
AcDbLine
 10
327.3366544798
 20
225.3123725342
 30
0.0
 11
343.5366604879
 21
225.3123725342
 31
0.0
  0
LINE
  5
19C
330
1F
100
AcDbEntity
  8
0
  6
SLD-Solid
 62
     7
370
    15
100
AcDbLine
 10
343.5366604879
 20
225.3123725342
 30
0.0
 11
343.5366604879
 21
52.8123731302
 31
0.0
  0
LINE
  5
19D
330
1F
100
AcDbEntity
  8
0
  6
SLD-Solid
 62
     7
370
    15
100
AcDbLine
 10
-370.1259033376
 20
213.5623747991
 30
0.0
 11
-372.1259036654
 21
213.5623747991
 31
0.0
  0
LINE
  5
19E
330
1F
100
AcDbEntity
  8
0
  6
SLD-Solid
 62
     7
370
    15
100
AcDbLine
 10
-372.1259036654
 20
193.5623715209
 30
0.0
 11
-370.1259033376
 21
193.5623715209
 31
0.0
  0
LINE
  5
19F
330
1F
100
AcDbEntity
  8
0
  6
SLD-Solid
 62
     7
370
    15
100
AcDbLine
 10
-370.1259033376
 20
83.5623721169
 30
0.0
 11
-372.1259036654
 21
83.5623721169
 31
0.0
  0
LINE
  5
1A0
330
1F
100
AcDbEntity
  8
0
  6
SLD-Solid
 62
     7
370
    15
100
AcDbLine
 10
-372.1259036654
 20
63.5623762892
 30
0.0
 11
-370.1259033376
 21
63.5623762892
 31
0.0
  0
CIRCLE
  5
1A1
330
1F
100
AcDbEntity
  8
0
  6
SLD-Solid
 62
     7
370
    15
100
AcDbCircle
 10
-390.6259042749
 20
139.5623731904
 30
0.0
 40
4.867740725913961
  0
LINE
  5
1A2
330
1F
100
AcDbEntity
  8
0
  6
SLD-Solid
 62
     7
370
    15
100
AcDbLine
 10
-370.1259033376
 20
203.56237316
 30
0.0
 11
-370.1259033376
 21
213.5623747991
 31
0.0
  0
LINE
  5
1A3
330
1F
100
AcDbEntity
  8
0
  6
SLD-Solid
 62
     7
370
    15
100
AcDbLine
 10
-370.1259033376
 20
193.5623715209
 30
0.0
 11
-370.1259033376
 21
203.56237316
 31
0.0
  0
LINE
  5
1A4
330
1F
100
AcDbEntity
  8
0
  6
SLD-Solid
 62
     7
370
    15
100
AcDbLine
 10
-370.1259033376
 20
73.5623742031
 30
0.0
 11
-370.1259033376
 21
83.5623721169
 31
0.0
  0
LINE
  5
1A5
330
1F
100
AcDbEntity
  8
0
  6
SLD-Solid
 62
     7
370
    15
100
AcDbLine
 10
-370.1259033376
 20
63.5623762892
 30
0.0
 11
-370.1259033376
 21
73.5623742031
 31
0.0
  0
LWPOLYLINE
  5
1A6
330
1F
100
AcDbEntity
  8
0
  6
SLD-Solid
 62
     7
370
    15
100
AcDbPolyline
 90
        9
 70
   128
 43
0.0
 10
-392.5881111616
 20
140.6952537173
 10
-392.3456450546
 20
140.8352417448
 10
-392.10077241
 20
140.97661884
 10
-391.8542923027
 20
141.1189239981
 10
-391.6070075327
 20
141.2616938861
 10
-391.3597227627
 20
141.4044642398
 10
-391.1132426554
 20
141.5467693979
 10
-390.8683700109
 20
141.688146493
 10
-390.6259039039
 20
141.8281345205
  0
LINE
  5
1A7
330
1F
100
AcDbEntity
  8
0
  6
SLD-Solid
 62
     7
370
    15
100
AcDbLine
 10
-390.6259039039
 20
141.8281345205
 30
0.0
 11
-390.6259039039
 21
141.8123732829
 31
0.0
  0
LWPOLYLINE
  5
1A8
330
1F
100
AcDbEntity
  8
0
  6
SLD-Solid
 62
     7
370
    15
100
AcDbPolyline
 90
        9
 70
   128
 43
0.0
 10
-390.6259039039
 20
141.8123732829
 10
-390.8667122567
 20
141.6733421894
 10
-391.1098861689
 20
141.5329462426
 10
-391.3546377415
 20
141.3916380653
 10
-391.6001828009
 20
141.2498730743
 10
-391.8457278603
 20
141.1081080833
 10
-392.090479433
 20
140.9667999061
 10
-392.3336533451
 20
140.8264044249
 10
-392.5744616979
 20
140.6873733314
  0
LWPOLYLINE
  5
1A9
330
1F
100
AcDbEntity
  8
0
  6
SLD-Solid
 62
     7
370
    15
100
AcDbPolyline
 90
        9
 70
   128
 43
0.0
 10
-392.5881111616
 20
140.6952537173
 10
-392.5875821704
 20
140.6949487092
 10
-392.5866415346
 20
140.6944057481
 10
-392.5832459325
 20
140.6924448484
 10
-392.5802992278
 20
140.6907442534
 10
-392.5779131794
 20
140.689365896
 10
-392.5760840619
 20
140.6883093105
 10
-392.5748714799
 20
140.6876094216
 10
-392.5744616979
 20
140.6873733314
  0
LWPOLYLINE
  5
1AA
330
1F
100
AcDbEntity
  8
0
  6
SLD-Solid
 62
     7
370
    15
100
AcDbPolyline
 90
        9
 70
   128
 43
0.0
 10
-392.5744616979
 20
138.4373734282
 10
-392.3336533451
 20
138.298341869
 10
-392.090479433
 20
138.1579459222
 10
-391.8457278603
 20
138.0166382106
 10
-391.6001828009
 20
137.8748732196
 10
-391.3546377415
 20
137.7331082286
 10
-391.1098861689
 20
137.5917995857
 10
-390.8667122567
 20
137.4514045702
 10
-390.6259039039
 20
137.312373011
  0
LINE
  5
1AB
330
1F
100
AcDbEntity
  8
0
  6
SLD-Solid
 62
     7
370
    15
100
AcDbLine
 10
-390.6259039039
 20
137.312373011
 30
0.0
 11
-390.6259039039
 21
137.2966122391
 31
0.0
  0
LWPOLYLINE
  5
1AC
330
1F
100
AcDbEntity
  8
0
  6
SLD-Solid
 62
     7
370
    15
100
AcDbPolyline
 90
        9
 70
   128
 43
0.0
 10
-390.6259039039
 20
137.2966122391
 10
-390.8683700109
 20
137.4366002666
 10
-391.1132426554
 20
137.577976896
 10
-391.3597227627
 20
137.7202820541
 10
-391.6070075327
 20
137.8630519422
 10
-391.8542923027
 20
138.0058227615
 10
-392.10077241
 20
138.1481279196
 10
-392.3456450546
 20
138.2895045491
 10
-392.5881111616
 20
138.4294925766
  0
LWPOLYLINE
  5
1AD
330
1F
100
AcDbEntity
  8
0
  6
SLD-Solid
 62
     7
370
    15
100
AcDbPolyline
 90
        9
 70
   128
 43
0.0
 10
-392.5744616979
 20
138.4373734282
 10
-392.5748714799
 20
138.4371368723
 10
-392.5760840619
 20
138.4364365177
 10
-392.5779131794
 20
138.4353803979
 10
-392.5802992278
 20
138.4340020405
 10
-392.5832459325
 20
138.4323014455
 10
-392.5866415346
 20
138.4303410115
 10
-392.5875821704
 20
138.4297971191
 10
-392.5881111616
 20
138.4294925766
  0
LWPOLYLINE
  5
1AE
330
1F
100
AcDbEntity
  8
0
  6
SLD-Solid
 62
     7
370
    15
100
AcDbPolyline
 90
        9
 70
   128
 43
0.0
 10
-390.6259039039
 20
141.8281345205
 10
-390.3834377968
 20
141.688146493
 10
-390.1385651523
 20
141.5467693979
 10
-389.8920869076
 20
141.4044642398
 10
-389.644800275
 20
141.2616938861
 10
-389.397515505
 20
141.1189239981
 10
-389.1510353977
 20
140.97661884
 10
-388.9061646158
 20
140.8352417448
 10
-388.6636966461
 20
140.6952537173
  0
LWPOLYLINE
  5
1AF
330
1F
100
AcDbEntity
  8
0
  6
SLD-Solid
 62
     7
370
    15
100
AcDbPolyline
 90
        9
 70
   128
 43
0.0
 10
-388.6636966461
 20
140.6952537173
 10
-388.6642256373
 20
140.6949487092
 10
-388.6651662731
 20
140.6944057481
 10
-388.6685618752
 20
140.6924448484
 10
-388.6715085799
 20
140.6907442534
 10
-388.6738964909
 20
140.689365896
 10
-388.6757256085
 20
140.6883093105
 10
-388.6769381905
 20
140.6876094216
 10
-388.6773479724
 20
140.6873733314
  0
LWPOLYLINE
  5
1B0
330
1F
100
AcDbEntity
  8
0
  6
SLD-Solid
 62
     7
370
    15
100
AcDbPolyline
 90
        9
 70
   128
 43
0.0
 10
-388.6773479724
 20
140.6873733314
 10
-388.9181563252
 20
140.8264044249
 10
-389.1613283748
 20
140.9667999061
 10
-389.40608181
 20
141.1081080833
 10
-389.6516250068
 20
141.2498730743
 10
-389.8971700663
 20
141.3916380653
 10
-390.1419235015
 20
141.5329462426
 10
-390.385095551
 20
141.6733421894
 10
-390.6259039039
 20
141.8123732829
  0
LWPOLYLINE
  5
1B1
330
1F
100
AcDbEntity
  8
0
  6
SLD-Solid
 62
     7
370
    15
100
AcDbPolyline
 90
        9
 70
   128
 43
0.0
 10
-390.6259039039
 20
137.312373011
 10
-390.385095551
 20
137.4514045702
 10
-390.1419235015
 20
137.5917995857
 10
-389.8971700663
 20
137.7331082286
 10
-389.6516250068
 20
137.8748732196
 10
-389.40608181
 20
138.0166382106
 10
-389.1613283748
 20
138.1579459222
 10
-388.9181563252
 20
138.298341869
 10
-388.6773479724
 20
138.4373734282
  0
LWPOLYLINE
  5
1B2
330
1F
100
AcDbEntity
  8
0
  6
SLD-Solid
 62
     7
370
    15
100
AcDbPolyline
 90
        9
 70
   128
 43
0.0
 10
-388.6773479724
 20
138.4373734282
 10
-388.6769381905
 20
138.4371368723
 10
-388.6757256085
 20
138.4364365177
 10
-388.6738964909
 20
138.4353803979
 10
-388.6715085799
 20
138.4340020405
 10
-388.6685618752
 20
138.4323014455
 10
-388.6651662731
 20
138.4303410115
 10
-388.6642256373
 20
138.4297971191
 10
-388.6636966461
 20
138.4294925766
  0
LWPOLYLINE
  5
1B3
330
1F
100
AcDbEntity
  8
0
  6
SLD-Solid
 62
     7
370
    15
100
AcDbPolyline
 90
        9
 70
   128
 43
0.0
 10
-388.6636966461
 20
138.4294925766
 10
-388.9061646158
 20
138.2895045491
 10
-389.1510353977
 20
138.1481279196
 10
-389.397515505
 20
138.0058227615
 10
-389.644800275
 20
137.8630519422
 10
-389.8920869076
 20
137.7202820541
 10
-390.1385651523
 20
137.577976896
 10
-390.3834377968
 20
137.4366002666
 10
-390.6259039039
 20
137.2966122391
  0
LINE
  5
1B4
330
1F
100
AcDbEntity
  8
0
  6
SLD-Solid
 62
     7
370
    15
100
AcDbLine
 10
-388.6636966461
 20
140.6952537173
 30
0.0
 11
-388.6636966461
 21
138.4294925766
 31
0.0
  0
LINE
  5
1B5
330
1F
100
AcDbEntity
  8
0
  6
SLD-Solid
 62
     7
370
    15
100
AcDbLine
 10
-388.6773479724
 20
138.4373734282
 30
0.0
 11
-388.6773479724
 21
140.6873733314
 31
0.0
  0
LINE
  5
1B6
330
1F
100
AcDbEntity
  8
0
  6
SLD-Solid
 62
     7
370
    15
100
AcDbLine
 10
-392.5881111616
 20
138.4294925766
 30
0.0
 11
-392.5881111616
 21
140.6952537173
 31
0.0
  0
LINE
  5
1B7
330
1F
100
AcDbEntity
  8
0
  6
SLD-Solid
 62
     7
370
    15
100
AcDbLine
 10
-392.5744616979
 20
140.6873733314
 30
0.0
 11
-392.5744616979
 21
138.4373734282
 31
0.0
  0
CIRCLE
  5
1B8
330
1F
100
AcDbEntity
  8
0
  6
SLD-Solid
 62
     7
370
    15
100
AcDbCircle
 10
-390.6259042749
 20
139.5623731904
 30
0.0
 40
4.842931753855851
  0
CIRCLE
  5
1B9
330
1F
100
AcDbEntity
  8
0
  6
SLD-Solid
 62
     7
370
    15
100
AcDbCircle
 10
-390.6259042749
 20
139.5623731904
 30
0.0
 40
0.8999999999999773
  0
CIRCLE
  5
1BA
330
1F
100
AcDbEntity
  8
0
  6
SLD-Solid
 62
     7
370
    15
100
AcDbCircle
 10
-390.6259042749
 20
139.5623731904
 30
0.0
 40
1.0
  0
LINE
  5
1BB
330
1F
100
AcDbEntity
  8
0
  6
SLD-Solid
 62
     7
370
    15
100
AcDbLine
 10
-390.6259039039
 20
137.312373011
 30
0.0
 11
-390.6259039039
 21
137.4278430404
 31
0.0
  0
LINE
  5
1BC
330
1F
100
AcDbEntity
  8
0
  6
SLD-Solid
 62
     7
370
    15
100
AcDbLine
 10
-390.6259039039
 20
137.4278430404
 30
0.0
 11
-388.7773478025
 21
138.4951079773
 31
0.0
  0
LINE
  5
1BD
330
1F
100
AcDbEntity
  8
0
  6
SLD-Solid
 62
     7
370
    15
100
AcDbLine
 10
-388.6773479724
 20
138.4373734282
 30
0.0
 11
-388.7773478025
 21
138.4951079773
 31
0.0
  0
LINE
  5
1BE
330
1F
100
AcDbEntity
  8
0
  6
SLD-Solid
 62
     7
370
    15
100
AcDbLine
 10
-392.5744616979
 20
138.4373734282
 30
0.0
 11
-392.4744618678
 21
138.4951079773
 31
0.0
  0
LINE
  5
1BF
330
1F
100
AcDbEntity
  8
0
  6
SLD-Solid
 62
     7
370
    15
100
AcDbLine
 10
-392.4744618678
 20
138.4951079773
 30
0.0
 11
-390.6259039039
 21
137.4278430404
 31
0.0
  0
CIRCLE
  5
1C0
330
1F
100
AcDbEntity
  8
0
  6
SLD-Solid
 62
     7
370
    15
100
AcDbCircle
 10
-390.6259042749
 20
139.5623731904
 30
0.0
 40
1.100000000000023
  0
LINE
  5
1C1
330
1F
100
AcDbEntity
  8
0
  6
SLD-Solid
 62
     7
370
    15
100
AcDbLine
 10
-388.7773478025
 20
138.4951079773
 30
0.0
 11
-388.7773478025
 21
140.6296383167
 31
0.0
  0
LINE
  5
1C2
330
1F
100
AcDbEntity
  8
0
  6
SLD-Solid
 62
     7
370
    15
100
AcDbLine
 10
-388.7773478025
 20
140.6296383167
 30
0.0
 11
-388.6773479724
 21
140.6873733314
 31
0.0
  0
LINE
  5
1C3
330
1F
100
AcDbEntity
  8
0
  6
SLD-Solid
 62
     7
370
    15
100
AcDbLine
 10
-388.7773478025
 20
140.6296383167
 30
0.0
 11
-390.6259039039
 21
141.6969032535
 31
0.0
  0
LINE
  5
1C4
330
1F
100
AcDbEntity
  8
0
  6
SLD-Solid
 62
     7
370
    15
100
AcDbLine
 10
-390.6259039039
 20
141.6969032535
 30
0.0
 11
-390.6259039039
 21
141.8123732829
 31
0.0
  0
LINE
  5
1C5
330
1F
100
AcDbEntity
  8
0
  6
SLD-Solid
 62
     7
370
    15
100
AcDbLine
 10
-390.6259039039
 20
141.6969032535
 30
0.0
 11
-392.4744618678
 21
140.6296383167
 31
0.0
  0
LINE
  5
1C6
330
1F
100
AcDbEntity
  8
0
  6
SLD-Solid
 62
     7
370
    15
100
AcDbLine
 10
-392.4744618678
 20
140.6296383167
 30
0.0
 11
-392.5744616979
 21
140.6873733314
 31
0.0
  0
LINE
  5
1C7
330
1F
100
AcDbEntity
  8
0
  6
SLD-Solid
 62
     7
370
    15
100
AcDbLine
 10
-392.4744618678
 20
140.6296383167
 30
0.0
 11
-392.4744618678
 21
138.4951079773
 31
0.0
  0
LINE
  5
1C8
330
1F
100
AcDbEntity
  8
0
  6
SLD-Solid
 62
     7
370
    15
100
AcDbLine
 10
-517.1260038012
 20
97.601273893
 30
0.0
 11
-517.1259069437
 21
97.601273893
 31
0.0
  0
LINE
  5
1C9
330
1F
100
AcDbEntity
  8
0
  6
SLD-Solid
 62
     7
370
    15
100
AcDbLine
 10
-517.1260038012
 20
97.8123749183
 30
0.0
 11
-517.1259069437
 21
97.8123749183
 31
0.0
  0
LINE
  5
1CA
330
1F
100
AcDbEntity
  8
0
  6
SLD-Solid
 62
     7
370
    15
100
AcDbLine
 10
-517.1260038012
 20
84.1211731123
 30
0.0
 11
-517.1259069437
 21
84.1211731123
 31
0.0
  0
LINE
  5
1CB
330
1F
100
AcDbEntity
  8
0
  6
SLD-Solid
 62
     7
370
    15
100
AcDbLine
 10
-517.1260038012
 20
84.1211731123
 30
0.0
 11
-517.1260038012
 21
97.601273893
 31
0.0
  0
LINE
  5
1CC
330
1F
100
AcDbEntity
  8
0
  6
SLD-Solid
 62
     7
370
    15
100
AcDbLine
 10
-517.1260038012
 20
83.9100758122
 30
0.0
 11
-517.1259069437
 21
83.9100758122
 31
0.0
  0
LINE
  5
1CD
330
1F
100
AcDbEntity
  8
0
  6
SLD-Solid
 62
     7
370
    15
100
AcDbLine
 10
-517.1260038012
 20
82.9794759439
 30
0.0
 11
-517.1259069437
 21
82.9794759439
 31
0.0
  0
LINE
  5
1CE
330
1F
100
AcDbEntity
  8
0
  6
SLD-Solid
 62
     7
370
    15
100
AcDbLine
 10
-517.1260038012
 20
82.9794759439
 30
0.0
 11
-517.1260038012
 21
83.9100758122
 31
0.0
  0
LINE
  5
1CF
330
1F
100
AcDbEntity
  8
0
  6
SLD-Solid
 62
     7
370
    15
100
AcDbLine
 10
-517.1260038012
 20
82.7680731701
 30
0.0
 11
-517.1259069437
 21
82.7680731701
 31
0.0
  0
LINE
  5
1D0
330
1F
100
AcDbEntity
  8
0
  6
SLD-Solid
 62
     7
370
    15
100
AcDbLine
 10
-517.1260038012
 20
76.9520754503
 30
0.0
 11
-517.1259069437
 21
76.9520754503
 31
0.0
  0
LINE
  5
1D1
330
1F
100
AcDbEntity
  8
0
  6
SLD-Solid
 62
     7
370
    15
100
AcDbLine
 10
-517.1260038012
 20
77.2027725862
 30
0.0
 11
-517.1259069437
 21
77.2027725862
 31
0.0
  0
LINE
  5
1D2
330
1F
100
AcDbEntity
  8
0
  6
SLD-Solid
 62
     7
370
    15
100
AcDbLine
 10
-517.1260038012
 20
81.6759745167
 30
0.0
 11
-517.1259069437
 21
81.6759745167
 31
0.0
  0
LINE
  5
1D3
330
1F
100
AcDbEntity
  8
0
  6
SLD-Solid
 62
     7
370
    15
100
AcDbLine
 10
-517.1260038012
 20
81.6759745167
 30
0.0
 11
-517.1260038012
 21
77.2027725862
 31
0.0
  0
LINE
  5
1D4
330
1F
100
AcDbEntity
  8
0
  6
SLD-Solid
 62
     7
370
    15
100
AcDbLine
 10
-517.1260038012
 20
76.9472698258
 30
0.0
 11
-517.1259069437
 21
76.9472698258
 31
0.0
  0
LINE
  5
1D5
330
1F
100
AcDbEntity
  8
0
  6
SLD-Solid
 62
     7
370
    15
100
AcDbLine
 10
-517.1260038012
 20
81.8429718302
 30
0.0
 11
-517.1259069437
 21
81.8429718302
 31
0.0
  0
LINE
  5
1D6
330
1F
100
AcDbEntity
  8
0
  6
SLD-Solid
 62
     7
370
    15
100
AcDbLine
 10
-517.1260038012
 20
74.9300698327
 30
0.0
 11
-517.1259069437
 21
74.9300698327
 31
0.0
  0
LINE
  5
1D7
330
1F
100
AcDbEntity
  8
0
  6
SLD-Solid
 62
     7
370
    15
100
AcDbLine
 10
-517.1260038012
 20
75.1411745833
 30
0.0
 11
-517.1259069437
 21
75.1411745833
 31
0.0
  0
LINE
  5
1D8
330
1F
100
AcDbEntity
  8
0
  6
SLD-Solid
 62
     7
370
    15
100
AcDbLine
 10
-517.1260038012
 20
76.929909973
 30
0.0
 11
-517.1260038012
 21
75.1411745833
 31
0.0
  0
LINE
  5
1D9
330
1F
100
AcDbEntity
  8
0
  6
SLD-Solid
 62
     7
370
    15
100
AcDbLine
 10
-517.1260038012
 20
70.7304755734
 30
0.0
 11
-517.1259069437
 21
70.7304755734
 31
0.0
  0
LINE
  5
1DA
330
1F
100
AcDbEntity
  8
0
  6
SLD-Solid
 62
     7
370
    15
100
AcDbLine
 10
-517.1260038012
 20
71.7637742447
 30
0.0
 11
-517.1259069437
 21
71.7637742447
 31
0.0
  0
LINE
  5
1DB
330
1F
100
AcDbEntity
  8
0
  6
SLD-Solid
 62
     7
370
    15
100
AcDbLine
 10
-517.1260038012
 20
71.9514767216
 30
0.0
 11
-517.1259069437
 21
71.9514767216
 31
0.0
  0
LINE
  5
1DC
330
1F
100
AcDbEntity
  8
0
  6
SLD-Solid
 62
     7
370
    15
100
AcDbLine
 10
-517.1260038012
 20
71.7637742447
 30
0.0
 11
-517.1260038012
 21
71.9514767216
 31
0.0
  0
LINE
  5
1DD
330
1F
100
AcDbEntity
  8
0
  6
SLD-Solid
 62
     7
370
    15
100
AcDbLine
 10
-517.1260038012
 20
72.5701729344
 30
0.0
 11
-517.1259069437
 21
72.5701729344
 31
0.0
  0
LINE
  5
1DE
330
1F
100
AcDbEntity
  8
0
  6
SLD-Solid
 62
     7
370
    15
100
AcDbLine
 10
-517.1260038012
 20
67.8642744707
 30
0.0
 11
-517.1259069437
 21
67.8642744707
 31
0.0
  0
LINE
  5
1DF
330
1F
100
AcDbEntity
  8
0
  6
SLD-Solid
 62
     7
370
    15
100
AcDbLine
 10
-517.1260038012
 20
74.1080696272
 30
0.0
 11
-517.1259069437
 21
74.1080696272
 31
0.0
  0
LINE
  5
1E0
330
1F
100
AcDbEntity
  8
0
  6
SLD-Solid
 62
     7
370
    15
100
AcDbLine
 10
-517.1260038012
 20
72.5701729344
 30
0.0
 11
-517.1260038012
 21
74.1080696272
 31
0.0
  0
LINE
  5
1E1
330
1F
100
AcDbEntity
  8
0
  6
SLD-Solid
 62
     7
370
    15
100
AcDbLine
 10
-517.1260038012
 20
67.8142736243
 30
0.0
 11
-517.1259069437
 21
67.8142736243
 31
0.0
  0
LINE
  5
1E2
330
1F
100
AcDbEntity
  8
0
  6
SLD-Solid
 62
     7
370
    15
100
AcDbLine
 10
-517.1260038012
 20
67.8124705838
 30
0.0
 11
-517.1259069437
 21
67.8124705838
 31
0.0
  0
LINE
  5
1E3
330
1F
100
AcDbEntity
  8
0
  6
SLD-Solid
 62
     7
370
    15
100
AcDbLine
 10
-517.1260038012
 20
74.3670741605
 30
0.0
 11
-517.1259069437
 21
74.3670741605
 31
0.0
  0
LINE
  5
1E4
330
1F
100
AcDbEntity
  8
0
  6
SLD-Solid
 62
     7
370
    15
100
AcDbLine
 10
-517.1269053215
 20
198.0397718536
 30
0.0
 11
-517.1259069437
 21
198.0397718536
 31
0.0
  0
LINE
  5
1E5
330
1F
100
AcDbEntity
  8
0
  6
SLD-Solid
 62
     7
370
    15
100
AcDbLine
 10
-517.1269053215
 20
202.2459747778
 30
0.0
 11
-517.1259069437
 21
202.2459747778
 31
0.0
  0
LINE
  5
1E6
330
1F
100
AcDbEntity
  8
0
  6
SLD-Solid
 62
     7
370
    15
100
AcDbLine
 10
-517.1269053215
 20
206.4752745019
 30
0.0
 11
-517.1259069437
 21
206.4752745019
 31
0.0
  0
LINE
  5
1E7
330
1F
100
AcDbEntity
  8
0
  6
SLD-Solid
 62
     7
370
    15
100
AcDbLine
 10
-517.1269053215
 20
201.9779736685
 30
0.0
 11
-517.1269053215
 21
202.5623748587
 31
0.0
  0
LINE
  5
1E8
330
1F
100
AcDbEntity
  8
0
  6
SLD-Solid
 62
     7
370
    15
100
AcDbLine
 10
-500.9259009355
 20
52.8123731302
 30
0.0
 11
-500.9259009355
 21
225.3123725342
 31
0.0
  0
LINE
  5
1E9
330
1F
100
AcDbEntity
  8
0
  6
SLD-Solid
 62
     7
370
    15
100
AcDbLine
 10
-500.9259009355
 20
225.3123725342
 30
0.0
 11
-374.6259050065
 21
225.3123725342
 31
0.0
  0
ARC
  5
1EA
330
1F
100
AcDbEntity
  8
0
  6
SLD-Solid
 62
     7
370
    15
100
AcDbCircle
 10
-374.6259042749
 20
222.8123731904
 30
0.0
 40
2.5
100
AcDbArc
 50
0.0
 51
90.0
  0
LINE
  5
1EB
330
1F
100
AcDbEntity
  8
0
  6
SLD-Solid
 62
     7
370
    15
100
AcDbLine
 10
-372.1259036654
 20
222.8123749183
 30
0.0
 11
-372.1259036654
 21
55.312370746
 31
0.0
  0
ARC
  5
1EC
330
1F
100
AcDbEntity
  8
0
  6
SLD-Solid
 62
     7
370
    15
100
AcDbCircle
 10
-374.6259042749
 20
55.3123731904
 30
0.0
 40
2.5
100
AcDbArc
 50
270.0
 51
0.0
  0
LINE
  5
1ED
330
1F
100
AcDbEntity
  8
0
  6
SLD-Solid
 62
     7
370
    15
100
AcDbLine
 10
-374.6259050065
 20
52.8123731302
 30
0.0
 11
-500.9259009355
 21
52.8123731302
 31
0.0
  0
LINE
  5
1EE
330
1F
100
AcDbEntity
  8
0
  6
SLD-Solid
 62
     7
370
    15
100
AcDbLine
 10
-517.1259069437
 20
225.3123725342
 30
0.0
 11
-500.9259009355
 21
225.3123725342
 31
0.0
  0
LINE
  5
1EF
330
1F
100
AcDbEntity
  8
0
  6
SLD-Solid
 62
     7
370
    15
100
AcDbLine
 10
-500.9259009355
 20
52.8123731302
 30
0.0
 11
-517.1259069437
 21
52.8123731302
 31
0.0
  0
LINE
  5
1F0
330
1F
100
AcDbEntity
  8
0
  6
SLD-Solid
 62
     7
370
    15
100
AcDbLine
 10
-517.1259069437
 20
52.8123731302
 30
0.0
 11
-517.1259069437
 21
225.3123725342
 31
0.0
  0
LINE
  5
1F1
330
1F
100
AcDbEntity
  8
0
  6
SLD-Solid
 62
     7
370
    15
100
AcDbLine
 10
26.6035473783
 20
355.5104526926
 30
0.0
 11
26.6035473783
 21
357.5104530205
 31
0.0
  0
LINE
  5
1F2
330
1F
100
AcDbEntity
  8
0
  6
SLD-Solid
 62
     7
370
    15
100
AcDbLine
 10
6.6035515506
 20
357.5104530205
 30
0.0
 11
6.6035515506
 21
355.5104526926
 31
0.0
  0
LINE
  5
1F3
330
1F
100
AcDbEntity
  8
0
  6
SLD-Solid
 62
     7
370
    15
100
AcDbLine
 10
-185.3964501183
 20
355.5104526926
 30
0.0
 11
-185.3964501183
 21
357.5104530205
 31
0.0
  0
LINE
  5
1F4
330
1F
100
AcDbEntity
  8
0
  6
SLD-Solid
 62
     7
370
    15
100
AcDbLine
 10
-205.3964533965
 20
357.5104530205
 30
0.0
 11
-205.3964533965
 21
355.5104526926
 31
0.0
  0
ARC
  5
1F5
330
1F
100
AcDbEntity
  8
0
  6
SLD-Solid
 62
     7
370
    15
100
AcDbCircle
 10
-227.1464510474
 20
371.392712904
 30
0.0
 40
0.2500000000000284
100
AcDbArc
 50
244.2586887966
 51
0.0
  0
ARC
  5
1F6
330
1F
100
AcDbEntity
  8
0
  6
SLD-Solid
 62
     7
370
    15
100
AcDbCircle
 10
-227.1464510474
 20
380.6281943558
 30
0.0
 40
0.2500000000000125
100
AcDbArc
 50
0.0
 51
115.7413112034
  0
ARC
  5
1F7
330
1F
100
AcDbEntity
  8
0
  6
SLD-Solid
 62
     7
370
    15
100
AcDbCircle
 10
-224.9199804592
 20
376.0104536299
 30
0.0
 40
5.37647058823535
100
AcDbArc
 50
201.4052363367
 51
244.2586887966
  0
ARC
  5
1F8
330
1F
100
AcDbEntity
  8
0
  6
SLD-Solid
 62
     7
370
    15
100
AcDbCircle
 10
-224.9199804592
 20
376.0104536299
 30
0.0
 40
5.376470588235274
100
AcDbArc
 50
115.7413112034
 51
158.5947636633
  0
ARC
  5
1F9
330
1F
100
AcDbEntity
  8
0
  6
SLD-Solid
 62
     7
370
    15
100
AcDbCircle
 10
-229.9162851368
 20
377.9690107884
 30
0.0
 40
0.0099999999999909
100
AcDbArc
 50
158.5947636632
 51
270.0
  0
ARC
  5
1FA
330
1F
100
AcDbEntity
  8
0
  6
SLD-Solid
 62
     7
370
    15
100
AcDbCircle
 10
-229.9162851368
 20
374.0518964714
 30
0.0
 40
0.0100000000000341
100
AcDbArc
 50
90.0
 51
201.405236337
  0
ARC
  5
1FB
330
1F
100
AcDbEntity
  8
0
  6
SLD-Solid
 62
     7
370
    15
100
AcDbCircle
 10
48.3535489525
 20
380.6281943558
 30
0.0
 40
0.2500000000000284
100
AcDbArc
 50
64.2586887966
 51
180.0
  0
ARC
  5
1FC
330
1F
100
AcDbEntity
  8
0
  6
SLD-Solid
 62
     7
370
    15
100
AcDbCircle
 10
48.3535489525
 20
371.392712904
 30
0.0
 40
0.2500000000000284
100
AcDbArc
 50
180.0
 51
295.7413112034
  0
ARC
  5
1FD
330
1F
100
AcDbEntity
  8
0
  6
SLD-Solid
 62
     7
370
    15
100
AcDbCircle
 10
46.1270783643
 20
376.0104536299
 30
0.0
 40
5.376470588235295
100
AcDbArc
 50
21.4052363367
 51
64.2586887966
  0
ARC
  5
1FE
330
1F
100
AcDbEntity
  8
0
  6
SLD-Solid
 62
     7
370
    15
100
AcDbCircle
 10
46.1270783643
 20
376.0104536299
 30
0.0
 40
5.376470588235295
100
AcDbArc
 50
295.7413112034
 51
338.5947636633
  0
ARC
  5
1FF
330
1F
100
AcDbEntity
  8
0
  6
SLD-Solid
 62
     7
370
    15
100
AcDbCircle
 10
51.1233830419
 20
374.0518964714
 30
0.0
 40
0.0099999999999926
100
AcDbArc
 50
338.5947636636
 51
90.0
  0
ARC
  5
200
330
1F
100
AcDbEntity
  8
0
  6
SLD-Solid
 62
     7
370
    15
100
AcDbCircle
 10
51.1233830419
 20
377.9690107884
 30
0.0
 40
0.0100000000000477
100
AcDbArc
 50
270.0
 51
21.4052363364
  0
LINE
  5
201
330
1F
100
AcDbEntity
  8
0
  6
SLD-Solid
 62
     7
370
    15
100
AcDbLine
 10
45.60354863
 20
370.010454138
 30
0.0
 11
46.9035482843
 21
370.010454138
 31
0.0
  0
LINE
  5
202
330
1F
100
AcDbEntity
  8
0
  6
SLD-Solid
 62
     7
370
    15
100
AcDbLine
 10
46.9035482843
 20
382.0104542424
 30
0.0
 11
45.60354863
 21
382.0104542424
 31
0.0
  0
LINE
  5
203
330
1F
100
AcDbEntity
  8
0
  6
SLD-Solid
 62
     7
370
    15
100
AcDbLine
 10
-224.3964471977
 20
382.0104542424
 30
0.0
 11
-225.6964543025
 21
382.0104542424
 31
0.0
  0
LINE
  5
204
330
1F
100
AcDbEntity
  8
0
  6
SLD-Solid
 62
     7
370
    15
100
AcDbLine
 10
-225.6964543025
 20
370.010454138
 30
0.0
 11
-224.3964471977
 21
370.010454138
 31
0.0
  0
LINE
  5
205
330
1F
100
AcDbEntity
  8
0
  6
SLD-Solid
 62
     7
370
    15
100
AcDbLine
 10
6.6035515506
 20
355.5104526926
 30
0.0
 11
26.6035473783
 21
355.5104526926
 31
0.0
  0
LINE
  5
206
330
1F
100
AcDbEntity
  8
0
  6
SLD-Solid
 62
     7
370
    15
100
AcDbLine
 10
-205.3964533965
 20
355.5104526926
 30
0.0
 11
-185.3964501183
 21
355.5104526926
 31
0.0
  0
ARC
  5
207
330
1F
100
AcDbEntity
  8
0
  6
SLD-Solid
 62
     7
370
    15
100
AcDbCircle
 10
-226.1523531128
 20
376.9915568877
 30
0.0
 40
3.773152479756023
100
AcDbArc
 50
164.9286171199
 51
195.0713828801
  0
ARC
  5
208
330
1F
100
AcDbEntity
  8
0
  6
SLD-Solid
 62
     7
370
    15
100
AcDbCircle
 10
-226.1523531128
 20
375.02934963
 30
0.0
 40
3.773152479756023
100
AcDbArc
 50
164.9286171199
 51
195.0713828801
  0
ARC
  5
209
330
1F
100
AcDbEntity
  8
0
  6
SLD-Solid
 62
     7
370
    15
100
AcDbCircle
 10
-229.7877120043
 20
374.0528746883
 30
0.0
 40
0.0092486443004408
100
AcDbArc
 50
176.2587367823
 51
210.0312300969
  0
ARC
  5
20A
330
1F
100
AcDbEntity
  8
0
  6
SLD-Solid
 62
     7
370
    15
100
AcDbCircle
 10
-226.1503917655
 20
375.0361752932
 30
0.0
 40
3.765807293789322
100
AcDbArc
 50
165.006059218
 51
194.993940782
  0
ARC
  5
20B
330
1F
100
AcDbEntity
  8
0
  6
SLD-Solid
 62
     7
370
    15
100
AcDbCircle
 10
-226.1503799484
 20
376.9847321559
 30
0.0
 40
3.765818949452278
100
AcDbArc
 50
165.0060920461
 51
194.9939079539
  0
ARC
  5
20C
330
1F
100
AcDbEntity
  8
0
  6
SLD-Solid
 62
     7
370
    15
100
AcDbCircle
 10
-229.7878889051
 20
377.9679895377
 30
0.0
 40
0.0091175167766165
100
AcDbArc
 50
149.1822969467
 51
207.145070119
  0
LINE
  5
20D
330
1F
100
AcDbEntity
  8
0
  6
SLD-Solid
 62
     7
370
    15
100
AcDbLine
 10
-229.7879853408
 20
377.959011053
 30
0.0
 11
-229.9162843387
 21
377.959011053
 31
0.0
  0
LINE
  5
20E
330
1F
100
AcDbEntity
  8
0
  6
SLD-Solid
 62
     7
370
    15
100
AcDbLine
 10
-229.9162843387
 20
374.0618973274
 30
0.0
 11
-229.7879853408
 21
374.0618973274
 31
0.0
  0
ARC
  5
20F
330
1F
100
AcDbEntity
  8
0
  6
SLD-Solid
 62
     7
370
    15
100
AcDbCircle
 10
47.3595838289
 20
376.9915568877
 30
0.0
 40
3.773013254601149
100
AcDbArc
 50
344.9280477891
 51
15.0719522109
  0
ARC
  5
210
330
1F
100
AcDbEntity
  8
0
  6
SLD-Solid
 62
     7
370
    15
100
AcDbCircle
 10
47.3595838289
 20
375.02934963
 30
0.0
 40
3.773013254601149
100
AcDbArc
 50
344.9280477891
 51
15.0719522109
  0
ARC
  5
211
330
1F
100
AcDbEntity
  8
0
  6
SLD-Solid
 62
     7
370
    15
100
AcDbCircle
 10
47.3571071549
 20
375.0361752932
 30
0.0
 40
3.766180194487563
100
AcDbArc
 50
345.0075786523
 51
14.9924213478
  0
LWPOLYLINE
  5
212
330
1F
100
AcDbEntity
  8
0
  6
SLD-Solid
 62
     7
370
    15
100
AcDbPolyline
 90
        7
 70
   128
 43
0.0
 10
51.0029992898
 20
374.0572518904
 10
51.0036400397
 20
374.0560579349
 10
51.0040870745
 20
374.0531112303
 10
51.0034612258
 20
374.0497156282
 10
51.0030737956
 20
374.0487749923
 10
51.0028055747
 20
374.0482460011
 10
51.0028055747
 20
374.0482460011
  0
ARC
  5
213
330
1F
100
AcDbEntity
  8
0
  6
SLD-Solid
 62
     7
370
    15
100
AcDbCircle
 10
47.3570953364
 20
376.9847321559
 30
0.0
 40
3.766191851624434
100
AcDbArc
 50
345.0076114781
 51
14.9923885219
  0
LWPOLYLINE
  5
214
330
1F
100
AcDbEntity
  8
0
  6
SLD-Solid
 62
     7
370
    15
100
AcDbPolyline
 90
        6
 70
   128
 43
0.0
 10
51.004042371
 20
377.967430209
 10
51.0040870745
 20
377.9677952875
 10
51.0034612258
 20
377.9711908896
 10
51.0030737956
 20
377.9721315254
 10
51.0028055747
 20
377.9726605166
 10
51.0028055747
 20
377.9726605166
  0
LINE
  5
215
330
1F
100
AcDbEntity
  8
0
  6
SLD-Solid
 62
     7
370
    15
100
AcDbLine
 10
51.123385771
 20
377.959011053
 30
0.0
 11
50.9950867732
 21
377.959011053
 31
0.0
  0
LINE
  5
216
330
1F
100
AcDbEntity
  8
0
  6
SLD-Solid
 62
     7
370
    15
100
AcDbLine
 10
-88.4255007963
 20
502.5105531563
 30
0.0
 11
-88.4255007963
 21
502.5104562987
 31
0.0
  0
LINE
  5
217
330
1F
100
AcDbEntity
  8
0
  6
SLD-Solid
 62
     7
370
    15
100
AcDbLine
 10
-88.386601315
 20
502.5105531563
 30
0.0
 11
-88.386601315
 21
502.5104562987
 31
0.0
  0
LINE
  5
218
330
1F
100
AcDbEntity
  8
0
  6
SLD-Solid
 62
     7
370
    15
100
AcDbLine
 10
-88.596000814
 20
502.5105531563
 30
0.0
 11
-88.596000814
 21
502.5104562987
 31
0.0
  0
LINE
  5
219
330
1F
100
AcDbEntity
  8
0
  6
SLD-Solid
 62
     7
370
    15
100
AcDbLine
 10
-88.1953011389
 20
502.5105531563
 30
0.0
 11
-88.1953011389
 21
502.5104562987
 31
0.0
  0
LINE
  5
21A
330
1F
100
AcDbEntity
  8
0
  6
SLD-Solid
 62
     7
370
    15
100
AcDbLine
 10
-94.6831018786
 20
502.5105531563
 30
0.0
 11
-94.6831018786
 21
502.5104562987
 31
0.0
  0
LINE
  5
21B
330
1F
100
AcDbEntity
  8
0
  6
SLD-Solid
 62
     7
370
    15
100
AcDbLine
 10
-81.8970012601
 20
502.5105531563
 30
0.0
 11
-81.8970012601
 21
502.5104562987
 31
0.0
  0
LINE
  5
21C
330
1F
100
AcDbEntity
  8
0
  6
SLD-Solid
 62
     7
370
    15
100
AcDbLine
 10
-96.8058002304
 20
502.5105531563
 30
0.0
 11
-96.8058002304
 21
502.5104562987
 31
0.0
  0
LINE
  5
21D
330
1F
100
AcDbEntity
  8
0
  6
SLD-Solid
 62
     7
370
    15
100
AcDbLine
 10
-96.5104014735
 20
502.5105531563
 30
0.0
 11
-96.5104014735
 21
502.5104562987
 31
0.0
  0
LINE
  5
21E
330
1F
100
AcDbEntity
  8
0
  6
SLD-Solid
 62
     7
370
    15
100
AcDbLine
 10
-96.42720084
 20
502.5105531563
 30
0.0
 11
-96.42720084
 21
502.5104562987
 31
0.0
  0
LINE
  5
21F
330
1F
100
AcDbEntity
  8
0
  6
SLD-Solid
 62
     7
370
    15
100
AcDbLine
 10
-96.4035005431
 20
502.5105531563
 30
0.0
 11
-96.4035005431
 21
502.5104562987
 31
0.0
  0
LINE
  5
220
330
1F
100
AcDbEntity
  8
0
  6
SLD-Solid
 62
     7
370
    15
100
AcDbLine
 10
-96.42720084
 20
502.5105531563
 30
0.0
 11
-96.4035005431
 21
502.5105531563
 31
0.0
  0
LINE
  5
221
330
1F
100
AcDbEntity
  8
0
  6
SLD-Solid
 62
     7
370
    15
100
AcDbLine
 10
-96.4035005431
 20
502.5105531563
 30
0.0
 11
-94.6831018786
 21
502.5105531563
 31
0.0
  0
LINE
  5
222
330
1F
100
AcDbEntity
  8
0
  6
SLD-Solid
 62
     7
370
    15
100
AcDbLine
 10
-97.4647016387
 20
502.5105531563
 30
0.0
 11
-97.4647016387
 21
502.5104562987
 31
0.0
  0
LINE
  5
223
330
1F
100
AcDbEntity
  8
0
  6
SLD-Solid
 62
     7
370
    15
100
AcDbLine
 10
-97.4647016387
 20
502.5105531563
 30
0.0
 11
-96.8058002304
 21
502.5105531563
 31
0.0
  0
LINE
  5
224
330
1F
100
AcDbEntity
  8
0
  6
SLD-Solid
 62
     7
370
    15
100
AcDbLine
 10
-97.4685014348
 20
502.5105531563
 30
0.0
 11
-97.4685014348
 21
502.5104562987
 31
0.0
  0
LINE
  5
225
330
1F
100
AcDbEntity
  8
0
  6
SLD-Solid
 62
     7
370
    15
100
AcDbLine
 10
-97.4685014348
 20
502.5105531563
 30
0.0
 11
-97.4647016387
 21
502.5105531563
 31
0.0
  0
LINE
  5
226
330
1F
100
AcDbEntity
  8
0
  6
SLD-Solid
 62
     7
370
    15
100
AcDbLine
 10
48.1035462458
 20
357.5104530205
 30
0.0
 11
46.9035482843
 21
357.5104530205
 31
0.0
  0
LINE
  5
227
330
1F
100
AcDbEntity
  8
0
  6
SLD-Solid
 62
     7
370
    15
100
AcDbLine
 10
46.9035482843
 20
357.5104530205
 30
0.0
 11
46.9035482843
 21
360.0104543616
 31
0.0
  0
LINE
  5
228
330
1F
100
AcDbEntity
  8
0
  6
SLD-Solid
 62
     7
370
    15
100
AcDbLine
 10
46.9035482843
 20
360.0104543616
 30
0.0
 11
48.1035462458
 21
360.0104543616
 31
0.0
  0
LINE
  5
229
330
1F
100
AcDbEntity
  8
0
  6
SLD-Solid
 62
     7
370
    15
100
AcDbLine
 10
48.1035462458
 20
360.0104543616
 30
0.0
 11
48.1035462458
 21
357.5104530205
 31
0.0
  0
LINE
  5
22A
330
1F
100
AcDbEntity
  8
0
  6
SLD-Solid
 62
     7
370
    15
100
AcDbLine
 10
-225.6964543025
 20
486.3104502906
 30
0.0
 11
-226.8964448135
 21
486.3104502906
 31
0.0
  0
LINE
  5
22B
330
1F
100
AcDbEntity
  8
0
  6
SLD-Solid
 62
     7
370
    15
100
AcDbLine
 10
-226.8964448135
 20
360.0104543616
 30
0.0
 11
-225.6964543025
 21
360.0104543616
 31
0.0
  0
LINE
  5
22C
330
1F
100
AcDbEntity
  8
0
  6
SLD-Solid
 62
     7
370
    15
100
AcDbLine
 10
-225.6964543025
 20
486.3104502906
 30
0.0
 11
-225.6964543025
 21
360.0104543616
 31
0.0
  0
LINE
  5
22D
330
1F
100
AcDbEntity
  8
0
  6
SLD-Solid
 62
     7
370
    15
100
AcDbLine
 10
-226.8964448135
 20
486.3104502906
 30
0.0
 11
-226.8964448135
 21
360.0104543616
 31
0.0
  0
LINE
  5
22E
330
1F
100
AcDbEntity
  8
0
  6
SLD-Solid
 62
     7
370
    15
100
AcDbLine
 10
46.9035482843
 20
486.3104502906
 30
0.0
 11
48.1035462458
 21
486.3104502906
 31
0.0
  0
LINE
  5
22F
330
1F
100
AcDbEntity
  8
0
  6
SLD-Solid
 62
     7
370
    15
100
AcDbLine
 10
46.9035482843
 20
360.0104543616
 30
0.0
 11
46.9035482843
 21
486.3104502906
 31
0.0
  0
LINE
  5
230
330
1F
100
AcDbEntity
  8
0
  6
SLD-Solid
 62
     7
370
    15
100
AcDbLine
 10
48.1035462458
 20
360.0104543616
 30
0.0
 11
48.1035462458
 21
486.3104502906
 31
0.0
  0
LINE
  5
231
330
1F
100
AcDbEntity
  8
0
  6
SLD-Solid
 62
     7
370
    15
100
AcDbLine
 10
-225.6964543025
 20
357.5104530205
 30
0.0
 11
-226.8964448135
 21
357.5104530205
 31
0.0
  0
LINE
  5
232
330
1F
100
AcDbEntity
  8
0
  6
SLD-Solid
 62
     7
370
    15
100
AcDbLine
 10
-225.6964543025
 20
360.0104543616
 30
0.0
 11
-225.6964543025
 21
357.5104530205
 31
0.0
  0
LINE
  5
233
330
1F
100
AcDbEntity
  8
0
  6
SLD-Solid
 62
     7
370
    15
100
AcDbLine
 10
-226.8964448135
 20
357.5104530205
 30
0.0
 11
-226.8964448135
 21
360.0104543616
 31
0.0
  0
ARC
  5
234
330
1F
100
AcDbEntity
  8
0
  6
SLD-Solid
 62
     7
370
    15
100
AcDbCircle
 10
-210.6964510474
 20
486.3104536299
 30
0.0
 40
16.20000000000005
100
AcDbArc
 50
90.0
 51
180.0
  0
LINE
  5
235
330
1F
100
AcDbEntity
  8
0
  6
SLD-Solid
 62
     7
370
    15
100
AcDbLine
 10
-210.6964537065
 20
501.3104508866
 30
0.0
 11
-210.6964537065
 21
502.5104562987
 31
0.0
  0
ARC
  5
236
330
1F
100
AcDbEntity
  8
0
  6
SLD-Solid
 62
     7
370
    15
100
AcDbCircle
 10
-210.6964510474
 20
486.3104536299
 30
0.0
 40
15.00000000000006
100
AcDbArc
 50
90.0
 51
180.0
  0
LINE
  5
237
330
1F
100
AcDbEntity
  8
0
  6
SLD-Solid
 62
     7
370
    15
100
AcDbLine
 10
31.9035476883
 20
501.3104508866
 30
0.0
 11
31.9035476883
 21
502.5104562987
 31
0.0
  0
ARC
  5
238
330
1F
100
AcDbEntity
  8
0
  6
SLD-Solid
 62
     7
370
    15
100
AcDbCircle
 10
31.9035489526
 20
486.3104536299
 30
0.0
 40
15.00000000000006
100
AcDbArc
 50
0.0
 51
90.0
  0
ARC
  5
239
330
1F
100
AcDbEntity
  8
0
  6
SLD-Solid
 62
     7
370
    15
100
AcDbCircle
 10
31.9035489526
 20
486.3104536299
 30
0.0
 40
16.20000000000005
100
AcDbArc
 50
0.0
 51
90.0
  0
LINE
  5
23A
330
1F
100
AcDbEntity
  8
0
  6
SLD-Solid
 62
     7
370
    15
100
AcDbLine
 10
-210.6964537065
 20
502.5104562987
 30
0.0
 11
31.9035476883
 21
502.5104562987
 31
0.0
  0
LINE
  5
23B
330
1F
100
AcDbEntity
  8
0
  6
SLD-Solid
 62
     7
370
    15
100
AcDbLine
 10
-210.6964537065
 20
501.3104508866
 30
0.0
 11
31.9035476883
 21
501.3104508866
 31
0.0
  0
CIRCLE
  5
23C
330
1F
100
AcDbEntity
  8
0
  6
SLD-Solid
 62
     7
370
    15
100
AcDbCircle
 10
-86.06492755
 20
478.5104536299
 30
0.0
 40
10.00000000000006
  0
ARC
  5
23D
330
1F
100
AcDbEntity
  8
0
  6
SLD-Solid
 62
     7
370
    15
100
AcDbCircle
 10
-86.06492755
 20
478.5104536299
 30
0.0
 40
13.00000000000006
100
AcDbArc
 50
270.0
 51
319.941221249
  0
ARC
  5
23E
330
1F
100
AcDbEntity
  8
0
  6
SLD-Solid
 62
     7
370
    15
100
AcDbCircle
 10
-86.06492755
 20
478.5104536299
 30
0.0
 40
13.00000000000006
100
AcDbArc
 50
40.0587787496
 51
270.0
  0
LINE
  5
23F
330
1F
100
AcDbEntity
  8
0
  6
SLD-Solid
 62
     7
370
    15
100
AcDbLine
 10
-84.7036219324
 20
463.5104517688
 30
0.0
 11
-83.2300488959
 21
465.8233131517
 31
0.0
  0
LINE
  5
240
330
1F
100
AcDbEntity
  8
0
  6
SLD-Solid
 62
     7
370
    15
100
AcDbLine
 10
-105.0649271469
 20
448.510454898
 30
0.0
 11
-105.0649271469
 21
463.5104517688
 31
0.0
  0
LINE
  5
241
330
1F
100
AcDbEntity
  8
0
  6
SLD-Solid
 62
     7
370
    15
100
AcDbLine
 10
-105.0649271469
 20
463.5104517688
 30
0.0
 11
-103.8964507292
 21
463.5104517688
 31
0.0
  0
LWPOLYLINE
  5
242
330
1F
100
AcDbEntity
  8
0
  6
SLD-Solid
 62
     7
370
    15
100
AcDbPolyline
 90
        3
 70
   128
 43
0.0
 10
-176.9681223791
 20
385.0104538028
 10
-177.2351958911
 20
385.2995847587
 10
-178.6816590588
 20
387.0104531993
  0
LINE
  5
243
330
1F
100
AcDbEntity
  8
0
  6
SLD-Solid
 62
     7
370
    15
100
AcDbLine
 10
-183.1674152176
 20
395.0104535792
 30
0.0
 11
-183.835575835
 21
397.010453616
 31
0.0
  0
LINE
  5
244
330
1F
100
AcDbEntity
  8
0
  6
SLD-Solid
 62
     7
370
    15
100
AcDbLine
 10
-185.0607642095
 20
405.0104538214
 30
0.0
 11
-185.0649290841
 21
405.5104534377
 31
0.0
  0
LINE
  5
245
330
1F
100
AcDbEntity
  8
0
  6
SLD-Solid
 62
     7
370
    15
100
AcDbLine
 10
-176.0649257462
 20
405.5104534377
 30
0.0
 11
-185.0649290841
 21
405.5104534377
 31
0.0
  0
LINE
  5
246
330
1F
100
AcDbEntity
  8
0
  6
SLD-Solid
 62
     7
370
    15
100
AcDbLine
 10
-185.0649290841
 20
405.5104534377
 30
0.0
 11
-185.0649290841
 21
407.0104536836
 31
0.0
  0
LINE
  5
247
330
1F
100
AcDbEntity
  8
0
  6
SLD-Solid
 62
     7
370
    15
100
AcDbLine
 10
-185.0649290841
 20
415.0104540635
 30
0.0
 11
-185.0649290841
 21
417.0104543914
 31
0.0
  0
LINE
  5
248
330
1F
100
AcDbEntity
  8
0
  6
SLD-Solid
 62
     7
370
    15
100
AcDbLine
 10
-185.0649290841
 20
425.01045384
 30
0.0
 11
-185.0649290841
 21
427.0104541678
 31
0.0
  0
LINE
  5
249
330
1F
100
AcDbEntity
  8
0
  6
SLD-Solid
 62
     7
370
    15
100
AcDbLine
 10
-185.0649290841
 20
435.0104536165
 30
0.0
 11
-185.0649290841
 21
437.0104539443
 31
0.0
  0
LINE
  5
24A
330
1F
100
AcDbEntity
  8
0
  6
SLD-Solid
 62
     7
370
    15
100
AcDbLine
 10
-185.0649290841
 20
445.0104552556
 30
0.0
 11
-185.0649290841
 21
447.0104518582
 31
0.0
  0
LINE
  5
24B
330
1F
100
AcDbEntity
  8
0
  6
SLD-Solid
 62
     7
370
    15
100
AcDbLine
 10
-185.0649290841
 20
455.0104531695
 30
0.0
 11
-185.0649290841
 21
457.0104534973
 31
0.0
  0
LINE
  5
24C
330
1F
100
AcDbEntity
  8
0
  6
SLD-Solid
 62
     7
370
    15
100
AcDbLine
 10
-184.8600604694
 20
465.0104548086
 30
0.0
 11
-184.5564493101
 21
467.0104514111
 31
0.0
  0
LINE
  5
24D
330
1F
100
AcDbEntity
  8
0
  6
SLD-Solid
 62
     7
370
    15
100
AcDbLine
 10
-181.855785207
 20
475.0104527224
 30
0.0
 11
-180.7505288284
 21
477.0104567755
 31
0.0
  0
LINE
  5
24E
330
1F
100
AcDbEntity
  8
0
  6
SLD-Solid
 62
     7
370
    15
100
AcDbLine
 10
-96.0482419591
 20
491.5104563583
 30
0.0
 11
-86.0649277578
 21
491.5104563583
 31
0.0
  0
LINE
  5
24F
330
1F
100
AcDbEntity
  8
0
  6
SLD-Solid
 62
     7
370
    15
100
AcDbLine
 10
-189.0649297397
 20
385.0104538028
 30
0.0
 11
-189.0649297397
 21
387.0104531993
 31
0.0
  0
LINE
  5
250
330
1F
100
AcDbEntity
  8
0
  6
SLD-Solid
 62
     7
370
    15
100
AcDbLine
 10
-189.0649297397
 20
395.0104535792
 30
0.0
 11
-189.0649297397
 21
397.010453616
 31
0.0
  0
LINE
  5
251
330
1F
100
AcDbEntity
  8
0
  6
SLD-Solid
 62
     7
370
    15
100
AcDbLine
 10
-189.0649297397
 20
405.0104538214
 30
0.0
 11
-189.0649297397
 21
407.0104536836
 31
0.0
  0
LINE
  5
252
330
1F
100
AcDbEntity
  8
0
  6
SLD-Solid
 62
     7
370
    15
100
AcDbLine
 10
-189.0649297397
 20
415.0104540635
 30
0.0
 11
-189.0649297397
 21
417.0104543914
 31
0.0
  0
LINE
  5
253
330
1F
100
AcDbEntity
  8
0
  6
SLD-Solid
 62
     7
370
    15
100
AcDbLine
 10
-189.0649297397
 20
425.01045384
 30
0.0
 11
-189.0649297397
 21
427.0104541678
 31
0.0
  0
LINE
  5
254
330
1F
100
AcDbEntity
  8
0
  6
SLD-Solid
 62
     7
370
    15
100
AcDbLine
 10
-189.0649297397
 20
435.0104536165
 30
0.0
 11
-189.0649297397
 21
437.0104539443
 31
0.0
  0
LINE
  5
255
330
1F
100
AcDbEntity
  8
0
  6
SLD-Solid
 62
     7
370
    15
100
AcDbLine
 10
-189.0649297397
 20
445.0104552556
 30
0.0
 11
-189.0649297397
 21
447.0104518582
 31
0.0
  0
LINE
  5
256
330
1F
100
AcDbEntity
  8
0
  6
SLD-Solid
 62
     7
370
    15
100
AcDbLine
 10
-189.0649297397
 20
455.0104531695
 30
0.0
 11
-189.0649297397
 21
457.0104534973
 31
0.0
  0
LINE
  5
257
330
1F
100
AcDbEntity
  8
0
  6
SLD-Solid
 62
     7
370
    15
100
AcDbLine
 10
-189.0649297397
 20
465.0104548086
 30
0.0
 11
-189.0649297397
 21
467.0104514111
 31
0.0
  0
LINE
  5
258
330
1F
100
AcDbEntity
  8
0
  6
SLD-Solid
 62
     7
370
    15
100
AcDbLine
 10
-189.0649297397
 20
475.0104527224
 30
0.0
 11
-189.0649297397
 21
477.0104567755
 31
0.0
  0
LINE
  5
259
330
1F
100
AcDbEntity
  8
0
  6
SLD-Solid
 62
     7
370
    15
100
AcDbLine
 10
-224.3964471977
 20
360.247054999
 30
0.0
 11
-224.3964471977
 21
484.5104570736
 31
0.0
  0
ARC
  5
25A
330
1F
100
AcDbEntity
  8
0
  6
SLD-Solid
 62
     7
370
    15
100
AcDbCircle
 10
-209.3964510474
 20
484.5104536299
 30
0.0
 40
15.0
100
AcDbArc
 50
90.0
 51
180.0
  0
LINE
  5
25B
330
1F
100
AcDbEntity
  8
0
  6
SLD-Solid
 62
     7
370
    15
100
AcDbLine
 10
-209.3964466016
 20
499.510450219
 30
0.0
 11
30.603548034
 21
499.510450219
 31
0.0
  0
ARC
  5
25C
330
1F
100
AcDbEntity
  8
0
  6
SLD-Solid
 62
     7
370
    15
100
AcDbCircle
 10
30.6035489526
 20
484.5104536299
 30
0.0
 40
15.0
100
AcDbArc
 50
0.0
 51
90.0
  0
LINE
  5
25D
330
1F
100
AcDbEntity
  8
0
  6
SLD-Solid
 62
     7
370
    15
100
AcDbLine
 10
45.60354863
 20
484.5104570736
 30
0.0
 11
45.60354863
 21
360.247054999
 31
0.0
  0
LINE
  5
25E
330
1F
100
AcDbEntity
  8
0
  6
SLD-Solid
 62
     7
370
    15
100
AcDbLine
 10
-162.3964482109
 20
360.247054999
 30
0.0
 11
45.60354863
 21
360.247054999
 31
0.0
  0
LINE
  5
25F
330
1F
100
AcDbEntity
  8
0
  6
SLD-Solid
 62
     7
370
    15
100
AcDbLine
 10
-162.3964482109
 20
364.5104523052
 30
0.0
 11
-162.3964482109
 21
360.247054999
 31
0.0
  0
ARC
  5
260
330
1F
100
AcDbEntity
  8
0
  6
SLD-Solid
 62
     7
370
    15
100
AcDbCircle
 10
-167.3964510474
 20
364.5104536299
 30
0.0
 40
5.0
100
AcDbArc
 50
0.0
 51
90.0
  0
LINE
  5
261
330
1F
100
AcDbEntity
  8
0
  6
SLD-Solid
 62
     7
370
    15
100
AcDbLine
 10
-177.396448807
 20
369.5104531248
 30
0.0
 11
-167.3964508932
 21
369.5104531248
 31
0.0
  0
ARC
  5
262
330
1F
100
AcDbEntity
  8
0
  6
SLD-Solid
 62
     7
370
    15
100
AcDbCircle
 10
-177.3964510474
 20
364.5104536299
 30
0.0
 40
5.0
100
AcDbArc
 50
90.0
 51
180.0
  0
LINE
  5
263
330
1F
100
AcDbEntity
  8
0
  6
SLD-Solid
 62
     7
370
    15
100
AcDbLine
 10
-182.3964514892
 20
360.247054999
 30
0.0
 11
-182.3964514892
 21
364.5104523052
 31
0.0
  0
LINE
  5
264
330
1F
100
AcDbEntity
  8
0
  6
SLD-Solid
 62
     7
370
    15
100
AcDbLine
 10
-224.3964471977
 20
360.247054999
 30
0.0
 11
-182.3964514892
 21
360.247054999
 31
0.0
  0
ARC
  5
265
330
1F
100
AcDbEntity
  8
0
  6
SLD-Solid
 62
     7
370
    15
100
AcDbCircle
 10
-88.56492755
 20
478.5104536299
 30
0.0
 40
15.00000000000002
100
AcDbArc
 50
308.624832873
 51
231.375167127
  0
ARC
  5
266
330
1F
100
AcDbEntity
  8
0
  6
SLD-Solid
 62
     7
370
    15
100
AcDbCircle
 10
-98.5524197277
 20
466.0104536299
 30
0.0
 40
1.0
100
AcDbArc
 50
270.0
 51
51.375167127
  0
LINE
  5
267
330
1F
100
AcDbEntity
  8
0
  6
SLD-Solid
 62
     7
370
    15
100
AcDbLine
 10
-98.5524193506
 20
465.0104548086
 30
0.0
 11
-108.5649267893
 21
465.0104548086
 31
0.0
  0
LINE
  5
268
330
1F
100
AcDbEntity
  8
0
  6
SLD-Solid
 62
     7
370
    15
100
AcDbLine
 10
-108.5649267893
 20
465.0104548086
 30
0.0
 11
-108.5649267893
 21
447.0104518582
 31
0.0
  0
LINE
  5
269
330
1F
100
AcDbEntity
  8
0
  6
SLD-Solid
 62
     7
370
    15
100
AcDbLine
 10
-108.5649267893
 20
447.0104518582
 30
0.0
 11
-68.5649276833
 21
447.0104518582
 31
0.0
  0
LINE
  5
26A
330
1F
100
AcDbEntity
  8
0
  6
SLD-Solid
 62
     7
370
    15
100
AcDbLine
 10
-68.5649276833
 20
447.0104518582
 30
0.0
 11
-68.5649276833
 21
465.0104548086
 31
0.0
  0
LINE
  5
26B
330
1F
100
AcDbEntity
  8
0
  6
SLD-Solid
 62
     7
370
    15
100
AcDbLine
 10
-68.5649276833
 20
465.0104548086
 30
0.0
 11
-78.5774353548
 21
465.0104548086
 31
0.0
  0
ARC
  5
26C
330
1F
100
AcDbEntity
  8
0
  6
SLD-Solid
 62
     7
370
    15
100
AcDbCircle
 10
-78.5774353723
 20
466.0104536299
 30
0.0
 40
1.0
100
AcDbArc
 50
128.624832873
 51
270.0
  0
LINE
  5
26D
330
1F
100
AcDbEntity
  8
0
  6
SLD-Solid
 62
     7
370
    15
100
AcDbLine
 10
-206.3964554231
 20
445.0104552556
 30
0.0
 11
-131.3964524429
 21
445.0104552556
 31
0.0
  0
LINE
  5
26E
330
1F
100
AcDbEntity
  8
0
  6
SLD-Solid
 62
     7
370
    15
100
AcDbLine
 10
-131.3964524429
 20
445.0104552556
 30
0.0
 11
-131.3964524429
 21
447.0104518582
 31
0.0
  0
LINE
  5
26F
330
1F
100
AcDbEntity
  8
0
  6
SLD-Solid
 62
     7
370
    15
100
AcDbLine
 10
-131.3964524429
 20
447.0104518582
 30
0.0
 11
-206.3964554231
 21
447.0104518582
 31
0.0
  0
LINE
  5
270
330
1F
100
AcDbEntity
  8
0
  6
SLD-Solid
 62
     7
370
    15
100
AcDbLine
 10
-206.3964554231
 20
447.0104518582
 30
0.0
 11
-206.3964554231
 21
445.0104552556
 31
0.0
  0
LINE
  5
271
330
1F
100
AcDbEntity
  8
0
  6
SLD-Solid
 62
     7
370
    15
100
AcDbLine
 10
-206.3964554231
 20
437.0104539443
 30
0.0
 11
-206.3964554231
 21
435.0104536165
 31
0.0
  0
LINE
  5
272
330
1F
100
AcDbEntity
  8
0
  6
SLD-Solid
 62
     7
370
    15
100
AcDbLine
 10
-206.3964554231
 20
435.0104536165
 30
0.0
 11
-131.3964524429
 21
435.0104536165
 31
0.0
  0
LINE
  5
273
330
1F
100
AcDbEntity
  8
0
  6
SLD-Solid
 62
     7
370
    15
100
AcDbLine
 10
-131.3964524429
 20
435.0104536165
 30
0.0
 11
-131.3964524429
 21
437.0104539443
 31
0.0
  0
LINE
  5
274
330
1F
100
AcDbEntity
  8
0
  6
SLD-Solid
 62
     7
370
    15
100
AcDbLine
 10
-131.3964524429
 20
437.0104539443
 30
0.0
 11
-206.3964554231
 21
437.0104539443
 31
0.0
  0
LINE
  5
275
330
1F
100
AcDbEntity
  8
0
  6
SLD-Solid
 62
     7
370
    15
100
AcDbLine
 10
-206.3964554231
 20
427.0104541678
 30
0.0
 11
-206.3964554231
 21
425.01045384
 31
0.0
  0
LINE
  5
276
330
1F
100
AcDbEntity
  8
0
  6
SLD-Solid
 62
     7
370
    15
100
AcDbLine
 10
-206.3964554231
 20
425.01045384
 30
0.0
 11
-131.3964524429
 21
425.01045384
 31
0.0
  0
LINE
  5
277
330
1F
100
AcDbEntity
  8
0
  6
SLD-Solid
 62
     7
370
    15
100
AcDbLine
 10
-131.3964524429
 20
425.01045384
 30
0.0
 11
-131.3964524429
 21
427.0104541678
 31
0.0
  0
LINE
  5
278
330
1F
100
AcDbEntity
  8
0
  6
SLD-Solid
 62
     7
370
    15
100
AcDbLine
 10
-131.3964524429
 20
427.0104541678
 30
0.0
 11
-206.3964554231
 21
427.0104541678
 31
0.0
  0
LINE
  5
279
330
1F
100
AcDbEntity
  8
0
  6
SLD-Solid
 62
     7
370
    15
100
AcDbLine
 10
-206.3964554231
 20
417.0104543914
 30
0.0
 11
-206.3964554231
 21
415.0104540635
 31
0.0
  0
LINE
  5
27A
330
1F
100
AcDbEntity
  8
0
  6
SLD-Solid
 62
     7
370
    15
100
AcDbLine
 10
-206.3964554231
 20
415.0104540635
 30
0.0
 11
-131.3964524429
 21
415.0104540635
 31
0.0
  0
LINE
  5
27B
330
1F
100
AcDbEntity
  8
0
  6
SLD-Solid
 62
     7
370
    15
100
AcDbLine
 10
-131.3964524429
 20
415.0104540635
 30
0.0
 11
-131.3964524429
 21
417.0104543914
 31
0.0
  0
LINE
  5
27C
330
1F
100
AcDbEntity
  8
0
  6
SLD-Solid
 62
     7
370
    15
100
AcDbLine
 10
-131.3964524429
 20
417.0104543914
 30
0.0
 11
-206.3964554231
 21
417.0104543914
 31
0.0
  0
LINE
  5
27D
330
1F
100
AcDbEntity
  8
0
  6
SLD-Solid
 62
     7
370
    15
100
AcDbLine
 10
-206.3964554231
 20
407.0104536836
 30
0.0
 11
-206.3964554231
 21
405.0104538214
 31
0.0
  0
LINE
  5
27E
330
1F
100
AcDbEntity
  8
0
  6
SLD-Solid
 62
     7
370
    15
100
AcDbLine
 10
-206.3964554231
 20
405.0104538214
 30
0.0
 11
-131.3964524429
 21
405.0104538214
 31
0.0
  0
LINE
  5
27F
330
1F
100
AcDbEntity
  8
0
  6
SLD-Solid
 62
     7
370
    15
100
AcDbLine
 10
-131.3964524429
 20
405.0104538214
 30
0.0
 11
-131.3964524429
 21
407.0104536836
 31
0.0
  0
LINE
  5
280
330
1F
100
AcDbEntity
  8
0
  6
SLD-Solid
 62
     7
370
    15
100
AcDbLine
 10
-131.3964524429
 20
407.0104536836
 30
0.0
 11
-206.3964554231
 21
407.0104536836
 31
0.0
  0
LINE
  5
281
330
1F
100
AcDbEntity
  8
0
  6
SLD-Solid
 62
     7
370
    15
100
AcDbLine
 10
-206.3964554231
 20
397.010453616
 30
0.0
 11
-206.3964554231
 21
395.0104535792
 31
0.0
  0
LINE
  5
282
330
1F
100
AcDbEntity
  8
0
  6
SLD-Solid
 62
     7
370
    15
100
AcDbLine
 10
-206.3964554231
 20
395.0104535792
 30
0.0
 11
-131.3964524429
 21
395.0104535792
 31
0.0
  0
LINE
  5
283
330
1F
100
AcDbEntity
  8
0
  6
SLD-Solid
 62
     7
370
    15
100
AcDbLine
 10
-131.3964524429
 20
395.0104535792
 30
0.0
 11
-131.3964524429
 21
397.010453616
 31
0.0
  0
LINE
  5
284
330
1F
100
AcDbEntity
  8
0
  6
SLD-Solid
 62
     7
370
    15
100
AcDbLine
 10
-131.3964524429
 20
397.010453616
 30
0.0
 11
-206.3964554231
 21
397.010453616
 31
0.0
  0
LINE
  5
285
330
1F
100
AcDbEntity
  8
0
  6
SLD-Solid
 62
     7
370
    15
100
AcDbLine
 10
-206.3964554231
 20
387.0104531993
 30
0.0
 11
-206.3964554231
 21
385.0104538028
 31
0.0
  0
LINE
  5
286
330
1F
100
AcDbEntity
  8
0
  6
SLD-Solid
 62
     7
370
    15
100
AcDbLine
 10
-206.3964554231
 20
385.0104538028
 30
0.0
 11
-131.3964524429
 21
385.0104538028
 31
0.0
  0
LINE
  5
287
330
1F
100
AcDbEntity
  8
0
  6
SLD-Solid
 62
     7
370
    15
100
AcDbLine
 10
-131.3964524429
 20
385.0104538028
 30
0.0
 11
-131.3964524429
 21
387.0104531993
 31
0.0
  0
LINE
  5
288
330
1F
100
AcDbEntity
  8
0
  6
SLD-Solid
 62
     7
370
    15
100
AcDbLine
 10
-131.3964524429
 20
387.0104531993
 30
0.0
 11
-206.3964554231
 21
387.0104531993
 31
0.0
  0
LINE
  5
289
330
1F
100
AcDbEntity
  8
0
  6
SLD-Solid
 62
     7
370
    15
100
AcDbLine
 10
-206.3964554231
 20
455.0104531695
 30
0.0
 11
-131.3964524429
 21
455.0104531695
 31
0.0
  0
LINE
  5
28A
330
1F
100
AcDbEntity
  8
0
  6
SLD-Solid
 62
     7
370
    15
100
AcDbLine
 10
-131.3964524429
 20
455.0104531695
 30
0.0
 11
-131.3964524429
 21
457.0104534973
 31
0.0
  0
LINE
  5
28B
330
1F
100
AcDbEntity
  8
0
  6
SLD-Solid
 62
     7
370
    15
100
AcDbLine
 10
-131.3964524429
 20
457.0104534973
 30
0.0
 11
-206.3964554231
 21
457.0104534973
 31
0.0
  0
LINE
  5
28C
330
1F
100
AcDbEntity
  8
0
  6
SLD-Solid
 62
     7
370
    15
100
AcDbLine
 10
-206.3964554231
 20
457.0104534973
 30
0.0
 11
-206.3964554231
 21
455.0104531695
 31
0.0
  0
LINE
  5
28D
330
1F
100
AcDbEntity
  8
0
  6
SLD-Solid
 62
     7
370
    15
100
AcDbLine
 10
-206.3964554231
 20
465.0104548086
 30
0.0
 11
-131.3964524429
 21
465.0104548086
 31
0.0
  0
LINE
  5
28E
330
1F
100
AcDbEntity
  8
0
  6
SLD-Solid
 62
     7
370
    15
100
AcDbLine
 10
-131.3964524429
 20
465.0104548086
 30
0.0
 11
-131.3964524429
 21
467.0104514111
 31
0.0
  0
LINE
  5
28F
330
1F
100
AcDbEntity
  8
0
  6
SLD-Solid
 62
     7
370
    15
100
AcDbLine
 10
-131.3964524429
 20
467.0104514111
 30
0.0
 11
-206.3964554231
 21
467.0104514111
 31
0.0
  0
LINE
  5
290
330
1F
100
AcDbEntity
  8
0
  6
SLD-Solid
 62
     7
370
    15
100
AcDbLine
 10
-206.3964554231
 20
467.0104514111
 30
0.0
 11
-206.3964554231
 21
465.0104548086
 31
0.0
  0
LINE
  5
291
330
1F
100
AcDbEntity
  8
0
  6
SLD-Solid
 62
     7
370
    15
100
AcDbLine
 10
-206.3964554231
 20
475.0104527224
 30
0.0
 11
-131.3964524429
 21
475.0104527224
 31
0.0
  0
LINE
  5
292
330
1F
100
AcDbEntity
  8
0
  6
SLD-Solid
 62
     7
370
    15
100
AcDbLine
 10
-131.3964524429
 20
475.0104527224
 30
0.0
 11
-131.3964524429
 21
477.0104567755
 31
0.0
  0
LINE
  5
293
330
1F
100
AcDbEntity
  8
0
  6
SLD-Solid
 62
     7
370
    15
100
AcDbLine
 10
-131.3964524429
 20
477.0104567755
 30
0.0
 11
-206.3964554231
 21
477.0104567755
 31
0.0
  0
LINE
  5
294
330
1F
100
AcDbEntity
  8
0
  6
SLD-Solid
 62
     7
370
    15
100
AcDbLine
 10
-206.3964554231
 20
477.0104567755
 30
0.0
 11
-206.3964554231
 21
475.0104527224
 31
0.0
  0
LINE
  5
295
330
1F
100
AcDbEntity
  8
0
  6
SLD-Solid
 62
     7
370
    15
100
AcDbLine
 10
-182.3964514892
 20
357.5104530205
 30
0.0
 11
-224.3964471977
 21
357.5104530205
 31
0.0
  0
LINE
  5
296
330
1F
100
AcDbEntity
  8
0
  6
SLD-Solid
 62
     7
370
    15
100
AcDbLine
 10
-224.3964471977
 20
357.5104530205
 30
0.0
 11
-224.3964471977
 21
360.247054999
 31
0.0
  0
LINE
  5
297
330
1F
100
AcDbEntity
  8
0
  6
SLD-Solid
 62
     7
370
    15
100
AcDbLine
 10
-182.3964514892
 20
357.5104530205
 30
0.0
 11
-182.3964514892
 21
360.247054999
 31
0.0
  0
LINE
  5
298
330
1F
100
AcDbEntity
  8
0
  6
SLD-Solid
 62
     7
370
    15
100
AcDbLine
 10
45.60354863
 20
357.5104530205
 30
0.0
 11
-162.3964482109
 21
357.5104530205
 31
0.0
  0
LINE
  5
299
330
1F
100
AcDbEntity
  8
0
  6
SLD-Solid
 62
     7
370
    15
100
AcDbLine
 10
45.60354863
 20
360.247054999
 30
0.0
 11
45.60354863
 21
357.5104530205
 31
0.0
  0
LINE
  5
29A
330
1F
100
AcDbEntity
  8
0
  6
SLD-Solid
 62
     7
370
    15
100
AcDbLine
 10
-162.3964482109
 20
360.247054999
 30
0.0
 11
-162.3964482109
 21
357.5104530205
 31
0.0
  0
LINE
  5
29B
330
1F
100
AcDbEntity
  8
0
  6
SLD-Solid
 62
     7
370
    15
100
AcDbLine
 10
-165.3964542906
 20
359.5104533483
 30
0.0
 11
-179.3964528601
 21
359.5104533483
 31
0.0
  0
LINE
  5
29C
330
1F
100
AcDbEntity
  8
0
  6
SLD-Solid
 62
     7
370
    15
100
AcDbLine
 10
-182.3964514892
 20
357.5104530205
 30
0.0
 11
-162.3964482109
 21
357.5104530205
 31
0.0
  0
LINE
  5
29D
330
1F
100
AcDbEntity
  8
0
  6
SLD-Solid
 62
     7
370
    15
100
AcDbLine
 10
-162.3964482109
 20
359.5104533483
 30
0.0
 11
-165.3964542906
 21
359.5104533483
 31
0.0
  0
LINE
  5
29E
330
1F
100
AcDbEntity
  8
0
  6
SLD-Solid
 62
     7
370
    15
100
AcDbLine
 10
-165.3964542906
 20
369.0930287589
 30
0.0
 11
-165.3964542906
 21
359.5104533483
 31
0.0
  0
LINE
  5
29F
330
1F
100
AcDbEntity
  8
0
  6
SLD-Solid
 62
     7
370
    15
100
AcDbLine
 10
-179.3964528601
 20
359.5104533483
 30
0.0
 11
-182.3964514892
 21
359.5104533483
 31
0.0
  0
LINE
  5
2A0
330
1F
100
AcDbEntity
  8
0
  6
SLD-Solid
 62
     7
370
    15
100
AcDbLine
 10
-179.3964528601
 20
369.0930287589
 30
0.0
 11
-179.3964528601
 21
359.5104533483
 31
0.0
  0
LINE
  5
2A1
330
1F
100
AcDbEntity
  8
0
  6
SLD-Solid
 62
     7
370
    15
100
AcDbLine
 10
-68.5649276833
 20
448.510454898
 30
0.0
 11
-68.8964510459
 21
448.510454898
 31
0.0
  0
LINE
  5
2A2
330
1F
100
AcDbEntity
  8
0
  6
SLD-Solid
 62
     7
370
    15
100
AcDbLine
 10
-103.8964507292
 20
448.510454898
 30
0.0
 11
-108.5649267893
 21
448.510454898
 31
0.0
  0
LINE
  5
2A3
330
1F
100
AcDbEntity
  8
0
  6
SLD-Solid
 62
     7
370
    15
100
AcDbLine
 10
-68.8964510459
 20
463.5104517688
 30
0.0
 11
-103.8964507292
 21
463.5104517688
 31
0.0
  0
CIRCLE
  5
2A4
330
1F
100
AcDbEntity
  8
0
  6
SLD-Solid
 62
     7
370
    15
100
AcDbCircle
 10
-94.3964510475
 20
457.5104536299
 30
0.0
 40
3.0
  0
CIRCLE
  5
2A5
330
1F
100
AcDbEntity
  8
0
  6
SLD-Solid
 62
     7
370
    15
100
AcDbCircle
 10
-86.3964510475
 20
457.5104536299
 30
0.0
 40
2.0
  0
CIRCLE
  5
2A6
330
1F
100
AcDbEntity
  8
0
  6
SLD-Solid
 62
     7
370
    15
100
AcDbCircle
 10
-78.3964510475
 20
457.5104536299
 30
0.0
 40
3.0
  0
LINE
  5
2A7
330
1F
100
AcDbEntity
  8
0
  6
SLD-Solid
 62
     7
370
    15
100
AcDbLine
 10
-68.8964510459
 20
448.510454898
 30
0.0
 11
-68.8964510459
 21
463.5104517688
 31
0.0
  0
LINE
  5
2A8
330
1F
100
AcDbEntity
  8
0
  6
SLD-Solid
 62
     7
370
    15
100
AcDbLine
 10
-103.8964507292
 20
463.5104517688
 30
0.0
 11
-103.8964507292
 21
448.510454898
 31
0.0
  0
LINE
  5
2A9
330
1F
100
AcDbEntity
  8
0
  6
SLD-Solid
 62
     7
370
    15
100
AcDbLine
 10
-103.8964507292
 20
448.510454898
 30
0.0
 11
-68.8964510459
 21
448.510454898
 31
0.0
  0
LINE
  5
2AA
330
1F
100
AcDbEntity
  8
0
  6
SLD-Solid
 62
     8
370
    15
100
AcDbLine
 10
-227.2550263564
 20
371.1675218542
 30
0.0
 11
-227.2550263564
 21
380.8533846636
 31
0.0
  0
LINE
  5
2AB
330
1F
100
AcDbEntity
  8
0
  6
SLD-Solid
 62
     8
370
    15
100
AcDbLine
 10
-229.9255975644
 20
377.9726605166
 30
0.0
 11
-229.7957190435
 21
377.9726605166
 31
0.0
  0
LINE
  5
2AC
330
1F
100
AcDbEntity
  8
0
  6
SLD-Solid
 62
     8
370
    15
100
AcDbLine
 10
-229.7957190435
 20
374.0482460011
 30
0.0
 11
-229.9255975644
 21
374.0482460011
 31
0.0
  0
LINE
  5
2AD
330
1F
100
AcDbEntity
  8
0
  6
SLD-Solid
 62
     8
370
    15
100
AcDbLine
 10
48.4621277888
 20
380.8533846636
 30
0.0
 11
48.4621277888
 21
371.1675218542
 31
0.0
  0
LINE
  5
2AE
330
1F
100
AcDbEntity
  8
0
  6
SLD-Solid
 62
     8
370
    15
100
AcDbLine
 10
51.0028055747
 20
377.9726605166
 30
0.0
 11
51.1326989968
 21
377.9726605166
 31
0.0
  0
LINE
  5
2AF
330
1F
100
AcDbEntity
  8
0
  6
SLD-Solid
 62
     8
370
    15
100
AcDbLine
 10
51.1326989968
 20
374.0482460011
 30
0.0
 11
51.0028055747
 21
374.0482460011
 31
0.0
  0
LINE
  5
2B0
330
1F
100
AcDbEntity
  8
0
  6
SLD-Solid
 62
     8
370
    15
100
AcDbLine
 10
-77.6882779441
 20
465.0104548086
 30
0.0
 11
-78.7570320658
 21
463.5104517688
 31
0.0
  0
ARC
  5
2B1
330
1F
100
AcDbEntity
  8
0
  6
SLD-Solid
 62
     8
370
    15
100
AcDbCircle
 10
-86.7573561765
 20
455.1897430838
 30
0.0
 40
36.32731300117797
100
AcDbArc
 50
88.9078292494
 51
108.9100262375
  0
LWPOLYLINE
  5
2B2
330
1F
100
AcDbEntity
  8
0
  6
SLD-Solid
 62
     8
370
    15
100
AcDbPolyline
 90
        7
 70
   128
 43
0.0
 10
-103.2254924189
 20
481.6834460248
 10
-102.009570704
 20
481.4586173047
 10
-100.9187498252
 20
481.2569226373
 10
-100.0339188735
 20
481.0933227886
 10
-99.3819651316
 20
480.9727723945
 10
-98.9826978307
 20
480.898952042
 10
-98.8482465159
 20
480.8740894545
  0
LINE
  5
2B3
330
1F
100
AcDbEntity
  8
0
  6
SLD-Solid
 62
     8
370
    15
100
AcDbLine
 10
-102.1584053646
 20
463.5104517688
 30
0.0
 11
-103.4358800511
 21
465.0104548086
 31
0.0
  0
LINE
  5
2B4
330
1F
100
AcDbEntity
  8
0
  6
SLD-Solid
 62
     8
370
    15
100
AcDbLine
 10
-176.0649257462
 20
457.0104534973
 30
0.0
 11
-176.0649257462
 21
455.0104531695
 31
0.0
  0
LINE
  5
2B5
330
1F
100
AcDbEntity
  8
0
  6
SLD-Solid
 62
     8
370
    15
100
AcDbLine
 10
-176.0649257462
 20
447.0104518582
 30
0.0
 11
-176.0649257462
 21
445.0104552556
 31
0.0
  0
LINE
  5
2B6
330
1F
100
AcDbEntity
  8
0
  6
SLD-Solid
 62
     8
370
    15
100
AcDbLine
 10
-176.0649257462
 20
437.0104539443
 30
0.0
 11
-176.0649257462
 21
435.0104536165
 31
0.0
  0
LINE
  5
2B7
330
1F
100
AcDbEntity
  8
0
  6
SLD-Solid
 62
     8
370
    15
100
AcDbLine
 10
-176.0649257462
 20
427.0104541678
 30
0.0
 11
-176.0649257462
 21
425.01045384
 31
0.0
  0
LINE
  5
2B8
330
1F
100
AcDbEntity
  8
0
  6
SLD-Solid
 62
     8
370
    15
100
AcDbLine
 10
-176.0649257462
 20
417.0104543914
 30
0.0
 11
-176.0649257462
 21
415.0104540635
 31
0.0
  0
LINE
  5
2B9
330
1F
100
AcDbEntity
  8
0
  6
SLD-Solid
 62
     8
370
    15
100
AcDbLine
 10
-176.0649257462
 20
407.0104536836
 30
0.0
 11
-176.0649257462
 21
405.5104534377
 31
0.0
  0
LWPOLYLINE
  5
2BA
330
1F
100
AcDbEntity
  8
0
  6
SLD-Solid
 62
     8
370
    15
100
AcDbPolyline
 90
        3
 70
   128
 43
0.0
 10
-169.2335554521
 20
477.0104567755
 10
-169.9141734402
 20
476.3596932639
 10
-171.1506345432
 20
475.0104527224
  0
LWPOLYLINE
  5
2BB
330
1F
100
AcDbEntity
  8
0
  6
SLD-Solid
 62
     8
370
    15
100
AcDbPolyline
 90
        3
 70
   128
 43
0.0
 10
-175.3318929236
 20
467.0104514111
 10
-175.5384155671
 20
466.1833922614
 10
-175.7712089579
 20
465.0104548086
  0
LINE
  5
2BC
330
1F
100
AcDbEntity
  8
0
  6
SLD-Solid
 62
     8
370
    15
100
AcDbLine
 10
-176.0649257462
 20
405.5104534377
 30
0.0
 11
-176.0589727323
 21
405.0104538214
 31
0.0
  0
LWPOLYLINE
  5
2BD
330
1F
100
AcDbEntity
  8
0
  6
SLD-Solid
 62
     8
370
    15
100
AcDbPolyline
 90
        3
 70
   128
 43
0.0
 10
-174.2677935521
 20
397.010453616
 10
-173.9852749865
 20
396.3988951177
 10
-173.2514598529
 20
395.0104535792
  0
ARC
  5
2BE
330
1F
100
AcDbEntity
  8
0
  6
SLD-Solid
 62
     8
370
    15
100
AcDbCircle
 10
-155.06492755
 20
405.5104536299
 30
0.0
 40
21.00000000000001
100
AcDbArc
 50
241.7574628156
 51
257.4720945602
  0
LINE
  5
2BF
330
1F
100
AcDbEntity
  8
0
  6
SLD-Solid
 62
     8
370
    15
100
AcDbLine
 10
-165.3964542906
 20
368.5104529609
 30
0.0
 11
-179.3964528601
 21
368.5104529609
 31
0.0
  0
LINE
  5
2C0
330
1F
100
AcDbEntity
  8
0
  6
SLD-Solid
 62
     7
370
    15
100
AcDbLine
 10
-205.3964533965
 20
-72.3414849838
 30
0.0
 11
-205.3964533965
 21
-74.3414853116
 31
0.0
  0
LINE
  5
2C1
330
1F
100
AcDbEntity
  8
0
  6
SLD-Solid
 62
     7
370
    15
100
AcDbLine
 10
-185.3964501183
 20
-74.3414853116
 30
0.0
 11
-185.3964501183
 21
-72.3414849838
 31
0.0
  0
LINE
  5
2C2
330
1F
100
AcDbEntity
  8
0
  6
SLD-Solid
 62
     7
370
    15
100
AcDbLine
 10
6.6035515506
 20
-72.3414849838
 30
0.0
 11
6.6035515506
 21
-74.3414853116
 31
0.0
  0
LINE
  5
2C3
330
1F
100
AcDbEntity
  8
0
  6
SLD-Solid
 62
     7
370
    15
100
AcDbLine
 10
26.6035473783
 20
-74.3414853116
 30
0.0
 11
26.6035473783
 21
-72.3414849838
 31
0.0
  0
ARC
  5
2C4
330
1F
100
AcDbEntity
  8
0
  6
SLD-Solid
 62
     7
370
    15
100
AcDbCircle
 10
-227.1464510474
 20
-97.459226647
 30
0.0
 40
0.2499999999999869
100
AcDbArc
 50
244.2586887966
 51
0.0
  0
ARC
  5
2C5
330
1F
100
AcDbEntity
  8
0
  6
SLD-Solid
 62
     7
370
    15
100
AcDbCircle
 10
-227.1464510474
 20
-88.2237451952
 30
0.0
 40
0.2500000000000284
100
AcDbArc
 50
0.0
 51
115.7413112034
  0
ARC
  5
2C6
330
1F
100
AcDbEntity
  8
0
  6
SLD-Solid
 62
     7
370
    15
100
AcDbCircle
 10
-224.9199804592
 20
-92.8414859211
 30
0.0
 40
5.376470588235287
100
AcDbArc
 50
201.4052363367
 51
244.2586887966
  0
ARC
  5
2C7
330
1F
100
AcDbEntity
  8
0
  6
SLD-Solid
 62
     7
370
    15
100
AcDbCircle
 10
-224.9199804592
 20
-92.8414859211
 30
0.0
 40
5.376470588235321
100
AcDbArc
 50
115.7413112034
 51
158.5947636633
  0
ARC
  5
2C8
330
1F
100
AcDbEntity
  8
0
  6
SLD-Solid
 62
     7
370
    15
100
AcDbCircle
 10
-229.9162851368
 20
-90.8829287625
 30
0.0
 40
0.0100000000000134
100
AcDbArc
 50
158.5947636633
 51
270.0
  0
ARC
  5
2C9
330
1F
100
AcDbEntity
  8
0
  6
SLD-Solid
 62
     7
370
    15
100
AcDbCircle
 10
-229.9162851368
 20
-94.8000430796
 30
0.0
 40
0.0100000000000051
100
AcDbArc
 50
90.0
 51
201.4052363368
  0
ARC
  5
2CA
330
1F
100
AcDbEntity
  8
0
  6
SLD-Solid
 62
     7
370
    15
100
AcDbCircle
 10
48.3535489525
 20
-88.2237451951
 30
0.0
 40
0.2500000000000284
100
AcDbArc
 50
64.2586887966
 51
180.0
  0
ARC
  5
2CB
330
1F
100
AcDbEntity
  8
0
  6
SLD-Solid
 62
     7
370
    15
100
AcDbCircle
 10
48.3535489525
 20
-97.459226647
 30
0.0
 40
0.2500000000000284
100
AcDbArc
 50
180.0
 51
295.7413112034
  0
ARC
  5
2CC
330
1F
100
AcDbEntity
  8
0
  6
SLD-Solid
 62
     7
370
    15
100
AcDbCircle
 10
46.1270783643
 20
-92.8414859211
 30
0.0
 40
5.3764705882353
100
AcDbArc
 50
21.4052363367
 51
64.2586887966
  0
ARC
  5
2CD
330
1F
100
AcDbEntity
  8
0
  6
SLD-Solid
 62
     7
370
    15
100
AcDbCircle
 10
46.1270783643
 20
-92.8414859211
 30
0.0
 40
5.376470588235309
100
AcDbArc
 50
295.7413112034
 51
338.5947636633
  0
ARC
  5
2CE
330
1F
100
AcDbEntity
  8
0
  6
SLD-Solid
 62
     7
370
    15
100
AcDbCircle
 10
51.1233830419
 20
-90.8829287625
 30
0.0
 40
0.0100000000000193
100
AcDbArc
 50
270.0
 51
21.4052363367
  0
ARC
  5
2CF
330
1F
100
AcDbEntity
  8
0
  6
SLD-Solid
 62
     7
370
    15
100
AcDbCircle
 10
51.1233830419
 20
-94.8000430796
 30
0.0
 40
0.0100000000000051
100
AcDbArc
 50
338.5947636634
 51
90.0
  0
LINE
  5
2D0
330
1F
100
AcDbEntity
  8
0
  6
SLD-Solid
 62
     7
370
    15
100
AcDbLine
 10
45.60354863
 20
-98.8414865335
 30
0.0
 11
46.9035482843
 21
-98.8414865335
 31
0.0
  0
LINE
  5
2D1
330
1F
100
AcDbEntity
  8
0
  6
SLD-Solid
 62
     7
370
    15
100
AcDbLine
 10
46.9035482843
 20
-86.8414864292
 30
0.0
 11
45.60354863
 21
-86.8414864292
 31
0.0
  0
LINE
  5
2D2
330
1F
100
AcDbEntity
  8
0
  6
SLD-Solid
 62
     7
370
    15
100
AcDbLine
 10
-224.3964471977
 20
-86.8414864292
 30
0.0
 11
-225.6964543025
 21
-86.8414864292
 31
0.0
  0
LINE
  5
2D3
330
1F
100
AcDbEntity
  8
0
  6
SLD-Solid
 62
     7
370
    15
100
AcDbLine
 10
-225.6964543025
 20
-98.8414865335
 30
0.0
 11
-224.3964471977
 21
-98.8414865335
 31
0.0
  0
LINE
  5
2D4
330
1F
100
AcDbEntity
  8
0
  6
SLD-Solid
 62
     7
370
    15
100
AcDbLine
 10
-185.3964501183
 20
-72.3414849838
 30
0.0
 11
-205.3964533965
 21
-72.3414849838
 31
0.0
  0
LINE
  5
2D5
330
1F
100
AcDbEntity
  8
0
  6
SLD-Solid
 62
     7
370
    15
100
AcDbLine
 10
26.6035473783
 20
-72.3414849838
 30
0.0
 11
6.6035515506
 21
-72.3414849838
 31
0.0
  0
ARC
  5
2D6
330
1F
100
AcDbEntity
  8
0
  6
SLD-Solid
 62
     7
370
    15
100
AcDbCircle
 10
-226.1523531128
 20
-93.8225891789
 30
0.0
 40
3.773152479756023
100
AcDbArc
 50
164.9286171199
 51
195.0713828801
  0
ARC
  5
2D7
330
1F
100
AcDbEntity
  8
0
  6
SLD-Solid
 62
     7
370
    15
100
AcDbCircle
 10
-226.1523531128
 20
-91.8603819212
 30
0.0
 40
3.773152479756023
100
AcDbArc
 50
164.9286171199
 51
195.0713828801
  0
ARC
  5
2D8
330
1F
100
AcDbEntity
  8
0
  6
SLD-Solid
 62
     7
370
    15
100
AcDbCircle
 10
-226.1503917655
 20
-91.8672075843
 30
0.0
 40
3.765807293789322
100
AcDbArc
 50
165.006059218
 51
194.993940782
  0
LWPOLYLINE
  5
2D9
330
1F
100
AcDbEntity
  8
0
  6
SLD-Solid
 62
     7
370
    15
100
AcDbPolyline
 90
        7
 70
   128
 43
0.0
 10
-229.7959127586
 20
-90.8882841816
 10
-229.7965386073
 20
-90.887090226
 10
-229.7970005433
 20
-90.8841435214
 10
-229.7963746946
 20
-90.8807479193
 10
-229.7959723632
 20
-90.8798072835
 10
-229.7957190435
 20
-90.8792782923
 10
-229.7957190435
 20
-90.8792782923
  0
ARC
  5
2DA
330
1F
100
AcDbEntity
  8
0
  6
SLD-Solid
 62
     7
370
    15
100
AcDbCircle
 10
-226.1503799484
 20
-93.8157644471
 30
0.0
 40
3.765818949452278
100
AcDbArc
 50
165.0060920461
 51
194.9939079539
  0
LWPOLYLINE
  5
2DB
330
1F
100
AcDbEntity
  8
0
  6
SLD-Solid
 62
     7
370
    15
100
AcDbPolyline
 90
        6
 70
   128
 43
0.0
 10
-229.7969409387
 20
-94.7984625002
 10
-229.7970005433
 20
-94.7988275787
 10
-229.7963746946
 20
-94.8022231808
 10
-229.7959723632
 20
-94.8031638166
 10
-229.7957190435
 20
-94.8036928078
 10
-229.7957190435
 20
-94.8036928078
  0
LINE
  5
2DC
330
1F
100
AcDbEntity
  8
0
  6
SLD-Solid
 62
     7
370
    15
100
AcDbLine
 10
-229.9162843387
 20
-94.7900433441
 30
0.0
 11
-229.7879853408
 21
-94.7900433441
 31
0.0
  0
ARC
  5
2DD
330
1F
100
AcDbEntity
  8
0
  6
SLD-Solid
 62
     7
370
    15
100
AcDbCircle
 10
47.3595838289
 20
-93.8225891789
 30
0.0
 40
3.773013254601149
100
AcDbArc
 50
344.9280477891
 51
15.0719522109
  0
ARC
  5
2DE
330
1F
100
AcDbEntity
  8
0
  6
SLD-Solid
 62
     7
370
    15
100
AcDbCircle
 10
47.3595838289
 20
-91.8603819212
 30
0.0
 40
3.773013254601149
100
AcDbArc
 50
344.9280477891
 51
15.0719522109
  0
ARC
  5
2DF
330
1F
100
AcDbEntity
  8
0
  6
SLD-Solid
 62
     7
370
    15
100
AcDbCircle
 10
50.9948386988
 20
-90.8839237907
 30
0.0
 40
0.0092223514982058
100
AcDbArc
 50
356.3527164782
 51
30.2465315882
  0
ARC
  5
2E0
330
1F
100
AcDbEntity
  8
0
  6
SLD-Solid
 62
     7
370
    15
100
AcDbCircle
 10
47.3571071549
 20
-91.8672075843
 30
0.0
 40
3.766180194487563
100
AcDbArc
 50
345.0075786523
 51
14.9924213478
  0
ARC
  5
2E1
330
1F
100
AcDbEntity
  8
0
  6
SLD-Solid
 62
     7
370
    15
100
AcDbCircle
 10
47.3570953364
 20
-93.8157644471
 30
0.0
 40
3.766191851624434
100
AcDbArc
 50
345.0076114781
 51
14.9923885219
  0
ARC
  5
2E2
330
1F
100
AcDbEntity
  8
0
  6
SLD-Solid
 62
     7
370
    15
100
AcDbCircle
 10
50.9952237779
 20
-94.7990297908
 30
0.0
 40
0.0089009757693455
100
AcDbArc
 50
328.4073223402
 51
27.920044726
  0
LINE
  5
2E3
330
1F
100
AcDbEntity
  8
0
  6
SLD-Solid
 62
     7
370
    15
100
AcDbLine
 10
51.123385771
 20
-90.8929296186
 30
0.0
 11
50.9950867732
 21
-90.8929296186
 31
0.0
  0
LINE
  5
2E4
330
1F
100
AcDbEntity
  8
0
  6
SLD-Solid
 62
     7
370
    15
100
AcDbLine
 10
50.9950867732
 20
-94.7900433441
 30
0.0
 11
51.123385771
 21
-94.7900433441
 31
0.0
  0
LINE
  5
2E5
330
1F
100
AcDbEntity
  8
0
  6
SLD-Solid
 62
     7
370
    15
100
AcDbLine
 10
-97.3528013687
 20
-219.3415854474
 30
0.0
 11
-97.3528013687
 21
-219.3414885899
 31
0.0
  0
LINE
  5
2E6
330
1F
100
AcDbEntity
  8
0
  6
SLD-Solid
 62
     7
370
    15
100
AcDbLine
 10
-96.8948700588
 20
-219.3415854474
 30
0.0
 11
-97.3528013687
 21
-219.3415854474
 31
0.0
  0
LINE
  5
2E7
330
1F
100
AcDbEntity
  8
0
  6
SLD-Solid
 62
     7
370
    15
100
AcDbLine
 10
-97.3653015803
 20
-219.3415854474
 30
0.0
 11
-97.3653015803
 21
-219.3414885899
 31
0.0
  0
LINE
  5
2E8
330
1F
100
AcDbEntity
  8
0
  6
SLD-Solid
 62
     7
370
    15
100
AcDbLine
 10
-97.3528013687
 20
-219.3415854474
 30
0.0
 11
-97.3653015803
 21
-219.3415854474
 31
0.0
  0
LINE
  5
2E9
330
1F
100
AcDbEntity
  8
0
  6
SLD-Solid
 62
     7
370
    15
100
AcDbLine
 10
-81.4023008692
 20
-219.3415854474
 30
0.0
 11
-81.4023008692
 21
-219.3414885899
 31
0.0
  0
LINE
  5
2EA
330
1F
100
AcDbEntity
  8
0
  6
SLD-Solid
 62
     7
370
    15
100
AcDbLine
 10
-81.3479009207
 20
-219.3415854474
 30
0.0
 11
-81.3479009207
 21
-219.3414885899
 31
0.0
  0
LINE
  5
2EB
330
1F
100
AcDbEntity
  8
0
  6
SLD-Solid
 62
     7
370
    15
100
AcDbLine
 10
-81.771551178
 20
-219.3424869677
 30
0.0
 11
-81.771551178
 21
-219.3414885899
 31
0.0
  0
LINE
  5
2EC
330
1F
100
AcDbEntity
  8
0
  6
SLD-Solid
 62
     7
370
    15
100
AcDbLine
 10
-89.2596510361
 20
-219.3424869677
 30
0.0
 11
-89.2596510361
 21
-219.3414885899
 31
0.0
  0
LINE
  5
2ED
330
1F
100
AcDbEntity
  8
0
  6
SLD-Solid
 62
     7
370
    15
100
AcDbLine
 10
-96.7716504942
 20
-219.3424869677
 30
0.0
 11
-96.7716504942
 21
-219.3414885899
 31
0.0
  0
LINE
  5
2EE
330
1F
100
AcDbEntity
  8
0
  6
SLD-Solid
 62
     7
370
    15
100
AcDbLine
 10
-226.8964448135
 20
-74.3414853116
 30
0.0
 11
-225.6964543025
 21
-74.3414853116
 31
0.0
  0
LINE
  5
2EF
330
1F
100
AcDbEntity
  8
0
  6
SLD-Solid
 62
     7
370
    15
100
AcDbLine
 10
-225.6964543025
 20
-76.8414866527
 30
0.0
 11
-226.8964448135
 21
-76.8414866527
 31
0.0
  0
LINE
  5
2F0
330
1F
100
AcDbEntity
  8
0
  6
SLD-Solid
 62
     7
370
    15
100
AcDbLine
 10
-225.6964543025
 20
-74.3414853116
 30
0.0
 11
-225.6964543025
 21
-76.8414866527
 31
0.0
  0
LINE
  5
2F1
330
1F
100
AcDbEntity
  8
0
  6
SLD-Solid
 62
     7
370
    15
100
AcDbLine
 10
-226.8964448135
 20
-76.8414866527
 30
0.0
 11
-226.8964448135
 21
-74.3414853116
 31
0.0
  0
LINE
  5
2F2
330
1F
100
AcDbEntity
  8
0
  6
SLD-Solid
 62
     7
370
    15
100
AcDbLine
 10
46.9035482843
 20
-203.1414825817
 30
0.0
 11
48.1035462458
 21
-203.1414825817
 31
0.0
  0
LINE
  5
2F3
330
1F
100
AcDbEntity
  8
0
  6
SLD-Solid
 62
     7
370
    15
100
AcDbLine
 10
48.1035462458
 20
-76.8414866527
 30
0.0
 11
46.9035482843
 21
-76.8414866527
 31
0.0
  0
LINE
  5
2F4
330
1F
100
AcDbEntity
  8
0
  6
SLD-Solid
 62
     7
370
    15
100
AcDbLine
 10
48.1035462458
 20
-203.1414825817
 30
0.0
 11
48.1035462458
 21
-76.8414866527
 31
0.0
  0
LINE
  5
2F5
330
1F
100
AcDbEntity
  8
0
  6
SLD-Solid
 62
     7
370
    15
100
AcDbLine
 10
46.9035482843
 20
-203.1414825817
 30
0.0
 11
46.9035482843
 21
-76.8414866527
 31
0.0
  0
LINE
  5
2F6
330
1F
100
AcDbEntity
  8
0
  6
SLD-Solid
 62
     7
370
    15
100
AcDbLine
 10
-225.6964543025
 20
-203.1414825817
 30
0.0
 11
-226.8964448135
 21
-203.1414825817
 31
0.0
  0
LINE
  5
2F7
330
1F
100
AcDbEntity
  8
0
  6
SLD-Solid
 62
     7
370
    15
100
AcDbLine
 10
-225.6964543025
 20
-76.8414866527
 30
0.0
 11
-225.6964543025
 21
-203.1414825817
 31
0.0
  0
LINE
  5
2F8
330
1F
100
AcDbEntity
  8
0
  6
SLD-Solid
 62
     7
370
    15
100
AcDbLine
 10
-226.8964448135
 20
-76.8414866527
 30
0.0
 11
-226.8964448135
 21
-203.1414825817
 31
0.0
  0
LINE
  5
2F9
330
1F
100
AcDbEntity
  8
0
  6
SLD-Solid
 62
     7
370
    15
100
AcDbLine
 10
46.9035482843
 20
-74.3414853116
 30
0.0
 11
48.1035462458
 21
-74.3414853116
 31
0.0
  0
LINE
  5
2FA
330
1F
100
AcDbEntity
  8
0
  6
SLD-Solid
 62
     7
370
    15
100
AcDbLine
 10
48.1035462458
 20
-74.3414853116
 30
0.0
 11
48.1035462458
 21
-76.8414866527
 31
0.0
  0
LINE
  5
2FB
330
1F
100
AcDbEntity
  8
0
  6
SLD-Solid
 62
     7
370
    15
100
AcDbLine
 10
46.9035482843
 20
-76.8414866527
 30
0.0
 11
46.9035482843
 21
-74.3414853116
 31
0.0
  0
ARC
  5
2FC
330
1F
100
AcDbEntity
  8
0
  6
SLD-Solid
 62
     7
370
    15
100
AcDbCircle
 10
31.9035489526
 20
-203.1414859211
 30
0.0
 40
16.19999999999999
100
AcDbArc
 50
270.0
 51
0.0
  0
LINE
  5
2FD
330
1F
100
AcDbEntity
  8
0
  6
SLD-Solid
 62
     7
370
    15
100
AcDbLine
 10
31.9035476883
 20
-218.1414831778
 30
0.0
 11
31.9035476883
 21
-219.3414885899
 31
0.0
  0
ARC
  5
2FE
330
1F
100
AcDbEntity
  8
0
  6
SLD-Solid
 62
     7
370
    15
100
AcDbCircle
 10
31.9035489526
 20
-203.1414859211
 30
0.0
 40
14.99999999999999
100
AcDbArc
 50
270.0
 51
0.0
  0
LINE
  5
2FF
330
1F
100
AcDbEntity
  8
0
  6
SLD-Solid
 62
     7
370
    15
100
AcDbLine
 10
-210.6964537065
 20
-218.1414831778
 30
0.0
 11
-210.6964537065
 21
-219.3414885899
 31
0.0
  0
ARC
  5
300
330
1F
100
AcDbEntity
  8
0
  6
SLD-Solid
 62
     7
370
    15
100
AcDbCircle
 10
-210.6964510474
 20
-203.1414859211
 30
0.0
 40
15.0
100
AcDbArc
 50
180.0
 51
270.0
  0
ARC
  5
301
330
1F
100
AcDbEntity
  8
0
  6
SLD-Solid
 62
     7
370
    15
100
AcDbCircle
 10
-210.6964510474
 20
-203.1414859211
 30
0.0
 40
16.20000000000005
100
AcDbArc
 50
180.0
 51
270.0
  0
LINE
  5
302
330
1F
100
AcDbEntity
  8
0
  6
SLD-Solid
 62
     7
370
    15
100
AcDbLine
 10
31.9035476883
 20
-219.3414885899
 30
0.0
 11
-210.6964537065
 21
-219.3414885899
 31
0.0
  0
LINE
  5
303
330
1F
100
AcDbEntity
  8
0
  6
SLD-Solid
 62
     7
370
    15
100
AcDbLine
 10
31.9035476883
 20
-218.1414831778
 30
0.0
 11
-210.6964537065
 21
-218.1414831778
 31
0.0
  0
ARC
  5
304
330
1F
100
AcDbEntity
  8
0
  6
SLD-Solid
 62
     7
370
    15
100
AcDbCircle
 10
-209.3964510474
 20
-201.3414859211
 30
0.0
 40
15.00000000000003
100
AcDbArc
 50
180.0
 51
270.0
  0
LINE
  5
305
330
1F
100
AcDbEntity
  8
0
  6
SLD-Solid
 62
     7
370
    15
100
AcDbLine
 10
-224.3964471977
 20
-201.3414893647
 30
0.0
 11
-224.3964471977
 21
-77.0780872902
 31
0.0
  0
LINE
  5
306
330
1F
100
AcDbEntity
  8
0
  6
SLD-Solid
 62
     7
370
    15
100
AcDbLine
 10
45.60354863
 20
-77.0780872902
 30
0.0
 11
-224.3964471977
 21
-77.0780872902
 31
0.0
  0
LINE
  5
307
330
1F
100
AcDbEntity
  8
0
  6
SLD-Solid
 62
     7
370
    15
100
AcDbLine
 10
45.60354863
 20
-77.0780872902
 30
0.0
 11
45.60354863
 21
-201.3414893647
 31
0.0
  0
ARC
  5
308
330
1F
100
AcDbEntity
  8
0
  6
SLD-Solid
 62
     7
370
    15
100
AcDbCircle
 10
30.6035489526
 20
-201.3414859211
 30
0.0
 40
15.00000000000003
100
AcDbArc
 50
270.0
 51
0.0
  0
LINE
  5
309
330
1F
100
AcDbEntity
  8
0
  6
SLD-Solid
 62
     7
370
    15
100
AcDbLine
 10
30.603548034
 20
-216.3414825102
 30
0.0
 11
-209.3964466016
 21
-216.3414825102
 31
0.0
  0
LINE
  5
30A
330
1F
100
AcDbEntity
  8
0
  6
SLD-Solid
 62
     7
370
    15
100
AcDbLine
 10
45.60354863
 20
-74.3414853116
 30
0.0
 11
45.60354863
 21
-77.0780872902
 31
0.0
  0
LINE
  5
30B
330
1F
100
AcDbEntity
  8
0
  6
SLD-Solid
 62
     7
370
    15
100
AcDbLine
 10
-224.3964471977
 20
-77.0780872902
 30
0.0
 11
-224.3964471977
 21
-74.3414853116
 31
0.0
  0
LINE
  5
30C
330
1F
100
AcDbEntity
  8
0
  6
SLD-Solid
 62
     7
370
    15
100
AcDbLine
 10
-224.3964471977
 20
-74.3414853116
 30
0.0
 11
45.60354863
 21
-74.3414853116
 31
0.0
  0
LINE
  5
30D
330
1F
100
AcDbEntity
  8
0
  6
SLD-Solid
 62
     8
370
    15
100
AcDbLine
 10
-227.2550263564
 20
-97.6844169547
 30
0.0
 11
-227.2550263564
 21
-87.9985541453
 31
0.0
  0
LINE
  5
30E
330
1F
100
AcDbEntity
  8
0
  6
SLD-Solid
 62
     8
370
    15
100
AcDbLine
 10
-229.7957190435
 20
-94.8036928078
 30
0.0
 11
-229.9255975644
 21
-94.8036928078
 31
0.0
  0
LINE
  5
30F
330
1F
100
AcDbEntity
  8
0
  6
SLD-Solid
 62
     8
370
    15
100
AcDbLine
 10
-229.9255975644
 20
-90.8792782923
 30
0.0
 11
-229.7957190435
 21
-90.8792782923
 31
0.0
  0
LINE
  5
310
330
1F
100
AcDbEntity
  8
0
  6
SLD-Solid
 62
     8
370
    15
100
AcDbLine
 10
48.4621277888
 20
-87.9985541453
 30
0.0
 11
48.4621277888
 21
-97.6844169547
 31
0.0
  0
LINE
  5
311
330
1F
100
AcDbEntity
  8
0
  6
SLD-Solid
 62
     8
370
    15
100
AcDbLine
 10
51.1326989968
 20
-94.8036928078
 30
0.0
 11
51.0028055747
 21
-94.8036928078
 31
0.0
  0
LINE
  5
312
330
1F
100
AcDbEntity
  8
0
  6
SLD-Solid
 62
     8
370
    15
100
AcDbLine
 10
51.0028055747
 20
-90.8792782923
 30
0.0
 11
51.1326989968
 21
-90.8792782923
 31
0.0
  0
ARC
  5
313
330
1F
100
AcDbEntity
  8
0
  6
SLD-Solid
 62
     7
370
    15
100
AcDbCircle
 10
788.4853588299
 20
144.1801139163
 30
0.0
 40
0.25
100
AcDbArc
 50
64.2586887967
 51
180.0
  0
ARC
  5
314
330
1F
100
AcDbEntity
  8
0
  6
SLD-Solid
 62
     7
370
    15
100
AcDbCircle
 10
788.4853588299
 20
134.9446324644
 30
0.0
 40
0.25
100
AcDbArc
 50
180.0
 51
295.7413112033
  0
ARC
  5
315
330
1F
100
AcDbEntity
  8
0
  6
SLD-Solid
 62
     7
370
    15
100
AcDbCircle
 10
786.2588882417
 20
139.5623731904
 30
0.0
 40
5.376470588235263
100
AcDbArc
 50
295.7413112034
 51
335.0756238657
  0
ARC
  5
316
330
1F
100
AcDbEntity
  8
0
  6
SLD-Solid
 62
     7
370
    15
100
AcDbCircle
 10
786.2588882417
 20
139.5623731904
 30
0.0
 40
5.376470588235284
100
AcDbArc
 50
24.9243761343
 51
64.2586887966
  0
ARC
  5
317
330
1F
100
AcDbEntity
  8
0
  6
SLD-Solid
 62
     7
370
    15
100
AcDbCircle
 10
786.2588882417
 20
139.5623731904
 30
0.0
 40
5.006304677581625
100
AcDbArc
 50
346.904585639
 51
0.0
  0
ARC
  5
318
330
1F
100
AcDbEntity
  8
0
  6
SLD-Solid
 62
     7
370
    15
100
AcDbCircle
 10
786.2588882417
 20
139.5623731904
 30
0.0
 40
5.006304677581641
100
AcDbArc
 50
0.0
 51
13.1023227177
  0
ARC
  5
319
330
1F
100
AcDbEntity
  8
0
  6
SLD-Solid
 62
     7
370
    15
100
AcDbCircle
 10
512.9853588299
 20
134.9446324644
 30
0.0
 40
0.2500000000000619
100
AcDbArc
 50
244.2586887966
 51
0.0
  0
ARC
  5
31A
330
1F
100
AcDbEntity
  8
0
  6
SLD-Solid
 62
     7
370
    15
100
AcDbCircle
 10
512.9853588299
 20
144.1801139163
 30
0.0
 40
0.2500000000000619
100
AcDbArc
 50
0.0
 51
115.7413112034
  0
ARC
  5
31B
330
1F
100
AcDbEntity
  8
0
  6
SLD-Solid
 62
     7
370
    15
100
AcDbCircle
 10
515.2118294181
 20
139.5623731904
 30
0.0
 40
5.376470588235361
100
AcDbArc
 50
115.7413112034
 51
155.0756238657
  0
ARC
  5
31C
330
1F
100
AcDbEntity
  8
0
  6
SLD-Solid
 62
     7
370
    15
100
AcDbCircle
 10
515.2118294181
 20
139.5623731904
 30
0.0
 40
5.376470588235361
100
AcDbArc
 50
204.9243761343
 51
244.2586887966
  0
ARC
  5
31D
330
1F
100
AcDbEntity
  8
0
  6
SLD-Solid
 62
     7
370
    15
100
AcDbCircle
 10
515.2118294181
 20
139.5623731904
 30
0.0
 40
5.006304677581717
100
AcDbArc
 50
166.904585639
 51
180.0
  0
ARC
  5
31E
330
1F
100
AcDbEntity
  8
0
  6
SLD-Solid
 62
     7
370
    15
100
AcDbCircle
 10
515.2118294181
 20
139.5623731904
 30
0.0
 40
5.006304677581682
100
AcDbArc
 50
180.0
 51
193.1023227177
  0
LINE
  5
31F
330
1F
100
AcDbEntity
  8
0
  6
SLD-Solid
 62
     7
370
    15
100
AcDbLine
 10
526.7353590928
 20
145.5623731991
 30
0.0
 11
514.4353594981
 21
145.5623731991
 31
0.0
  0
LINE
  5
320
330
1F
100
AcDbEntity
  8
0
  6
SLD-Solid
 62
     7
370
    15
100
AcDbLine
 10
514.4353594981
 20
133.562372862
 30
0.0
 11
526.7353590928
 21
133.562372862
 31
0.0
  0
LINE
  5
321
330
1F
100
AcDbEntity
  8
0
  6
SLD-Solid
 62
     7
370
    15
100
AcDbLine
 10
774.7353624903
 20
133.562372862
 30
0.0
 11
787.035362085
 21
133.562372862
 31
0.0
  0
LINE
  5
322
330
1F
100
AcDbEntity
  8
0
  6
SLD-Solid
 62
     7
370
    15
100
AcDbLine
 10
787.035362085
 20
145.5623731991
 30
0.0
 11
774.7353624903
 21
145.5623731991
 31
0.0
  0
CIRCLE
  5
323
330
1F
100
AcDbEntity
  8
0
  6
SLD-Solid
 62
     7
370
    15
100
AcDbCircle
 10
756.7353588299
 20
203.5623731904
 30
0.0
 40
5.0
  0
CIRCLE
  5
324
330
1F
100
AcDbEntity
  8
0
  6
SLD-Solid
 62
     7
370
    15
100
AcDbCircle
 10
756.7353588299
 20
203.5623731904
 30
0.0
 40
10.0
  0
CIRCLE
  5
325
330
1F
100
AcDbEntity
  8
0
  6
SLD-Solid
 62
     7
370
    15
100
AcDbCircle
 10
544.7353588299
 20
203.5623731904
 30
0.0
 40
5.0
  0
CIRCLE
  5
326
330
1F
100
AcDbEntity
  8
0
  6
SLD-Solid
 62
     7
370
    15
100
AcDbCircle
 10
544.7353588299
 20
203.5623731904
 30
0.0
 40
10.0
  0
CIRCLE
  5
327
330
1F
100
AcDbEntity
  8
0
  6
SLD-Solid
 62
     7
370
    15
100
AcDbCircle
 10
544.7353588299
 20
73.5623731904
 30
0.0
 40
5.0
  0
CIRCLE
  5
328
330
1F
100
AcDbEntity
  8
0
  6
SLD-Solid
 62
     7
370
    15
100
AcDbCircle
 10
544.7353588299
 20
73.5623731904
 30
0.0
 40
10.0
  0
CIRCLE
  5
329
330
1F
100
AcDbEntity
  8
0
  6
SLD-Solid
 62
     7
370
    15
100
AcDbCircle
 10
756.7353588299
 20
73.5623731904
 30
0.0
 40
5.0
  0
CIRCLE
  5
32A
330
1F
100
AcDbEntity
  8
0
  6
SLD-Solid
 62
     7
370
    15
100
AcDbCircle
 10
756.7353588299
 20
73.5623731904
 30
0.0
 40
10.0
  0
ARC
  5
32B
330
1F
100
AcDbEntity
  8
0
  6
SLD-Solid
 62
     7
370
    15
100
AcDbCircle
 10
789.956225919
 20
141.2616941189
 30
0.0
 40
1.30747215114518
100
AcDbArc
 50
334.3270743671
 51
25.6729256329
  0
ARC
  5
32C
330
1F
100
AcDbEntity
  8
0
  6
SLD-Solid
 62
     7
370
    15
100
AcDbCircle
 10
786.2588882417
 20
139.5623731904
 30
0.0
 40
5.005614902235665
100
AcDbArc
 50
346.9193732411
 51
13.0806267589
  0
ARC
  5
32D
330
1F
100
AcDbEntity
  8
0
  6
SLD-Solid
 62
     7
370
    15
100
AcDbCircle
 10
789.9562276158
 20
137.8630524078
 30
0.0
 40
1.307470520960881
100
AcDbArc
 50
334.3270513487
 51
25.6729486513
  0
ARC
  5
32E
330
1F
100
AcDbEntity
  8
0
  6
SLD-Solid
 62
     7
370
    15
100
AcDbCircle
 10
789.9499754856
 20
137.8748732196
 30
0.0
 40
1.304431527713624
100
AcDbArc
 50
334.4548326636
 51
25.5451673364
  0
ARC
  5
32F
330
1F
100
AcDbEntity
  8
0
  6
SLD-Solid
 62
     7
370
    15
100
AcDbCircle
 10
789.9499767342
 20
141.2498733071
 30
0.0
 40
1.304430300808768
100
AcDbArc
 50
334.4548182418
 51
25.5451817582
  0
ARC
  5
330
330
1F
100
AcDbEntity
  8
0
  6
SLD-Solid
 62
     7
370
    15
100
AcDbCircle
 10
511.5144517006
 20
137.8630524078
 30
0.0
 40
1.307425711865144
100
AcDbArc
 50
154.3261074288
 51
205.6738925712
  0
ARC
  5
331
330
1F
100
AcDbEntity
  8
0
  6
SLD-Solid
 62
     7
370
    15
100
AcDbCircle
 10
515.2118294181
 20
139.5623731904
 30
0.0
 40
5.005614902235665
100
AcDbArc
 50
166.9193732411
 51
193.0806267589
  0
ARC
  5
332
330
1F
100
AcDbEntity
  8
0
  6
SLD-Solid
 62
     7
370
    15
100
AcDbCircle
 10
511.5144533974
 20
141.2616941189
 30
0.0
 40
1.30742734200585
100
AcDbArc
 50
154.3261304485
 51
205.6738695515
  0
ARC
  5
333
330
1F
100
AcDbEntity
  8
0
  6
SLD-Solid
 62
     7
370
    15
100
AcDbCircle
 10
511.5208706397
 20
137.8748732196
 30
0.0
 40
1.304550618842675
100
AcDbArc
 50
154.4573325093
 51
205.5426674907
  0
ARC
  5
334
330
1F
100
AcDbEntity
  8
0
  6
SLD-Solid
 62
     7
370
    15
100
AcDbCircle
 10
511.520869391
 20
141.2498733071
 30
0.0
 40
1.304549391796353
100
AcDbArc
 50
154.4573180885
 51
205.5426819115
  0
LINE
  5
335
330
1F
100
AcDbEntity
  8
0
  6
SLD-Solid
 62
     7
370
    15
100
AcDbLine
 10
513.2353615366
 20
55.312370746
 30
0.0
 11
514.4353594981
 21
55.312370746
 31
0.0
  0
LINE
  5
336
330
1F
100
AcDbEntity
  8
0
  6
SLD-Solid
 62
     7
370
    15
100
AcDbLine
 10
514.4353594981
 20
55.312370746
 30
0.0
 11
514.4353594981
 21
52.8123731302
 31
0.0
  0
LINE
  5
337
330
1F
100
AcDbEntity
  8
0
  6
SLD-Solid
 62
     7
370
    15
100
AcDbLine
 10
514.4353594981
 20
52.8123731302
 30
0.0
 11
513.2353615366
 21
52.8123731302
 31
0.0
  0
LINE
  5
338
330
1F
100
AcDbEntity
  8
0
  6
SLD-Solid
 62
     7
370
    15
100
AcDbLine
 10
513.2353615366
 20
52.8123731302
 30
0.0
 11
513.2353615366
 21
55.312370746
 31
0.0
  0
LINE
  5
339
330
1F
100
AcDbEntity
  8
0
  6
SLD-Solid
 62
     7
370
    15
100
AcDbLine
 10
514.4353594981
 20
222.8123749183
 30
0.0
 11
513.2353615366
 21
222.8123749183
 31
0.0
  0
LINE
  5
33A
330
1F
100
AcDbEntity
  8
0
  6
SLD-Solid
 62
     7
370
    15
100
AcDbLine
 10
514.4353594981
 20
222.8123749183
 30
0.0
 11
514.4353594981
 21
55.312370746
 31
0.0
  0
LINE
  5
33B
330
1F
100
AcDbEntity
  8
0
  6
SLD-Solid
 62
     7
370
    15
100
AcDbLine
 10
513.2353615366
 20
222.8123749183
 30
0.0
 11
513.2353615366
 21
55.312370746
 31
0.0
  0
LINE
  5
33C
330
1F
100
AcDbEntity
  8
0
  6
SLD-Solid
 62
     7
370
    15
100
AcDbLine
 10
513.2353615366
 20
225.3123725342
 30
0.0
 11
514.4353594981
 21
225.3123725342
 31
0.0
  0
LINE
  5
33D
330
1F
100
AcDbEntity
  8
0
  6
SLD-Solid
 62
     7
370
    15
100
AcDbLine
 10
514.4353594981
 20
225.3123725342
 30
0.0
 11
514.4353594981
 21
222.8123749183
 31
0.0
  0
LINE
  5
33E
330
1F
100
AcDbEntity
  8
0
  6
SLD-Solid
 62
     7
370
    15
100
AcDbLine
 10
513.2353615366
 20
222.8123749183
 30
0.0
 11
513.2353615366
 21
225.3123725342
 31
0.0
  0
LINE
  5
33F
330
1F
100
AcDbEntity
  8
0
  6
SLD-Solid
 62
     7
370
    15
100
AcDbLine
 10
788.2353525959
 20
222.8123749183
 30
0.0
 11
787.035362085
 21
222.8123749183
 31
0.0
  0
LINE
  5
340
330
1F
100
AcDbEntity
  8
0
  6
SLD-Solid
 62
     7
370
    15
100
AcDbLine
 10
787.035362085
 20
222.8123749183
 30
0.0
 11
787.035362085
 21
225.3123725342
 31
0.0
  0
LINE
  5
341
330
1F
100
AcDbEntity
  8
0
  6
SLD-Solid
 62
     7
370
    15
100
AcDbLine
 10
787.035362085
 20
225.3123725342
 30
0.0
 11
788.2353525959
 21
225.3123725342
 31
0.0
  0
LINE
  5
342
330
1F
100
AcDbEntity
  8
0
  6
SLD-Solid
 62
     7
370
    15
100
AcDbLine
 10
788.2353525959
 20
225.3123725342
 30
0.0
 11
788.2353525959
 21
222.8123749183
 31
0.0
  0
LINE
  5
343
330
1F
100
AcDbEntity
  8
0
  6
SLD-Solid
 62
     7
370
    15
100
AcDbLine
 10
788.2353525959
 20
52.8123731302
 30
0.0
 11
787.035362085
 21
52.8123731302
 31
0.0
  0
LINE
  5
344
330
1F
100
AcDbEntity
  8
0
  6
SLD-Solid
 62
     7
370
    15
100
AcDbLine
 10
787.035362085
 20
55.312370746
 30
0.0
 11
788.2353525959
 21
55.312370746
 31
0.0
  0
LINE
  5
345
330
1F
100
AcDbEntity
  8
0
  6
SLD-Solid
 62
     7
370
    15
100
AcDbLine
 10
788.2353525959
 20
55.312370746
 30
0.0
 11
788.2353525959
 21
52.8123731302
 31
0.0
  0
LINE
  5
346
330
1F
100
AcDbEntity
  8
0
  6
SLD-Solid
 62
     7
370
    15
100
AcDbLine
 10
787.035362085
 20
52.8123731302
 30
0.0
 11
787.035362085
 21
55.312370746
 31
0.0
  0
LINE
  5
347
330
1F
100
AcDbEntity
  8
0
  6
SLD-Solid
 62
     7
370
    15
100
AcDbLine
 10
788.2353525959
 20
55.312370746
 30
0.0
 11
788.2353525959
 21
222.8123749183
 31
0.0
  0
LINE
  5
348
330
1F
100
AcDbEntity
  8
0
  6
SLD-Solid
 62
     7
370
    15
100
AcDbLine
 10
787.035362085
 20
55.312370746
 30
0.0
 11
787.035362085
 21
222.8123749183
 31
0.0
  0
LINE
  5
349
330
1F
100
AcDbEntity
  8
0
  6
SLD-Solid
 62
     7
370
    15
100
AcDbLine
 10
529.4353600942
 20
225.3123725342
 30
0.0
 11
514.4353594981
 21
225.3123725342
 31
0.0
  0
LINE
  5
34A
330
1F
100
AcDbEntity
  8
0
  6
SLD-Solid
 62
     7
370
    15
100
AcDbLine
 10
514.4353594981
 20
52.8123731302
 30
0.0
 11
529.4353600942
 21
52.8123731302
 31
0.0
  0
LINE
  5
34B
330
1F
100
AcDbEntity
  8
0
  6
SLD-Solid
 62
     7
370
    15
100
AcDbLine
 10
787.035362085
 20
225.3123725342
 30
0.0
 11
772.0353614889
 21
225.3123725342
 31
0.0
  0
LINE
  5
34C
330
1F
100
AcDbEntity
  8
0
  6
SLD-Solid
 62
     7
370
    15
100
AcDbLine
 10
772.0353614889
 20
52.8123731302
 30
0.0
 11
787.035362085
 21
52.8123731302
 31
0.0
  0
LINE
  5
34D
330
1F
100
AcDbEntity
  8
0
  6
SLD-Solid
 62
     7
370
    15
100
AcDbLine
 10
529.4353600942
 20
225.3123725342
 30
0.0
 11
772.0353614889
 21
225.3123725342
 31
0.0
  0
LINE
  5
34E
330
1F
100
AcDbEntity
  8
0
  6
SLD-Solid
 62
     7
370
    15
100
AcDbLine
 10
772.0353614889
 20
52.8123731302
 30
0.0
 11
529.4353600942
 21
52.8123731302
 31
0.0
  0
LINE
  5
34F
330
1F
100
AcDbEntity
  8
0
  6
SLD-Solid
 62
     7
370
    15
100
AcDbLine
 10
515.7353591524
 20
219.8257724332
 30
0.0
 11
515.7353591524
 21
222.5623706864
 31
0.0
  0
LINE
  5
350
330
1F
100
AcDbEntity
  8
0
  6
SLD-Solid
 62
     7
370
    15
100
AcDbLine
 10
515.7353591524
 20
222.5623706864
 30
0.0
 11
785.7353549801
 21
222.5623706864
 31
0.0
  0
LINE
  5
351
330
1F
100
AcDbEntity
  8
0
  6
SLD-Solid
 62
     7
370
    15
100
AcDbLine
 10
785.7353549801
 20
222.5623706864
 30
0.0
 11
785.7353549801
 21
219.8257724332
 31
0.0
  0
LINE
  5
352
330
1F
100
AcDbEntity
  8
0
  6
SLD-Solid
 62
     7
370
    15
100
AcDbLine
 10
785.7353549801
 20
219.8257724332
 30
0.0
 11
515.7353591524
 21
219.8257724332
 31
0.0
  0
LINE
  5
353
330
1F
100
AcDbEntity
  8
0
  6
SLD-Solid
 62
     7
370
    15
100
AcDbLine
 10
515.7353591524
 20
55.5623749779
 30
0.0
 11
515.7353591524
 21
58.2989732312
 31
0.0
  0
LINE
  5
354
330
1F
100
AcDbEntity
  8
0
  6
SLD-Solid
 62
     7
370
    15
100
AcDbLine
 10
515.7353591524
 20
58.2989732312
 30
0.0
 11
723.7353559934
 21
58.2989732312
 31
0.0
  0
LINE
  5
355
330
1F
100
AcDbEntity
  8
0
  6
SLD-Solid
 62
     7
370
    15
100
AcDbLine
 10
723.7353559934
 20
55.5623749779
 30
0.0
 11
723.7353559934
 21
58.2989732312
 31
0.0
  0
LINE
  5
356
330
1F
100
AcDbEntity
  8
0
  6
SLD-Solid
 62
     7
370
    15
100
AcDbLine
 10
723.7353559934
 20
55.5623749779
 30
0.0
 11
515.7353591524
 21
55.5623749779
 31
0.0
  0
LINE
  5
357
330
1F
100
AcDbEntity
  8
0
  6
SLD-Solid
 62
     7
370
    15
100
AcDbLine
 10
785.7353549801
 20
219.8257724332
 30
0.0
 11
785.7353549801
 21
156.5623729067
 31
0.0
  0
ARC
  5
358
330
1F
100
AcDbEntity
  8
0
  6
SLD-Solid
 62
     7
370
    15
100
AcDbCircle
 10
783.2353588299
 20
156.5623731904
 30
0.0
 40
2.500000000000114
100
AcDbArc
 50
270.0
 51
0.0
  0
LINE
  5
359
330
1F
100
AcDbEntity
  8
0
  6
SLD-Solid
 62
     7
370
    15
100
AcDbLine
 10
772.7353584372
 20
154.0623729626
 30
0.0
 11
783.2353573643
 21
154.0623729626
 31
0.0
  0
LINE
  5
35A
330
1F
100
AcDbEntity
  8
0
  6
SLD-Solid
 62
     7
370
    15
100
AcDbLine
 10
772.7353584372
 20
154.0623729626
 30
0.0
 11
772.7353584372
 21
155.0623731265
 31
0.0
  0
LINE
  5
35B
330
1F
100
AcDbEntity
  8
0
  6
SLD-Solid
 62
     7
370
    15
100
AcDbLine
 10
772.7353584372
 20
155.0623731265
 30
0.0
 11
770.9987622105
 21
155.0623731265
 31
0.0
  0
LINE
  5
35C
330
1F
100
AcDbEntity
  8
0
  6
SLD-Solid
 62
     7
370
    15
100
AcDbLine
 10
770.9987622105
 20
155.0623731265
 30
0.0
 11
770.9987622105
 21
154.0623729626
 31
0.0
  0
LINE
  5
35D
330
1F
100
AcDbEntity
  8
0
  6
SLD-Solid
 62
     7
370
    15
100
AcDbLine
 10
770.9987622105
 20
154.0623729626
 30
0.0
 11
771.998764237
 21
154.0623729626
 31
0.0
  0
LINE
  5
35E
330
1F
100
AcDbEntity
  8
0
  6
SLD-Solid
 62
     7
370
    15
100
AcDbLine
 10
771.998764237
 20
124.0623740988
 30
0.0
 11
771.998764237
 21
154.0623729626
 31
0.0
  0
LINE
  5
35F
330
1F
100
AcDbEntity
  8
0
  6
SLD-Solid
 62
     7
370
    15
100
AcDbLine
 10
771.998764237
 20
124.0623740988
 30
0.0
 11
770.9987622105
 21
124.0623740988
 31
0.0
  0
LINE
  5
360
330
1F
100
AcDbEntity
  8
0
  6
SLD-Solid
 62
     7
370
    15
100
AcDbLine
 10
770.9987622105
 20
124.0623740988
 30
0.0
 11
770.9987622105
 21
123.0623739349
 31
0.0
  0
LINE
  5
361
330
1F
100
AcDbEntity
  8
0
  6
SLD-Solid
 62
     7
370
    15
100
AcDbLine
 10
770.9987622105
 20
123.0623739349
 30
0.0
 11
772.7353584372
 21
123.0623739349
 31
0.0
  0
LINE
  5
362
330
1F
100
AcDbEntity
  8
0
  6
SLD-Solid
 62
     7
370
    15
100
AcDbLine
 10
772.7353584372
 20
123.0623739349
 30
0.0
 11
772.7353584372
 21
124.0623740988
 31
0.0
  0
LINE
  5
363
330
1F
100
AcDbEntity
  8
0
  6
SLD-Solid
 62
     7
370
    15
100
AcDbLine
 10
783.2353573643
 20
124.0623740988
 30
0.0
 11
772.7353584372
 21
124.0623740988
 31
0.0
  0
ARC
  5
364
330
1F
100
AcDbEntity
  8
0
  6
SLD-Solid
 62
     7
370
    15
100
AcDbCircle
 10
783.2353588299
 20
121.5623731904
 30
0.0
 40
2.500000000000114
100
AcDbArc
 50
0.0
 51
90.0
  0
LINE
  5
365
330
1F
100
AcDbEntity
  8
0
  6
SLD-Solid
 62
     7
370
    15
100
AcDbLine
 10
785.7353549801
 20
121.5623727577
 30
0.0
 11
785.7353549801
 21
58.2989732312
 31
0.0
  0
LINE
  5
366
330
1F
100
AcDbEntity
  8
0
  6
SLD-Solid
 62
     7
370
    15
100
AcDbLine
 10
743.7353592716
 20
58.2989732312
 30
0.0
 11
785.7353549801
 21
58.2989732312
 31
0.0
  0
LINE
  5
367
330
1F
100
AcDbEntity
  8
0
  6
SLD-Solid
 62
     7
370
    15
100
AcDbLine
 10
743.7353592716
 20
85.8461240815
 30
0.0
 11
743.7353592716
 21
58.2989732312
 31
0.0
  0
ARC
  5
368
330
1F
100
AcDbEntity
  8
0
  6
SLD-Solid
 62
     7
370
    15
100
AcDbCircle
 10
748.7353588299
 20
85.846124294
 30
0.0
 40
5.0
100
AcDbArc
 50
90.0
 51
180.0
  0
LINE
  5
369
330
1F
100
AcDbEntity
  8
0
  6
SLD-Solid
 62
     7
370
    15
100
AcDbLine
 10
753.7353571855
 20
90.8461230384
 30
0.0
 11
748.7353619539
 21
90.8461230384
 31
0.0
  0
ARC
  5
36A
330
1F
100
AcDbEntity
  8
0
  6
SLD-Solid
 62
     7
370
    15
100
AcDbCircle
 10
753.7353588299
 20
105.5623731904
 30
0.0
 40
14.71624889633341
100
AcDbArc
 50
270.0
 51
90.0
  0
LINE
  5
36B
330
1F
100
AcDbEntity
  8
0
  6
SLD-Solid
 62
     7
370
    15
100
AcDbLine
 10
743.7353592716
 20
120.2786228197
 30
0.0
 11
753.7353571855
 21
120.2786228197
 31
0.0
  0
ARC
  5
36C
330
1F
100
AcDbEntity
  8
0
  6
SLD-Solid
 62
     7
370
    15
100
AcDbCircle
 10
743.7353588299
 20
100.2786220867
 30
0.0
 40
20.00000000000001
100
AcDbArc
 50
90.0
 51
180.0
  0
LINE
  5
36D
330
1F
100
AcDbEntity
  8
0
  6
SLD-Solid
 62
     7
370
    15
100
AcDbLine
 10
723.7353559934
 20
58.2989732312
 30
0.0
 11
723.7353559934
 21
100.278621404
 31
0.0
  0
LINE
  5
36E
330
1F
100
AcDbEntity
  8
0
  6
SLD-Solid
 62
     7
370
    15
100
AcDbLine
 10
528.7353556954
 20
124.0623740988
 30
0.0
 11
518.2353567682
 21
124.0623740988
 31
0.0
  0
LINE
  5
36F
330
1F
100
AcDbEntity
  8
0
  6
SLD-Solid
 62
     7
370
    15
100
AcDbLine
 10
528.7353556954
 20
124.0623740988
 30
0.0
 11
528.7353556954
 21
123.0623739349
 31
0.0
  0
LINE
  5
370
330
1F
100
AcDbEntity
  8
0
  6
SLD-Solid
 62
     7
370
    15
100
AcDbLine
 10
528.7353556954
 20
123.0623739349
 30
0.0
 11
530.4719593726
 21
123.0623739349
 31
0.0
  0
LINE
  5
371
330
1F
100
AcDbEntity
  8
0
  6
SLD-Solid
 62
     7
370
    15
100
AcDbLine
 10
530.4719593726
 20
123.0623739349
 30
0.0
 11
530.4719593726
 21
124.0623740988
 31
0.0
  0
LINE
  5
372
330
1F
100
AcDbEntity
  8
0
  6
SLD-Solid
 62
     7
370
    15
100
AcDbLine
 10
530.4719593726
 20
124.0623740988
 30
0.0
 11
529.4719573461
 21
124.0623740988
 31
0.0
  0
LINE
  5
373
330
1F
100
AcDbEntity
  8
0
  6
SLD-Solid
 62
     7
370
    15
100
AcDbLine
 10
529.4719573461
 20
154.0623729626
 30
0.0
 11
529.4719573461
 21
124.0623740988
 31
0.0
  0
LINE
  5
374
330
1F
100
AcDbEntity
  8
0
  6
SLD-Solid
 62
     7
370
    15
100
AcDbLine
 10
529.4719573461
 20
154.0623729626
 30
0.0
 11
530.4719593726
 21
154.0623729626
 31
0.0
  0
LINE
  5
375
330
1F
100
AcDbEntity
  8
0
  6
SLD-Solid
 62
     7
370
    15
100
AcDbLine
 10
530.4719593726
 20
154.0623729626
 30
0.0
 11
530.4719593726
 21
155.0623731265
 31
0.0
  0
LINE
  5
376
330
1F
100
AcDbEntity
  8
0
  6
SLD-Solid
 62
     7
370
    15
100
AcDbLine
 10
530.4719593726
 20
155.0623731265
 30
0.0
 11
528.7353556954
 21
155.0623731265
 31
0.0
  0
LINE
  5
377
330
1F
100
AcDbEntity
  8
0
  6
SLD-Solid
 62
     7
370
    15
100
AcDbLine
 10
528.7353556954
 20
155.0623731265
 30
0.0
 11
528.7353556954
 21
154.0623729626
 31
0.0
  0
LINE
  5
378
330
1F
100
AcDbEntity
  8
0
  6
SLD-Solid
 62
     7
370
    15
100
AcDbLine
 10
518.2353567682
 20
154.0623729626
 30
0.0
 11
528.7353556954
 21
154.0623729626
 31
0.0
  0
CIRCLE
  5
379
330
1F
100
AcDbEntity
  8
0
  6
SLD-Solid
 62
     7
370
    15
100
AcDbCircle
 10
756.7353588299
 20
203.5623731904
 30
0.0
 40
3.0
  0
CIRCLE
  5
37A
330
1F
100
AcDbEntity
  8
0
  6
SLD-Solid
 62
     7
370
    15
100
AcDbCircle
 10
544.7353588299
 20
203.5623731904
 30
0.0
 40
3.0
  0
CIRCLE
  5
37B
330
1F
100
AcDbEntity
  8
0
  6
SLD-Solid
 62
     7
370
    15
100
AcDbCircle
 10
756.7353588299
 20
73.5623731904
 30
0.0
 40
3.0
  0
CIRCLE
  5
37C
330
1F
100
AcDbEntity
  8
0
  6
SLD-Solid
 62
     7
370
    15
100
AcDbCircle
 10
544.7353588299
 20
73.5623731904
 30
0.0
 40
3.0
  0
ARC
  5
37D
330
1F
100
AcDbEntity
  8
0
  6
SLD-Solid
 62
     7
370
    15
100
AcDbCircle
 10
518.2353588299
 20
156.5623731904
 30
0.0
 40
2.5
100
AcDbArc
 50
180.0
 51
270.0
  0
LINE
  5
37E
330
1F
100
AcDbEntity
  8
0
  6
SLD-Solid
 62
     7
370
    15
100
AcDbLine
 10
515.7353591524
 20
58.2989732312
 30
0.0
 11
515.7353591524
 21
121.5623727577
 31
0.0
  0
LINE
  5
37F
330
1F
100
AcDbEntity
  8
0
  6
SLD-Solid
 62
     7
370
    15
100
AcDbLine
 10
515.7353591524
 20
156.5623729067
 30
0.0
 11
515.7353591524
 21
219.8257724332
 31
0.0
  0
ARC
  5
380
330
1F
100
AcDbEntity
  8
0
  6
SLD-Solid
 62
     7
370
    15
100
AcDbCircle
 10
518.2353588299
 20
121.5623731904
 30
0.0
 40
2.5
100
AcDbArc
 50
90.0
 51
180.0
  0
LINE
  5
381
330
1F
100
AcDbEntity
  8
0
  6
SLD-Solid
 62
     7
370
    15
100
AcDbLine
 10
526.7353590928
 20
154.0623729626
 30
0.0
 11
526.7353590928
 21
124.0623740988
 31
0.0
  0
LINE
  5
382
330
1F
100
AcDbEntity
  8
0
  6
SLD-Solid
 62
     7
370
    15
100
AcDbLine
 10
528.7353556954
 20
154.0623729626
 30
0.0
 11
529.4719573461
 21
154.0623729626
 31
0.0
  0
LINE
  5
383
330
1F
100
AcDbEntity
  8
0
  6
SLD-Solid
 62
     7
370
    15
100
AcDbLine
 10
529.4719573461
 20
124.0623740988
 30
0.0
 11
528.7353556954
 21
124.0623740988
 31
0.0
  0
LINE
  5
384
330
1F
100
AcDbEntity
  8
0
  6
SLD-Solid
 62
     7
370
    15
100
AcDbLine
 10
785.7353549801
 20
58.2989732312
 30
0.0
 11
785.7353549801
 21
55.5623749779
 31
0.0
  0
LINE
  5
385
330
1F
100
AcDbEntity
  8
0
  6
SLD-Solid
 62
     7
370
    15
100
AcDbLine
 10
785.7353549801
 20
55.5623749779
 30
0.0
 11
743.7353592716
 21
55.5623749779
 31
0.0
  0
LINE
  5
386
330
1F
100
AcDbEntity
  8
0
  6
SLD-Solid
 62
     7
370
    15
100
AcDbLine
 10
743.7353592716
 20
58.2989732312
 30
0.0
 11
743.7353592716
 21
55.5623749779
 31
0.0
  0
LINE
  5
387
330
1F
100
AcDbEntity
  8
0
  6
SLD-Solid
 62
     7
370
    15
100
AcDbLine
 10
771.998764237
 20
154.0623729626
 30
0.0
 11
772.7353584372
 21
154.0623729626
 31
0.0
  0
LINE
  5
388
330
1F
100
AcDbEntity
  8
0
  6
SLD-Solid
 62
     7
370
    15
100
AcDbLine
 10
774.7353624903
 20
124.0623740988
 30
0.0
 11
774.7353624903
 21
154.0623729626
 31
0.0
  0
LINE
  5
389
330
1F
100
AcDbEntity
  8
0
  6
SLD-Solid
 62
     7
370
    15
100
AcDbLine
 10
772.7353584372
 20
124.0623740988
 30
0.0
 11
771.998764237
 21
124.0623740988
 31
0.0
  0
LINE
  5
38A
330
1F
100
AcDbEntity
  8
0
  6
SLD-Solid
 62
     7
370
    15
100
AcDbLine
 10
728.7353586756
 20
57.5623715805
 30
0.0
 11
728.7353586756
 21
55.5623749779
 31
0.0
  0
LINE
  5
38B
330
1F
100
AcDbEntity
  8
0
  6
SLD-Solid
 62
     7
370
    15
100
AcDbLine
 10
726.7353620731
 20
57.5623715805
 30
0.0
 11
728.7353586756
 21
57.5623715805
 31
0.0
  0
LINE
  5
38C
330
1F
100
AcDbEntity
  8
0
  6
SLD-Solid
 62
     7
370
    15
100
AcDbLine
 10
728.7353586756
 20
55.5623749779
 30
0.0
 11
723.7353559934
 21
55.5623749779
 31
0.0
  0
LINE
  5
38D
330
1F
100
AcDbEntity
  8
0
  6
SLD-Solid
 62
     7
370
    15
100
AcDbLine
 10
738.7353565894
 20
55.5623749779
 30
0.0
 11
738.7353565894
 21
57.5623715805
 31
0.0
  0
LINE
  5
38E
330
1F
100
AcDbEntity
  8
0
  6
SLD-Solid
 62
     7
370
    15
100
AcDbLine
 10
738.7353565894
 20
57.5623715805
 30
0.0
 11
740.7353606426
 21
57.5623715805
 31
0.0
  0
LINE
  5
38F
330
1F
100
AcDbEntity
  8
0
  6
SLD-Solid
 62
     7
370
    15
100
AcDbLine
 10
743.7353592716
 20
55.5623749779
 30
0.0
 11
738.7353565894
 21
55.5623749779
 31
0.0
  0
LINE
  5
390
330
1F
100
AcDbEntity
  8
0
  6
SLD-Solid
 62
     7
370
    15
100
AcDbLine
 10
738.7353565894
 20
57.5623715805
 30
0.0
 11
728.7353586756
 21
57.5623715805
 31
0.0
  0
LINE
  5
391
330
1F
100
AcDbEntity
  8
0
  6
SLD-Solid
 62
     7
370
    15
100
AcDbLine
 10
738.7353565894
 20
55.5623749779
 30
0.0
 11
728.7353586756
 21
55.5623749779
 31
0.0
  0
LINE
  5
392
330
1F
100
AcDbEntity
  8
0
  6
SLD-Solid
 62
     7
370
    15
100
AcDbLine
 10
529.7353577219
 20
155.0623731265
 30
0.0
 11
529.7353577219
 21
154.0623729626
 31
0.0
  0
LINE
  5
393
330
1F
100
AcDbEntity
  8
0
  6
SLD-Solid
 62
     7
370
    15
100
AcDbLine
 10
529.7353577219
 20
124.0623740988
 30
0.0
 11
529.7353577219
 21
123.0623739349
 31
0.0
  0
LINE
  5
394
330
1F
100
AcDbEntity
  8
0
  6
SLD-Solid
 62
     7
370
    15
100
AcDbLine
 10
726.7353620731
 20
57.5623715805
 30
0.0
 11
726.7353620731
 21
59.5623756336
 31
0.0
  0
LINE
  5
395
330
1F
100
AcDbEntity
  8
0
  6
SLD-Solid
 62
     7
370
    15
100
AcDbLine
 10
726.7353620731
 20
59.5623756336
 30
0.0
 11
723.7353559934
 21
59.5623756336
 31
0.0
  0
LINE
  5
396
330
1F
100
AcDbEntity
  8
0
  6
SLD-Solid
 62
     7
370
    15
100
AcDbLine
 10
723.7353559934
 20
57.5623715805
 30
0.0
 11
726.7353620731
 21
57.5623715805
 31
0.0
  0
LINE
  5
397
330
1F
100
AcDbEntity
  8
0
  6
SLD-Solid
 62
     7
370
    15
100
AcDbLine
 10
740.7353606426
 20
57.5623715805
 30
0.0
 11
743.7353592716
 21
57.5623715805
 31
0.0
  0
LINE
  5
398
330
1F
100
AcDbEntity
  8
0
  6
SLD-Solid
 62
     7
370
    15
100
AcDbLine
 10
740.7353606426
 20
59.5623756336
 30
0.0
 11
740.7353606426
 21
57.5623715805
 31
0.0
  0
LINE
  5
399
330
1F
100
AcDbEntity
  8
0
  6
SLD-Solid
 62
     7
370
    15
100
AcDbLine
 10
743.7353592716
 20
59.5623756336
 30
0.0
 11
740.7353606426
 21
59.5623756336
 31
0.0
  0
LINE
  5
39A
330
1F
100
AcDbEntity
  8
0
  6
SLD-Solid
 62
     7
370
    15
100
AcDbLine
 10
771.7353564106
 20
123.0623739349
 30
0.0
 11
771.7353564106
 21
124.0623740988
 31
0.0
  0
LINE
  5
39B
330
1F
100
AcDbEntity
  8
0
  6
SLD-Solid
 62
     7
370
    15
100
AcDbLine
 10
771.7353564106
 20
154.0623729626
 30
0.0
 11
771.7353564106
 21
155.0623731265
 31
0.0
  0
LINE
  5
39C
330
1F
100
AcDbEntity
  8
0
  6
SLD-Solid
 62
     7
370
    15
100
AcDbLine
 10
726.7353620731
 20
60.5623702096
 30
0.0
 11
726.7353620731
 21
59.5623756336
 31
0.0
  0
LINE
  5
39D
330
1F
100
AcDbEntity
  8
0
  6
SLD-Solid
 62
     7
370
    15
100
AcDbLine
 10
740.7353606426
 20
59.5623756336
 30
0.0
 11
740.7353606426
 21
60.5623702096
 31
0.0
  0
LINE
  5
39E
330
1F
100
AcDbEntity
  8
0
  6
SLD-Solid
 62
     7
370
    15
100
AcDbLine
 10
740.7353606426
 20
59.5623756336
 30
0.0
 11
726.7353620731
 21
59.5623756336
 31
0.0
  0
CIRCLE
  5
39F
330
1F
100
AcDbEntity
  8
0
  6
SLD-Solid
 62
     7
370
    15
100
AcDbCircle
 10
753.7353588299
 20
105.5623731904
 30
0.0
 40
11.0
  0
LINE
  5
3A0
330
1F
100
AcDbEntity
  8
0
  6
SLD-Solid
 62
     8
370
    15
100
AcDbLine
 10
788.5939341389
 20
139.5623729141
 30
0.0
 11
788.5939341389
 21
134.7194415094
 31
0.0
  0
LINE
  5
3A1
330
1F
100
AcDbEntity
  8
0
  6
SLD-Solid
 62
     8
370
    15
100
AcDbLine
 10
788.5939341389
 20
144.4053050173
 30
0.0
 11
788.5939341389
 21
139.5623729141
 31
0.0
  0
LINE
  5
3A2
330
1F
100
AcDbEntity
  8
0
  6
SLD-Solid
 62
     8
370
    15
100
AcDbLine
 10
512.8767799937
 20
139.5623729141
 30
0.0
 11
512.8767799937
 21
144.4053050173
 31
0.0
  0
LINE
  5
3A3
330
1F
100
AcDbEntity
  8
0
  6
SLD-Solid
 62
     8
370
    15
100
AcDbLine
 10
512.8767799937
 20
134.7194415094
 30
0.0
 11
512.8767799937
 21
139.5623729141
 31
0.0
  0
LINE
  5
3A4
330
1F
100
AcDbEntity
  8
0
  6
SLD-Solid
 62
     8
370
    15
100
AcDbLine
 10
529.4353600942
 20
52.8123731302
 30
0.0
 11
529.4353600942
 21
55.5623749779
 31
0.0
  0
LINE
  5
3A5
330
1F
100
AcDbEntity
  8
0
  6
SLD-Solid
 62
     8
370
    15
100
AcDbLine
 10
529.4353600942
 20
123.0623739349
 30
0.0
 11
529.4353600942
 21
124.0623740988
 31
0.0
  0
LINE
  5
3A6
330
1F
100
AcDbEntity
  8
0
  6
SLD-Solid
 62
     8
370
    15
100
AcDbLine
 10
529.4353600942
 20
154.0623729626
 30
0.0
 11
529.4353600942
 21
155.0623731265
 31
0.0
  0
LINE
  5
3A7
330
1F
100
AcDbEntity
  8
0
  6
SLD-Solid
 62
     8
370
    15
100
AcDbLine
 10
529.4353600942
 20
222.5623706864
 30
0.0
 11
529.4353600942
 21
225.3123725342
 31
0.0
  0
LINE
  5
3A8
330
1F
100
AcDbEntity
  8
0
  6
SLD-Solid
 62
     8
370
    15
100
AcDbLine
 10
772.0353614889
 20
225.3123725342
 30
0.0
 11
772.0353614889
 21
222.5623706864
 31
0.0
  0
LINE
  5
3A9
330
1F
100
AcDbEntity
  8
0
  6
SLD-Solid
 62
     8
370
    15
100
AcDbLine
 10
772.0353614889
 20
155.0623731265
 30
0.0
 11
772.0353614889
 21
154.0623729626
 31
0.0
  0
LINE
  5
3AA
330
1F
100
AcDbEntity
  8
0
  6
SLD-Solid
 62
     8
370
    15
100
AcDbLine
 10
772.0353614889
 20
124.0623740988
 30
0.0
 11
772.0353614889
 21
123.0623739349
 31
0.0
  0
LINE
  5
3AB
330
1F
100
AcDbEntity
  8
0
  6
SLD-Solid
 62
     8
370
    15
100
AcDbLine
 10
772.0353614889
 20
55.5623749779
 30
0.0
 11
772.0353614889
 21
52.8123731302
 31
0.0
  0
LINE
  5
3AC
330
1F
100
AcDbEntity
  8
0
  6
SLD-Solid
 62
     8
370
    15
100
AcDbLine
 10
723.7353559934
 20
60.5623702096
 30
0.0
 11
726.7353620731
 21
60.5623702096
 31
0.0
  0
LINE
  5
3AD
330
1F
100
AcDbEntity
  8
0
  6
SLD-Solid
 62
     8
370
    15
100
AcDbLine
 10
740.7353606426
 20
60.5623702096
 30
0.0
 11
743.7353592716
 21
60.5623702096
 31
0.0
  0
ENDSEC
  0
SECTION
  2
OBJECTS
  0
DICTIONARY
  5
C
330
0
100
AcDbDictionary
281
     1
  3
ACAD_GROUP
350
D
  3
ACAD_LAYOUT
350
1A
  3
ACAD_MLINESTYLE
350
17
  3
ACAD_PLOTSETTINGS
350
19
  3
ACAD_PLOTSTYLENAME
350
E
  3
ACAD_SCALELIST
350
47
  0
DICTIONARY
  5
D
102
{ACAD_REACTORS
330
C
102
}
330
C
100
AcDbDictionary
281
     1
  0
DICTIONARY
  5
1A
102
{ACAD_REACTORS
330
C
102
}
330
C
100
AcDbDictionary
281
     1
  3
Layout1
350
1E
  3
Layout2
350
26
  3
Model
350
22
  0
DICTIONARY
  5
17
102
{ACAD_REACTORS
330
C
102
}
330
C
100
AcDbDictionary
281
     1
  3
Standard
350
18
  0
DICTIONARY
  5
19
102
{ACAD_REACTORS
330
C
102
}
330
C
100
AcDbDictionary
281
     1
  0
ACDBDICTIONARYWDFLT
  5
E
102
{ACAD_REACTORS
330
C
102
}
330
C
100
AcDbDictionary
281
     1
  3
Normal
350
F
100
AcDbDictionaryWithDefault
340
F
  0
DICTIONARY
  5
47
102
{ACAD_REACTORS
330
C
102
}
330
C
100
AcDbDictionary
281
     1
  3
A0
350
48
  3
A1
350
49
  3
A2
350
4A
  3
A3
350
4B
  3
A4
350
4C
  3
A5
350
4D
  3
A6
350
4E
  3
A7
350
4F
  3
A8
350
50
  3
A9
350
51
  3
B0
350
52
  3
B1
350
53
  3
B2
350
54
  3
B3
350
55
  3
B4
350
56
  3
B5
350
57
  3
B6
350
58
  3
B7
350
59
  3
B8
350
5A
  3
B9
350
5B
  3
C0
350
5C
  3
C1
350
5D
  3
C2
350
5E
  3
C3
350
5F
  3
C4
350
60
  3
C5
350
61
  3
C6
350
62
  3
C7
350
63
  3
C8
350
64
  3
C9
350
65
  3
D0
350
66
  3
D1
350
67
  3
D2
350
68
  0
LAYOUT
  5
1E
102
{ACAD_REACTORS
330
1A
102
}
330
1A
100
AcDbPlotSettings
  1

  2
none_device
  4

  6

 40
0.0
 41
0.0
 42
0.0
 43
0.0
 44
0.0
 45
0.0
 46
0.0
 47
0.0
 48
0.0
 49
0.0
140
0.0
141
0.0
142
1.0
143
1.0
 70
   688
 72
     1
 73
     0
 74
     5
  7

 75
    16
147
1.0
148
0.0
149
0.0
100
AcDbLayout
  1
Layout1
 70
     1
 71
     1
 10
0.0
 20
0.0
 11
420.0
 21
297.0
 12
0.0
 22
0.0
 32
0.0
 14
1.0000000000E+20
 24
1.0000000000E+20
 34
1.0000000000E+20
 15
-1.0000000000E+20
 25
-1.0000000000E+20
 35
-1.0000000000E+20
146
0.0
 13
0.0
 23
0.0
 33
0.0
 16
1.0
 26
0.0
 36
0.0
 17
0.0
 27
1.0
 37
0.0
 76
     0
330
1B
  0
LAYOUT
  5
26
102
{ACAD_REACTORS
330
1A
102
}
330
1A
100
AcDbPlotSettings
  1

  2
none_device
  4

  6

 40
0.0
 41
0.0
 42
0.0
 43
0.0
 44
0.0
 45
0.0
 46
0.0
 47
0.0
 48
0.0
 49
0.0
140
0.0
141
0.0
142
1.0
143
1.0
 70
   688
 72
     1
 73
     0
 74
     5
  7

 75
    16
147
1.0
148
0.0
149
0.0
100
AcDbLayout
  1
Layout2
 70
     1
 71
     2
 10
0.0
 20
0.0
 11
0.0
 21
0.0
 12
0.0
 22
0.0
 32
0.0
 14
0.0
 24
0.0
 34
0.0
 15
0.0
 25
0.0
 35
0.0
146
0.0
 13
0.0
 23
0.0
 33
0.0
 16
1.0
 26
0.0
 36
0.0
 17
0.0
 27
1.0
 37
0.0
 76
     0
330
23
  0
LAYOUT
  5
22
102
{ACAD_REACTORS
330
1A
102
}
330
1A
100
AcDbPlotSettings
  1

  2
none_device
  4
Letter_(8.50_x_11.00_Inches)
  6

 40
6.35
 41
6.35
 42
6.35000508
 43
6.35000508
 44
215.9
 45
279.4
 46
0.0
 47
0.0
 48
0.0
 49
0.0
140
0.0
141
0.0
142
1.0
143
1.0
 70
  1712
 72
     1
 73
     0
 74
     0
  7

 75
     0
147
1.0
148
0.0
149
0.0
100
AcDbLayout
  1
Model
 70
     1
 71
     0
 10
0.0
 20
0.0
 11
279.4
 21
215.9
 12
0.0
 22
0.0
 32
0.0
 14
0.0
 24
0.0
 34
0.0
 15
279.4
 25
215.9
 35
0.0
146
0.0
 13
0.0
 23
0.0
 33
0.0
 16
1.0
 26
0.0
 36
0.0
 17
0.0
 27
1.0
 37
0.0
 76
     0
330
1F
331
29
  0
MLINESTYLE
  5
18
102
{ACAD_REACTORS
330
17
102
}
330
17
100
AcDbMlineStyle
  2
Standard
 70
     0
  3

 62
   256
 51
90.0
 52
90.0
 71
     2
 49
0.5
 62
   256
  6
BYLAYER
 49
-0.5
 62
   256
  6
BYLAYER
  0
ACDBPLACEHOLDER
  5
F
102
{ACAD_REACTORS
330
E
102
}
330
E
  0
SCALE
  5
48
102
{ACAD_REACTORS
330
47
102
}
330
47
100
AcDbScale
 70
     0
300
1:1
140
1.0
141
1.0
290
     1
  0
SCALE
  5
49
102
{ACAD_REACTORS
330
47
102
}
330
47
100
AcDbScale
 70
     0
300
1:2
140
1.0
141
2.0
290
     0
  0
SCALE
  5
4A
102
{ACAD_REACTORS
330
47
102
}
330
47
100
AcDbScale
 70
     0
300
1:4
140
1.0
141
4.0
290
     0
  0
SCALE
  5
4B
102
{ACAD_REACTORS
330
47
102
}
330
47
100
AcDbScale
 70
     0
300
1:5
140
1.0
141
5.0
290
     0
  0
SCALE
  5
4C
102
{ACAD_REACTORS
330
47
102
}
330
47
100
AcDbScale
 70
     0
300
1:8
140
1.0
141
8.0
290
     0
  0
SCALE
  5
4D
102
{ACAD_REACTORS
330
47
102
}
330
47
100
AcDbScale
 70
     0
300
1:10
140
1.0
141
10.0
290
     0
  0
SCALE
  5
4E
102
{ACAD_REACTORS
330
47
102
}
330
47
100
AcDbScale
 70
     0
300
1:16
140
1.0
141
16.0
290
     0
  0
SCALE
  5
4F
102
{ACAD_REACTORS
330
47
102
}
330
47
100
AcDbScale
 70
     0
300
1:20
140
1.0
141
20.0
290
     0
  0
SCALE
  5
50
102
{ACAD_REACTORS
330
47
102
}
330
47
100
AcDbScale
 70
     0
300
1:30
140
1.0
141
30.0
290
     0
  0
SCALE
  5
51
102
{ACAD_REACTORS
330
47
102
}
330
47
100
AcDbScale
 70
     0
300
1:40
140
1.0
141
40.0
290
     0
  0
SCALE
  5
52
102
{ACAD_REACTORS
330
47
102
}
330
47
100
AcDbScale
 70
     0
300
1:50
140
1.0
141
50.0
290
     0
  0
SCALE
  5
53
102
{ACAD_REACTORS
330
47
102
}
330
47
100
AcDbScale
 70
     0
300
1:100
140
1.0
141
100.0
290
     0
  0
SCALE
  5
54
102
{ACAD_REACTORS
330
47
102
}
330
47
100
AcDbScale
 70
     0
300
2:1
140
2.0
141
1.0
290
     0
  0
SCALE
  5
55
102
{ACAD_REACTORS
330
47
102
}
330
47
100
AcDbScale
 70
     0
300
4:1
140
4.0
141
1.0
290
     0
  0
SCALE
  5
56
102
{ACAD_REACTORS
330
47
102
}
330
47
100
AcDbScale
 70
     0
300
8:1
140
8.0
141
1.0
290
     0
  0
SCALE
  5
57
102
{ACAD_REACTORS
330
47
102
}
330
47
100
AcDbScale
 70
     0
300
10:1
140
10.0
141
1.0
290
     0
  0
SCALE
  5
58
102
{ACAD_REACTORS
330
47
102
}
330
47
100
AcDbScale
 70
     0
300
100:1
140
100.0
141
1.0
290
     0
  0
SCALE
  5
59
102
{ACAD_REACTORS
330
47
102
}
330
47
100
AcDbScale
 70
     0
300
1/128" = 1'-0"
140
0.0078125
141
12.0
290
     0
  0
SCALE
  5
5A
102
{ACAD_REACTORS
330
47
102
}
330
47
100
AcDbScale
 70
     0
300
1/64" = 1'-0"
140
0.015625
141
12.0
290
     0
  0
SCALE
  5
5B
102
{ACAD_REACTORS
330
47
102
}
330
47
100
AcDbScale
 70
     0
300
1/32" = 1'-0"
140
0.03125
141
12.0
290
     0
  0
SCALE
  5
5C
102
{ACAD_REACTORS
330
47
102
}
330
47
100
AcDbScale
 70
     0
300
1/16" = 1'-0"
140
0.0625
141
12.0
290
     0
  0
SCALE
  5
5D
102
{ACAD_REACTORS
330
47
102
}
330
47
100
AcDbScale
 70
     0
300
3/32" = 1'-0"
140
0.09375
141
12.0
290
     0
  0
SCALE
  5
5E
102
{ACAD_REACTORS
330
47
102
}
330
47
100
AcDbScale
 70
     0
300
1/8" = 1'-0"
140
0.125
141
12.0
290
     0
  0
SCALE
  5
5F
102
{ACAD_REACTORS
330
47
102
}
330
47
100
AcDbScale
 70
     0
300
3/16" = 1'-0"
140
0.1875
141
12.0
290
     0
  0
SCALE
  5
60
102
{ACAD_REACTORS
330
47
102
}
330
47
100
AcDbScale
 70
     0
300
1/4" = 1'-0"
140
0.25
141
12.0
290
     0
  0
SCALE
  5
61
102
{ACAD_REACTORS
330
47
102
}
330
47
100
AcDbScale
 70
     0
300
3/8" = 1'-0"
140
0.375
141
12.0
290
     0
  0
SCALE
  5
62
102
{ACAD_REACTORS
330
47
102
}
330
47
100
AcDbScale
 70
     0
300
1/2" = 1'-0"
140
0.5
141
12.0
290
     0
  0
SCALE
  5
63
102
{ACAD_REACTORS
330
47
102
}
330
47
100
AcDbScale
 70
     0
300
3/4" = 1'-0"
140
0.75
141
12.0
290
     0
  0
SCALE
  5
64
102
{ACAD_REACTORS
330
47
102
}
330
47
100
AcDbScale
 70
     0
300
1" = 1'-0"
140
1.0
141
12.0
290
     0
  0
SCALE
  5
65
102
{ACAD_REACTORS
330
47
102
}
330
47
100
AcDbScale
 70
     0
300
1-1/2" = 1'-0"
140
1.5
141
12.0
290
     0
  0
SCALE
  5
66
102
{ACAD_REACTORS
330
47
102
}
330
47
100
AcDbScale
 70
     0
300
3" = 1'-0"
140
3.0
141
12.0
290
     0
  0
SCALE
  5
67
102
{ACAD_REACTORS
330
47
102
}
330
47
100
AcDbScale
 70
     0
300
6" = 1'-0"
140
6.0
141
12.0
290
     0
  0
SCALE
  5
68
102
{ACAD_REACTORS
330
47
102
}
330
47
100
AcDbScale
 70
     0
300
1'-0" = 1'-0"
140
12.0
141
12.0
290
     0
  0
ENDSEC
  0
EOF
