  0
SECTION
  2
HEADER
  9
$ACADVER
  1
AC1014
  9
$ACADMAINTVER
 70
     9
  9
$DWGCODEPAGE
  3
ANSI_1252
  9
$INSBASE
 10
0.0
 20
0.0
 30
0.0
  9
$EXTMIN
 10
0.0
 20
0.0
 30
0.0
  9
$EXTMAX
 10
279.4
 20
215.9
 30
0.0
  9
$LIMMIN
 10
0.0
 20
0.0
  9
$LIMMAX
 10
279.4
 20
215.9
  9
$ORTHOMODE
 70
     0
  9
$REGENMODE
 70
     1
  9
$FILLMODE
 70
     1
  9
$QTEXTMODE
 70
     0
  9
$MIRRTEXT
 70
     1
  9
$DRAGMODE
 70
     2
  9
$LTSCALE
 40
1.0
  9
$OSMODE
 70
    37
  9
$ATTMODE
 70
     1
  9
$TEXTSIZE
 40
3.5
  9
$TRACEWID
 40
1.0
  9
$TEXTSTYLE
  7
STANDARD
  9
$CLAYER
  8
0
  9
$CELTYPE
  6
BYLAYER
  9
$CECOLOR
 62
   256
  9
$CELTSCALE
 40
1.0
  9
$DELOBJ
 70
     1
  9
$DISPSILH
 70
     0
  9
$DIMSCALE
 40
1.0
  9
$DIMASZ
 40
3.302
  9
$DIMEXO
 40
1.0
  9
$DIMDLI
 40
3.75
  9
$DIMRND
 40
0.0
  9
$DIMDLE
 40
0.0
  9
$DIMEXE
 40
1.0
  9
$DIMTP
 40
0.0
  9
$DIMTM
 40
0.0
  9
$DIMTXT
 40
3.5
  9
$DIMCEN
 40
2.5
  9
$DIMTSZ
 40
0.0
  9
$DIMTOL
 70
     0
  9
$DIMLIM
 70
     0
  9
$DIMTIH
 70
     1
  9
$DIMTOH
 70
     1
  9
$DIMSE1
 70
     0
  9
$DIMSE2
 70
     0
  9
$DIMTAD
 70
     1
  9
$DIMZIN
 70
     1
  9
$DIMBLK
  1

  9
$DIMASO
 70
     1
  9
$DIMSHO
 70
     1
  9
$DIMPOST
  1

  9
$DIMAPOST
  1

  9
$DIMALT
 70
     0
  9
$DIMALTD
 70
     3
  9
$DIMALTF
 40
0.0393700787
  9
$DIMLFAC
 40
2.0
  9
$DIMTOFL
 70
     1
  9
$DIMTVP
 40
0.0
  9
$DIMTIX
 70
     0
  9
$DIMSOXD
 70
     0
  9
$DIMSAH
 70
     0
  9
$DIMBLK1
  1

  9
$DIMBLK2
  1

  9
$DIMSTYLE
  2
ISO-25
  9
$DIMCLRD
 70
     0
  9
$DIMCLRE
 70
     0
  9
$DIMCLRT
 70
     0
  9
$DIMTFAC
 40
1.0
  9
$DIMGAP
 40
1.524
  9
$DIMJUST
 70
     0
  9
$DIMSD1
 70
     0
  9
$DIMSD2
 70
     0
  9
$DIMTOLJ
 70
     0
  9
$DIMTZIN
 70
     1
  9
$DIMALTZ
 70
     0
  9
$DIMALTTZ
 70
     0
  9
$DIMFIT
 70
     3
  9
$DIMUPT
 70
     0
  9
$DIMUNIT
 70
     2
  9
$DIMDEC
 70
     2
  9
$DIMTDEC
 70
     2
  9
$DIMALTU
 70
     2
  9
$DIMALTTD
 70
     3
  9
$DIMTXSTY
  7
STANDARD
  9
$DIMAUNIT
 70
     0
  9
$LUNITS
 70
     2
  9
$LUPREC
 70
     2
  9
$SKETCHINC
 40
1.0
  9
$FILLETRAD
 40
0.0
  9
$AUNITS
 70
     0
  9
$AUPREC
 70
     2
  9
$MENU
  1
.
  9
$ELEVATION
 40
0.0
  9
$PELEVATION
 40
0.0
  9
$THICKNESS
 40
0.0
  9
$LIMCHECK
 70
     0
  9
$CHAMFERA
 40
0.0
  9
$CHAMFERB
 40
0.0
  9
$CHAMFERC
 40
0.0
  9
$CHAMFERD
 40
0.0
  9
$SKPOLY
 70
     0
  9
$TDCREATE
 40
2459716.708457384
  9
$TDUPDATE
 40
2459716.708457766
  9
$TDINDWG
 40
0.0000000116
  9
$TDUSRTIMER
 40
0.0000000116
  9
$USRTIMER
 70
     1
  9
$ANGBASE
 50
0.0
  9
$ANGDIR
 70
     0
  9
$PDMODE
 70
     0
  9
$PDSIZE
 40
-1.0
  9
$PLINEWID
 40
0.0
  9
$COORDS
 70
     1
  9
$SPLFRAME
 70
     0
  9
$SPLINETYPE
 70
     6
  9
$SPLINESEGS
 70
     8
  9
$ATTDIA
 70
     0
  9
$ATTREQ
 70
     1
  9
$HANDLING
 70
     1
  9
$HANDSEED
  5
165
  9
$SURFTAB1
 70
     6
  9
$SURFTAB2
 70
     6
  9
$SURFTYPE
 70
     6
  9
$SURFU
 70
     6
  9
$SURFV
 70
     6
  9
$UCSNAME
  2

  9
$UCSORG
 10
0.0
 20
0.0
 30
0.0
  9
$UCSXDIR
 10
1.0
 20
0.0
 30
0.0
  9
$UCSYDIR
 10
0.0
 20
1.0
 30
0.0
  9
$PUCSNAME
  2

  9
$PUCSORG
 10
0.0
 20
0.0
 30
0.0
  9
$PUCSXDIR
 10
1.0
 20
0.0
 30
0.0
  9
$PUCSYDIR
 10
0.0
 20
1.0
 30
0.0
  9
$USERI1
 70
     0
  9
$USERI2
 70
     0
  9
$USERI3
 70
     0
  9
$USERI4
 70
     0
  9
$USERI5
 70
     0
  9
$USERR1
 40
0.0
  9
$USERR2
 40
0.0
  9
$USERR3
 40
0.0
  9
$USERR4
 40
0.0
  9
$USERR5
 40
0.0
  9
$WORLDVIEW
 70
     1
  9
$SHADEDGE
 70
     3
  9
$SHADEDIF
 70
    70
  9
$TILEMODE
 70
     1
  9
$MAXACTVP
 70
    64
  9
$PINSBASE
 10
0.0
 20
0.0
 30
0.0
  9
$PLIMCHECK
 70
     0
  9
$PEXTMIN
 10
1.0000000000E+20
 20
1.0000000000E+20
 30
1.0000000000E+20
  9
$PEXTMAX
 10
-1.0000000000E+20
 20
-1.0000000000E+20
 30
-1.0000000000E+20
  9
$PLIMMIN
 10
0.0
 20
0.0
  9
$PLIMMAX
 10
420.0
 20
297.0
  9
$UNITMODE
 70
     0
  9
$VISRETAIN
 70
     1
  9
$PLINEGEN
 70
     0
  9
$PSLTSCALE
 70
     1
  9
$TREEDEPTH
 70
  3020
  9
$PICKSTYLE
 70
     1
  9
$CMLSTYLE
  2
STANDARD
  9
$CMLJUST
 70
     0
  9
$CMLSCALE
 40
20.0
  9
$PROXYGRAPHICS
 70
     1
  9
$MEASUREMENT
 70
     1
  0
ENDSEC
  0
SECTION
  2
CLASSES
  0
CLASS
  1
ACDBDICTIONARYWDFLT
  2
AcDbDictionaryWithDefault
  3
ObjectDBX Classes
 90
        0
280
     0
281
     0
  0
CLASS
  1
VISUALSTYLE
  2
AcDbVisualStyle
  3
ObjectDBX Classes
 90
     4095
280
     0
281
     0
  0
CLASS
  1
MATERIAL
  2
AcDbMaterial
  3
ObjectDBX Classes
 90
     1153
280
     0
281
     0
  0
CLASS
  1
SCALE
  2
AcDbScale
  3
ObjectDBX Classes
 90
     1153
280
     0
281
     0
  0
CLASS
  1
TABLESTYLE
  2
AcDbTableStyle
  3
ObjectDBX Classes
 90
     4095
280
     0
281
     0
  0
CLASS
  1
MLEADERSTYLE
  2
AcDbMLeaderStyle
  3
ACDB_MLEADERSTYLE_CLASS
 90
     4095
280
     0
281
     0
  0
CLASS
  1
SUN
  2
AcDbSun
  3
SCENEOE
 90
     1153
280
     0
281
     0
  0
CLASS
  1
XRECORD
  2
AcDbXrecord
  3
ObjectDBX Classes
 90
        0
280
     0
281
     0
  0
CLASS
  1
LWPOLYLINE
  2
AcDbPolyline
  3
ObjectDBX Classes
 90
        0
280
     0
281
     1
  0
CLASS
  1
HATCH
  2
AcDbHatch
  3
ObjectDBX Classes
 90
        0
280
     0
281
     1
  0
ENDSEC
  0
SECTION
  2
TABLES
  0
TABLE
  2
VPORT
  5
8
330
0
100
AcDbSymbolTable
 70
     1
  0
VPORT
  5
29
330
8
100
AcDbSymbolTableRecord
100
AcDbViewportTableRecord
  2
*ACTIVE
 70
     0
 10
0.0
 20
0.0
 11
1.0
 21
1.0
 12
139.7
 22
107.95
 13
0.0
 23
0.0
 14
10.0
 24
10.0
 15
10.0
 25
10.0
 16
0.0
 26
0.0
 36
1.0
 17
0.0
 27
0.0
 37
0.0
 40
215.9
 41
1.2941176471
 42
50.0
 43
0.0
 44
0.0
 50
0.0
 51
0.0
 71
     0
 72
  2000
 73
     1
 74
     3
 75
     0
 76
     0
 77
     0
 78
     0
  0
ENDTAB
  0
TABLE
  2
LTYPE
  5
5
330
0
100
AcDbSymbolTable
 70
     6
  0
LTYPE
  5
14
330
5
100
AcDbSymbolTableRecord
100
AcDbLinetypeTableRecord
  2
BYBLOCK
 70
     0
  3

 72
    65
 73
     0
 40
0.0
  0
LTYPE
  5
15
330
5
100
AcDbSymbolTableRecord
100
AcDbLinetypeTableRecord
  2
BYLAYER
 70
     0
  3

 72
    65
 73
     0
 40
0.0
  0
LTYPE
  5
16
330
5
100
AcDbSymbolTableRecord
100
AcDbLinetypeTableRecord
  2
CONTINUOUS
 70
     0
  3
Solid line
 72
    65
 73
     0
 40
0.0
  0
LTYPE
  5
5E
330
5
100
AcDbSymbolTableRecord
100
AcDbLinetypeTableRecord
  2
HIDDEN
 70
     0
  3
Hidden __ __ __ __ __ __ __ __ __ __ __ __ __ __
 72
    65
 73
     2
 40
1.905
 49
1.27
 74
     0
 49
-0.635
 74
     0
  0
LTYPE
  5
5F
330
5
100
AcDbSymbolTableRecord
100
AcDbLinetypeTableRecord
  2
PHANTOM
 70
     0
  3
Phantom ______  __  __  ______  __  __  ______
 72
    65
 73
     6
 40
12.7
 49
6.35
 74
     0
 49
-1.27
 74
     0
 49
1.27
 74
     0
 49
-1.27
 74
     0
 49
1.27
 74
     0
 49
-1.27
 74
     0
  0
LTYPE
  5
60
330
5
100
AcDbSymbolTableRecord
100
AcDbLinetypeTableRecord
  2
CENTER
 70
     0
  3
Center ____ _ ____ _ ____ _ ____ _ ____ _ ____
 72
    65
 73
     4
 40
10.16
 49
6.35
 74
     0
 49
-1.27
 74
     0
 49
1.27
 74
     0
 49
-1.27
 74
     0
  0
LTYPE
  5
61
330
5
100
AcDbSymbolTableRecord
100
AcDbLinetypeTableRecord
  2
CENTERX2
 70
     0
  3
Center (2x) ________  __  ________  __  _____
 72
    65
 73
     4
 40
20.32
 49
12.7
 74
     0
 49
-2.54
 74
     0
 49
2.54
 74
     0
 49
-2.54
 74
     0
  0
LTYPE
  5
62
330
5
100
AcDbSymbolTableRecord
100
AcDbLinetypeTableRecord
  2
DOT2
 70
     0
  3
Dot (.5x) ........................................
 72
    65
 73
     2
 40
0.635
 49
0.0
 74
     0
 49
-0.635
 74
     0
  0
ENDTAB
  0
TABLE
  2
LAYER
  5
2
330
0
100
AcDbSymbolTable
 70
     1
  0
LAYER
  5
10
330
2
100
AcDbSymbolTableRecord
100
AcDbLayerTableRecord
  2
0
 70
     0
 62
     7
  6
CONTINUOUS
  0
ENDTAB
  0
TABLE
  2
STYLE
  5
3
330
0
100
AcDbSymbolTable
 70
     1
  0
STYLE
  5
11
330
3
100
AcDbSymbolTableRecord
100
AcDbTextStyleTableRecord
  2
STANDARD
 70
     0
 40
0.0
 41
1.0
 50
0.0
 71
     0
 42
3.5
  3
GOTHIC.TTF
  4

1001
ACAD
1000
CENTURY GOTHIC
1071
       34
  0
ENDTAB
  0
TABLE
  2
VIEW
  5
6
330
0
100
AcDbSymbolTable
 70
     0
  0
ENDTAB
  0
TABLE
  2
UCS
  5
7
330
0
100
AcDbSymbolTable
 70
     0
  0
ENDTAB
  0
TABLE
  2
APPID
  5
9
330
0
100
AcDbSymbolTable
 70
     1
  0
APPID
  5
12
330
9
100
AcDbSymbolTableRecord
100
AcDbRegAppTableRecord
  2
ACAD
 70
     0
  0
ENDTAB
  0
TABLE
  2
DIMSTYLE
  5
A
330
0
100
AcDbSymbolTable
 70
     1
  0
DIMSTYLE
105
27
330
A
100
AcDbSymbolTableRecord
100
AcDbDimStyleTableRecord
  2
ISO-25
 70
     0
  3

  4

  5

  6

  7

 40
1.0
 41
2.5
 42
0.625
 43
3.75
 44
1.25
 45
0.0
 46
0.0
 47
0.0
 48
0.0
140
2.5
141
2.5
142
0.0
143
0.0393700787
144
1.0
145
0.0
146
1.0
147
0.625
 71
     0
 72
     0
 73
     0
 74
     0
 75
     0
 76
     0
 77
     1
 78
     8
170
     0
171
     3
172
     1
173
     0
174
     0
175
     0
176
     0
177
     0
178
     0
270
     2
271
     2
272
     2
273
     2
274
     3
340
11
275
     0
280
     0
281
     0
282
     0
283
     0
284
     8
285
     0
286
     0
287
     3
288
     0
  0
ENDTAB
  0
TABLE
  2
BLOCK_RECORD
  5
1
330
0
100
AcDbSymbolTable
 70
     1
  0
BLOCK_RECORD
  5
1F
330
1
100
AcDbSymbolTableRecord
100
AcDbBlockTableRecord
  2
*MODEL_SPACE
  0
BLOCK_RECORD
  5
1B
330
1
100
AcDbSymbolTableRecord
100
AcDbBlockTableRecord
  2
*PAPER_SPACE
  0
BLOCK_RECORD
  5
23
330
1
100
AcDbSymbolTableRecord
100
AcDbBlockTableRecord
  2
*PAPER_SPACE0
  0
ENDTAB
  0
ENDSEC
  0
SECTION
  2
BLOCKS
  0
BLOCK
  5
20
330
1F
100
AcDbEntity
  8
0
100
AcDbBlockBegin
  2
*MODEL_SPACE
 70
     0
 10
0.0
 20
0.0
 30
0.0
  3
*MODEL_SPACE
  1

  0
ENDBLK
  5
21
330
1F
100
AcDbEntity
  8
0
100
AcDbBlockEnd
  0
BLOCK
  5
1C
330
1B
100
AcDbEntity
 67
     1
  8
0
100
AcDbBlockBegin
  2
*PAPER_SPACE
 70
     0
 10
0.0
 20
0.0
 30
0.0
  3
*PAPER_SPACE
  1

  0
ENDBLK
  5
1D
330
1B
100
AcDbEntity
 67
     1
  8
0
100
AcDbBlockEnd
  0
BLOCK
  5
24
330
23
100
AcDbEntity
  8
0
100
AcDbBlockBegin
  2
*PAPER_SPACE0
 70
     0
 10
0.0
 20
0.0
 30
0.0
  3
*PAPER_SPACE0
  1

  0
ENDBLK
  5
25
330
23
100
AcDbEntity
  8
0
100
AcDbBlockEnd
  0
ENDSEC
  0
SECTION
  2
ENTITIES
  0
LINE
  5
63
330
1F
100
AcDbEntity
  8
0
  6
CONTINUOUS
 62
     7
100
AcDbLine
 10
83.0765288977
 20
130.5183113706
 30
0.0
 11
83.1070634376
 21
130.5183113706
 31
0.0
  0
LINE
  5
64
330
1F
100
AcDbEntity
  8
0
  6
CONTINUOUS
 62
     7
100
AcDbLine
 10
83.0765288977
 20
130.5183113706
 30
0.0
 11
83.0765288977
 21
130.5793804505
 31
0.0
  0
LINE
  5
65
330
1F
100
AcDbEntity
  8
0
  6
CONTINUOUS
 62
     7
100
AcDbLine
 10
78.1467497533
 20
133.4882198195
 30
0.0
 11
78.1772842932
 21
133.4882198195
 31
0.0
  0
LINE
  5
66
330
1F
100
AcDbEntity
  8
0
  6
CONTINUOUS
 62
     7
100
AcDbLine
 10
78.1467497533
 20
133.4882198195
 30
0.0
 11
78.1467497533
 21
133.5492888993
 31
0.0
  0
LINE
  5
67
330
1F
100
AcDbEntity
  8
0
  6
CONTINUOUS
 62
     7
100
AcDbLine
 10
78.1467497533
 20
133.4882198195
 30
0.0
 11
78.1162152133
 21
133.4882198195
 31
0.0
  0
LINE
  5
68
330
1F
100
AcDbEntity
  8
0
  6
CONTINUOUS
 62
     7
100
AcDbLine
 10
78.1467497533
 20
133.4882198195
 30
0.0
 11
78.1467497533
 21
133.5492888993
 31
0.0
  0
LINE
  5
69
330
1F
100
AcDbEntity
  8
0
  6
CONTINUOUS
 62
     7
100
AcDbLine
 10
78.1467497533
 20
133.4882198195
 30
0.0
 11
78.1162152133
 21
133.4882198195
 31
0.0
  0
LINE
  5
6A
330
1F
100
AcDbEntity
  8
0
  6
CONTINUOUS
 62
     7
100
AcDbLine
 10
78.1467497533
 20
133.4882198195
 30
0.0
 11
78.1467497533
 21
133.4271507396
 31
0.0
  0
LINE
  5
6B
330
1F
100
AcDbEntity
  8
0
  6
CONTINUOUS
 62
     7
100
AcDbLine
 10
78.1467497533
 20
133.4882198195
 30
0.0
 11
78.1162152133
 21
133.4882198195
 31
0.0
  0
LINE
  5
6C
330
1F
100
AcDbEntity
  8
0
  6
CONTINUOUS
 62
     7
100
AcDbLine
 10
78.1467497533
 20
133.4882198195
 30
0.0
 11
78.1467497533
 21
133.4271507396
 31
0.0
  0
LINE
  5
6D
330
1F
100
AcDbEntity
  8
0
  6
CONTINUOUS
 62
     7
100
AcDbLine
 10
78.1467497533
 20
133.4882198195
 30
0.0
 11
78.1162152133
 21
133.4882198195
 31
0.0
  0
LINE
  5
6E
330
1F
100
AcDbEntity
  8
0
  6
CONTINUOUS
 62
     7
100
AcDbLine
 10
78.1467497533
 20
133.4882198195
 30
0.0
 11
78.1467497533
 21
133.4271507396
 31
0.0
  0
LINE
  5
6F
330
1F
100
AcDbEntity
  8
0
  6
CONTINUOUS
 62
     7
100
AcDbLine
 10
77.1296348388
 20
133.9459215309
 30
0.0
 11
77.1601693788
 21
133.9459215309
 31
0.0
  0
LINE
  5
70
330
1F
100
AcDbEntity
  8
0
  6
CONTINUOUS
 62
     7
100
AcDbLine
 10
77.1296348388
 20
133.9459215309
 30
0.0
 11
77.1296348388
 21
134.0069906108
 31
0.0
  0
POINT
  5
71
330
1F
100
AcDbEntity
  8
0
  6
CONTINUOUS
 62
     7
100
AcDbPoint
 10
83.0765288977
 20
130.5183113706
 30
0.0
  0
POINT
  5
72
330
1F
100
AcDbEntity
  8
0
  6
CONTINUOUS
 62
     7
100
AcDbPoint
 10
78.1467497533
 20
133.4882198195
 30
0.0
  0
POINT
  5
73
330
1F
100
AcDbEntity
  8
0
  6
CONTINUOUS
 62
     7
100
AcDbPoint
 10
78.1467497533
 20
133.4882198195
 30
0.0
  0
POINT
  5
74
330
1F
100
AcDbEntity
  8
0
  6
CONTINUOUS
 62
     7
100
AcDbPoint
 10
78.1467497533
 20
133.4882198195
 30
0.0
  0
POINT
  5
75
330
1F
100
AcDbEntity
  8
0
  6
CONTINUOUS
 62
     7
100
AcDbPoint
 10
78.1467497533
 20
133.4882198195
 30
0.0
  0
POINT
  5
76
330
1F
100
AcDbEntity
  8
0
  6
CONTINUOUS
 62
     7
100
AcDbPoint
 10
78.1467497533
 20
133.4882198195
 30
0.0
  0
POINT
  5
77
330
1F
100
AcDbEntity
  8
0
  6
CONTINUOUS
 62
     7
100
AcDbPoint
 10
77.1296348388
 20
133.9459215309
 30
0.0
  0
ARC
  5
78
330
1F
100
AcDbEntity
  8
0
  6
CONTINUOUS
 62
     7
100
AcDbCircle
 10
103.1467497533
 20
108.4882198195
 30
0.0
 40
4.585786437626894
100
AcDbArc
 50
270.0
 51
0.0
  0
LINE
  5
79
330
1F
100
AcDbEntity
  8
0
  6
CONTINUOUS
 62
     7
100
AcDbLine
 10
53.1467497533
 20
103.9024333818
 30
0.0
 11
103.1467497533
 21
103.9024333818
 31
0.0
  0
ARC
  5
7A
330
1F
100
AcDbEntity
  8
0
  6
CONTINUOUS
 62
     7
100
AcDbCircle
 10
53.1467497533
 20
108.4882198195
 30
0.0
 40
4.585786437626894
100
AcDbArc
 50
180.0
 51
270.0
  0
LINE
  5
7B
330
1F
100
AcDbEntity
  8
0
  6
CONTINUOUS
 62
     7
100
AcDbLine
 10
48.5609633156
 20
158.4882198195
 30
0.0
 11
48.5609633156
 21
108.4882198195
 31
0.0
  0
ARC
  5
7C
330
1F
100
AcDbEntity
  8
0
  6
CONTINUOUS
 62
     7
100
AcDbCircle
 10
53.1467497533
 20
158.4882198195
 30
0.0
 40
4.585786437626894
100
AcDbArc
 50
90.0
 51
180.0
  0
LINE
  5
7D
330
1F
100
AcDbEntity
  8
0
  6
CONTINUOUS
 62
     7
100
AcDbLine
 10
103.1467497533
 20
163.0740062571
 30
0.0
 11
53.1467497533
 21
163.0740062571
 31
0.0
  0
ARC
  5
7E
330
1F
100
AcDbEntity
  8
0
  6
CONTINUOUS
 62
     7
100
AcDbCircle
 10
103.1467497533
 20
158.4882198195
 30
0.0
 40
4.585786437626894
100
AcDbArc
 50
0.0
 51
90.0
  0
LINE
  5
7F
330
1F
100
AcDbEntity
  8
0
  6
CONTINUOUS
 62
     7
100
AcDbLine
 10
107.7325361909
 20
108.4882198195
 30
0.0
 11
107.7325361909
 21
158.4882198195
 31
0.0
  0
LINE
  5
80
330
1F
100
AcDbEntity
  8
0
  6
CONTINUOUS
 62
     7
100
AcDbLine
 10
107.7325361909
 20
108.4882198195
 30
0.0
 11
108.4396429721
 21
108.4882198195
 31
0.0
  0
ARC
  5
81
330
1F
100
AcDbEntity
  8
0
  6
CONTINUOUS
 62
     7
100
AcDbCircle
 10
103.1467497533
 20
108.4882198195
 30
0.0
 40
5.292893218813433
100
AcDbArc
 50
270.0
 51
0.0
  0
LINE
  5
82
330
1F
100
AcDbEntity
  8
0
  6
CONTINUOUS
 62
     7
100
AcDbLine
 10
103.1467497533
 20
103.9024333818
 30
0.0
 11
103.1467497533
 21
103.1953266006
 31
0.0
  0
ARC
  5
83
330
1F
100
AcDbEntity
  8
0
  6
CONTINUOUS
 62
     7
100
AcDbCircle
 10
53.1467497533
 20
158.4882198195
 30
0.0
 40
5.292893218813433
100
AcDbArc
 50
90.0
 51
180.0
  0
LINE
  5
84
330
1F
100
AcDbEntity
  8
0
  6
CONTINUOUS
 62
     7
100
AcDbLine
 10
53.1467497533
 20
163.7811130383
 30
0.0
 11
53.1467497533
 21
163.0740062571
 31
0.0
  0
LINE
  5
85
330
1F
100
AcDbEntity
  8
0
  6
CONTINUOUS
 62
     7
100
AcDbLine
 10
47.8538565344
 20
158.4882198195
 30
0.0
 11
48.5609633156
 21
158.4882198195
 31
0.0
  0
LINE
  5
86
330
1F
100
AcDbEntity
  8
0
  6
CONTINUOUS
 62
     7
100
AcDbLine
 10
107.7325361909
 20
158.4882198195
 30
0.0
 11
108.4396429721
 21
158.4882198195
 31
0.0
  0
LINE
  5
87
330
1F
100
AcDbEntity
  8
0
  6
CONTINUOUS
 62
     7
100
AcDbLine
 10
108.4396429721
 20
158.4882198195
 30
0.0
 11
108.4396429721
 21
108.4882198195
 31
0.0
  0
LINE
  5
88
330
1F
100
AcDbEntity
  8
0
  6
CONTINUOUS
 62
     7
100
AcDbLine
 10
53.1467497533
 20
163.7811130383
 30
0.0
 11
103.1467497533
 21
163.7811130383
 31
0.0
  0
LINE
  5
89
330
1F
100
AcDbEntity
  8
0
  6
CONTINUOUS
 62
     7
100
AcDbLine
 10
103.1467497533
 20
163.7811130383
 30
0.0
 11
103.1467497533
 21
163.0740062571
 31
0.0
  0
ARC
  5
8A
330
1F
100
AcDbEntity
  8
0
  6
CONTINUOUS
 62
     7
100
AcDbCircle
 10
103.1467497533
 20
158.4882198195
 30
0.0
 40
5.292893218813433
100
AcDbArc
 50
0.0
 51
90.0
  0
LINE
  5
8B
330
1F
100
AcDbEntity
  8
0
  6
CONTINUOUS
 62
     7
100
AcDbLine
 10
103.1467497533
 20
103.1953266006
 30
0.0
 11
53.1467497533
 21
103.1953266006
 31
0.0
  0
LINE
  5
8C
330
1F
100
AcDbEntity
  8
0
  6
CONTINUOUS
 62
     7
100
AcDbLine
 10
53.1467497533
 20
103.9024333818
 30
0.0
 11
53.1467497533
 21
103.1953266006
 31
0.0
  0
ARC
  5
8D
330
1F
100
AcDbEntity
  8
0
  6
CONTINUOUS
 62
     7
100
AcDbCircle
 10
53.1467497533
 20
108.4882198195
 30
0.0
 40
5.292893218813433
100
AcDbArc
 50
180.0
 51
270.0
  0
LINE
  5
8E
330
1F
100
AcDbEntity
  8
0
  6
CONTINUOUS
 62
     7
100
AcDbLine
 10
47.8538565344
 20
108.4882198195
 30
0.0
 11
48.5609633156
 21
108.4882198195
 31
0.0
  0
LINE
  5
8F
330
1F
100
AcDbEntity
  8
0
  6
CONTINUOUS
 62
     7
100
AcDbLine
 10
47.8538565344
 20
108.4882198195
 30
0.0
 11
47.8538565344
 21
158.4882198195
 31
0.0
  0
LINE
  5
90
330
1F
100
AcDbEntity
  8
0
  6
CONTINUOUS
 62
     7
100
AcDbLine
 10
103.1467497533
 20
98.7811130383
 30
0.0
 11
103.1467497533
 21
103.1953266006
 31
0.0
  0
LINE
  5
91
330
1F
100
AcDbEntity
  8
0
  6
CONTINUOUS
 62
     7
100
AcDbLine
 10
53.1467497533
 20
98.7811130383
 30
0.0
 11
103.1467497533
 21
98.7811130383
 31
0.0
  0
LINE
  5
92
330
1F
100
AcDbEntity
  8
0
  6
CONTINUOUS
 62
     7
100
AcDbLine
 10
53.1467497533
 20
98.7811130383
 30
0.0
 11
53.1467497533
 21
103.1953266006
 31
0.0
  0
LINE
  5
93
330
1F
100
AcDbEntity
  8
0
  6
CONTINUOUS
 62
     7
100
AcDbLine
 10
43.4396429721
 20
158.4882198195
 30
0.0
 11
47.8538565344
 21
158.4882198195
 31
0.0
  0
ARC
  5
94
330
1F
100
AcDbEntity
  8
0
  6
CONTINUOUS
 62
     7
100
AcDbCircle
 10
53.1467497533
 20
158.4882198195
 30
0.0
 40
9.707106781186553
100
AcDbArc
 50
90.0
 51
180.0
  0
LINE
  5
95
330
1F
100
AcDbEntity
  8
0
  6
CONTINUOUS
 62
     7
100
AcDbLine
 10
53.1467497533
 20
163.7811130383
 30
0.0
 11
53.1467497533
 21
168.1953266006
 31
0.0
  0
LINE
  5
96
330
1F
100
AcDbEntity
  8
0
  6
CONTINUOUS
 62
     7
100
AcDbLine
 10
108.4396429721
 20
158.4882198195
 30
0.0
 11
112.8538565344
 21
158.4882198195
 31
0.0
  0
LINE
  5
97
330
1F
100
AcDbEntity
  8
0
  6
CONTINUOUS
 62
     7
100
AcDbLine
 10
112.8538565344
 20
108.4882198195
 30
0.0
 11
112.8538565344
 21
158.4882198195
 31
0.0
  0
LINE
  5
98
330
1F
100
AcDbEntity
  8
0
  6
CONTINUOUS
 62
     7
100
AcDbLine
 10
108.4396429721
 20
108.4882198195
 30
0.0
 11
112.8538565344
 21
108.4882198195
 31
0.0
  0
LINE
  5
99
330
1F
100
AcDbEntity
  8
0
  6
CONTINUOUS
 62
     7
100
AcDbLine
 10
103.1467497533
 20
163.7811130383
 30
0.0
 11
103.1467497533
 21
168.1953266006
 31
0.0
  0
ARC
  5
9A
330
1F
100
AcDbEntity
  8
0
  6
CONTINUOUS
 62
     7
100
AcDbCircle
 10
103.1467497533
 20
158.4882198195
 30
0.0
 40
9.707106781186553
100
AcDbArc
 50
0.0
 51
90.0
  0
ARC
  5
9B
330
1F
100
AcDbEntity
  8
0
  6
CONTINUOUS
 62
     7
100
AcDbCircle
 10
53.1467497533
 20
108.4882198195
 30
0.0
 40
9.707106781186553
100
AcDbArc
 50
180.0
 51
270.0
  0
LINE
  5
9C
330
1F
100
AcDbEntity
  8
0
  6
CONTINUOUS
 62
     7
100
AcDbLine
 10
43.4396429721
 20
108.4882198195
 30
0.0
 11
47.8538565344
 21
108.4882198195
 31
0.0
  0
ARC
  5
9D
330
1F
100
AcDbEntity
  8
0
  6
CONTINUOUS
 62
     7
100
AcDbCircle
 10
103.1467497533
 20
108.4882198195
 30
0.0
 40
9.707106781186553
100
AcDbArc
 50
270.0
 51
0.0
  0
LINE
  5
9E
330
1F
100
AcDbEntity
  8
0
  6
CONTINUOUS
 62
     7
100
AcDbLine
 10
43.4396429721
 20
158.4882198195
 30
0.0
 11
43.4396429721
 21
108.4882198195
 31
0.0
  0
LINE
  5
9F
330
1F
100
AcDbEntity
  8
0
  6
CONTINUOUS
 62
     7
100
AcDbLine
 10
103.1467497533
 20
168.1953266006
 30
0.0
 11
53.1467497533
 21
168.1953266006
 31
0.0
  0
LINE
  5
A0
330
1F
100
AcDbEntity
  8
0
  6
CONTINUOUS
 62
     7
100
AcDbLine
 10
112.8538565344
 20
158.4882198195
 30
0.0
 11
113.1467497533
 21
158.4882198195
 31
0.0
  0
LINE
  5
A1
330
1F
100
AcDbEntity
  8
0
  6
CONTINUOUS
 62
     7
100
AcDbLine
 10
113.1467497533
 20
158.4882198195
 30
0.0
 11
113.1467497533
 21
108.4882198195
 31
0.0
  0
LINE
  5
A2
330
1F
100
AcDbEntity
  8
0
  6
CONTINUOUS
 62
     7
100
AcDbLine
 10
112.8538565344
 20
108.4882198195
 30
0.0
 11
113.1467497533
 21
108.4882198195
 31
0.0
  0
ARC
  5
A3
330
1F
100
AcDbEntity
  8
0
  6
CONTINUOUS
 62
     7
100
AcDbCircle
 10
53.1467497533
 20
108.4882198195
 30
0.0
 40
10.0
100
AcDbArc
 50
180.0
 51
270.0
  0
LINE
  5
A4
330
1F
100
AcDbEntity
  8
0
  6
CONTINUOUS
 62
     7
100
AcDbLine
 10
43.1467497533
 20
108.4882198195
 30
0.0
 11
43.4396429721
 21
108.4882198195
 31
0.0
  0
LINE
  5
A5
330
1F
100
AcDbEntity
  8
0
  6
CONTINUOUS
 62
     7
100
AcDbLine
 10
53.1467497533
 20
98.4882198195
 30
0.0
 11
53.1467497533
 21
98.7811130383
 31
0.0
  0
LINE
  5
A6
330
1F
100
AcDbEntity
  8
0
  6
CONTINUOUS
 62
     7
100
AcDbLine
 10
103.1467497533
 20
168.1953266006
 30
0.0
 11
103.1467497533
 21
168.4882198195
 31
0.0
  0
ARC
  5
A7
330
1F
100
AcDbEntity
  8
0
  6
CONTINUOUS
 62
     7
100
AcDbCircle
 10
103.1467497533
 20
158.4882198195
 30
0.0
 40
10.0
100
AcDbArc
 50
0.0
 51
90.0
  0
ARC
  5
A8
330
1F
100
AcDbEntity
  8
0
  6
CONTINUOUS
 62
     7
100
AcDbCircle
 10
53.1467497533
 20
158.4882198195
 30
0.0
 40
10.0
100
AcDbArc
 50
90.0
 51
180.0
  0
LINE
  5
A9
330
1F
100
AcDbEntity
  8
0
  6
CONTINUOUS
 62
     7
100
AcDbLine
 10
53.1467497533
 20
168.1953266006
 30
0.0
 11
53.1467497533
 21
168.4882198195
 31
0.0
  0
LINE
  5
AA
330
1F
100
AcDbEntity
  8
0
  6
CONTINUOUS
 62
     7
100
AcDbLine
 10
43.1467497533
 20
158.4882198195
 30
0.0
 11
43.4396429721
 21
158.4882198195
 31
0.0
  0
LINE
  5
AB
330
1F
100
AcDbEntity
  8
0
  6
CONTINUOUS
 62
     7
100
AcDbLine
 10
103.1467497533
 20
98.4882198195
 30
0.0
 11
53.1467497533
 21
98.4882198195
 31
0.0
  0
LINE
  5
AC
330
1F
100
AcDbEntity
  8
0
  6
CONTINUOUS
 62
     7
100
AcDbLine
 10
103.1467497533
 20
98.4882198195
 30
0.0
 11
103.1467497533
 21
98.7811130383
 31
0.0
  0
LINE
  5
AD
330
1F
100
AcDbEntity
  8
0
  6
CONTINUOUS
 62
     7
100
AcDbLine
 10
53.1467497533
 20
168.4882198195
 30
0.0
 11
103.1467497533
 21
168.4882198195
 31
0.0
  0
LINE
  5
AE
330
1F
100
AcDbEntity
  8
0
  6
CONTINUOUS
 62
     7
100
AcDbLine
 10
43.1467497533
 20
108.4882198195
 30
0.0
 11
43.1467497533
 21
158.4882198195
 31
0.0
  0
ARC
  5
AF
330
1F
100
AcDbEntity
  8
0
  6
CONTINUOUS
 62
     7
100
AcDbCircle
 10
103.1467497533
 20
108.4882198195
 30
0.0
 40
10.0
100
AcDbArc
 50
270.0
 51
0.0
  0
LINE
  5
B0
330
1F
100
AcDbEntity
  8
0
  6
CONTINUOUS
 62
     7
100
AcDbLine
 10
171.1345718917
 20
145.9892198195
 30
0.0
 11
171.1345718917
 21
145.9882198195
 31
0.0
  0
SPLINE
  5
B1
330
1F
100
AcDbEntity
  8
0
  6
CONTINUOUS
 62
     7
100
AcDbSpline
210
0.0
220
0.0
230
1.0
 70
    24
 71
     3
 72
    14
 73
    10
 74
     0
 42
0.00000001
 43
0.00000001
 40
0.0
 40
0.0
 40
0.0
 40
0.0
 40
0.0921005365871966
 40
0.1885811201974384
 40
0.2948525773012127
 40
0.4131718684170211
 40
0.5898806476230779
 40
0.7865010052660263
 40
1.0
 40
1.0
 40
1.0
 40
1.0
 10
173.662171891675
 20
145.9892198194583
 30
0.0
 10
173.4889056742745
 20
145.9892198194583
 30
0.0
 10
173.1341331769523
 20
145.9892198194583
 30
0.0
 10
172.6480818935382
 20
145.9892198194583
 30
0.0
 10
172.2181283089978
 20
145.9892198194583
 30
0.0
 10
171.7989849208238
 20
145.9892198194583
 30
0.0
 10
171.4410338829216
 20
145.9892198194583
 30
0.0
 10
171.1834967813527
 20
145.9892198194583
 30
0.0
 10
171.1513215829117
 20
145.9892198194583
 30
0.0
 10
171.134571891675
 20
145.9892198194583
 30
0.0
  0
LINE
  5
B2
330
1F
100
AcDbEntity
  8
0
  6
CONTINUOUS
 62
     7
100
AcDbLine
 10
173.6621718917
 20
145.9892198195
 30
0.0
 11
173.6621718917
 21
145.9882198195
 31
0.0
  0
LINE
  5
B3
330
1F
100
AcDbEntity
  8
0
  6
CONTINUOUS
 62
     7
100
AcDbLine
 10
176.1897718917
 20
145.9892198195
 30
0.0
 11
176.1897718917
 21
145.9882198195
 31
0.0
  0
SPLINE
  5
B4
330
1F
100
AcDbEntity
  8
0
  6
CONTINUOUS
 62
     7
100
AcDbSpline
210
0.0
220
0.0
230
1.0
 70
    24
 71
     3
 72
    14
 73
    10
 74
     0
 42
0.00000001
 43
0.00000001
 40
0.0
 40
0.0
 40
0.0
 40
0.0
 40
0.2134989947339743
 40
0.4101193523769238
 40
0.5868281315829813
 40
0.7051474226987896
 40
0.8114188798025631
 40
0.9078994634128043
 40
1.0
 40
1.0
 40
1.0
 40
1.0
 10
176.189771891675
 20
145.9892198194583
 30
0.0
 10
176.1730222004383
 20
145.9892198194583
 30
0.0
 10
176.1408470019973
 20
145.9892198194583
 30
0.0
 10
175.8833099004284
 20
145.9892198194583
 30
0.0
 10
175.5253588625262
 20
145.9892198194583
 30
0.0
 10
175.1062154743522
 20
145.9892198194583
 30
0.0
 10
174.6762618898117
 20
145.9892198194583
 30
0.0
 10
174.1902106063977
 20
145.9892198194583
 30
0.0
 10
173.8354381090755
 20
145.9892198194583
 30
0.0
 10
173.662171891675
 20
145.9892198194583
 30
0.0
  0
LINE
  5
B5
330
1F
100
AcDbEntity
  8
0
  6
CONTINUOUS
 62
     7
100
AcDbLine
 10
166.6621718917
 20
107.4882198195
 30
0.0
 11
162.6621718917
 21
107.4882198195
 31
0.0
  0
LINE
  5
B6
330
1F
100
AcDbEntity
  8
0
  6
CONTINUOUS
 62
     7
100
AcDbLine
 10
162.6621718917
 20
107.4882198195
 30
0.0
 11
162.6621718917
 21
109.4882198195
 31
0.0
  0
LINE
  5
B7
330
1F
100
AcDbEntity
  8
0
  6
CONTINUOUS
 62
     7
100
AcDbLine
 10
162.6621718917
 20
109.4882198195
 30
0.0
 11
166.6621718917
 21
109.4882198195
 31
0.0
  0
LINE
  5
B8
330
1F
100
AcDbEntity
  8
0
  6
CONTINUOUS
 62
     7
100
AcDbLine
 10
166.6621718917
 20
109.4882198195
 30
0.0
 11
166.6621718917
 21
107.4882198195
 31
0.0
  0
LINE
  5
B9
330
1F
100
AcDbEntity
  8
0
  6
CONTINUOUS
 62
     7
100
AcDbLine
 10
166.6621718917
 20
157.4882198195
 30
0.0
 11
162.6621718917
 21
157.4882198195
 31
0.0
  0
LINE
  5
BA
330
1F
100
AcDbEntity
  8
0
  6
CONTINUOUS
 62
     7
100
AcDbLine
 10
162.6621718917
 20
157.4882198195
 30
0.0
 11
162.6621718917
 21
159.4882198195
 31
0.0
  0
LINE
  5
BB
330
1F
100
AcDbEntity
  8
0
  6
CONTINUOUS
 62
     7
100
AcDbLine
 10
162.6621718917
 20
159.4882198195
 30
0.0
 11
166.6621718917
 21
159.4882198195
 31
0.0
  0
LINE
  5
BC
330
1F
100
AcDbEntity
  8
0
  6
CONTINUOUS
 62
     7
100
AcDbLine
 10
166.6621718917
 20
159.4882198195
 30
0.0
 11
166.6621718917
 21
157.4882198195
 31
0.0
  0
LINE
  5
BD
330
1F
100
AcDbEntity
  8
0
  6
CONTINUOUS
 62
     7
100
AcDbLine
 10
162.6621718917
 20
157.4882198195
 30
0.0
 11
162.6621718917
 21
109.4882198195
 31
0.0
  0
LINE
  5
BE
330
1F
100
AcDbEntity
  8
0
  6
CONTINUOUS
 62
     7
100
AcDbLine
 10
166.6621718917
 20
157.4882198195
 30
0.0
 11
166.6621718917
 21
109.4882198195
 31
0.0
  0
LINE
  5
BF
330
1F
100
AcDbEntity
  8
0
  6
CONTINUOUS
 62
     7
100
AcDbLine
 10
201.6621718917
 20
120.9882198195
 30
0.0
 11
166.6621718917
 21
120.9882198195
 31
0.0
  0
LINE
  5
C0
330
1F
100
AcDbEntity
  8
0
  6
CONTINUOUS
 62
     7
100
AcDbLine
 10
166.6621718917
 20
125.9882198195
 30
0.0
 11
201.6621718917
 21
125.9882198195
 31
0.0
  0
LINE
  5
C1
330
1F
100
AcDbEntity
  8
0
  6
CONTINUOUS
 62
     7
100
AcDbLine
 10
201.6621718917
 20
140.9882198195
 30
0.0
 11
166.6621718917
 21
140.9882198195
 31
0.0
  0
LINE
  5
C2
330
1F
100
AcDbEntity
  8
0
  6
CONTINUOUS
 62
     7
100
AcDbLine
 10
166.6621718917
 20
145.9882198195
 30
0.0
 11
201.6621718917
 21
145.9882198195
 31
0.0
  0
LINE
  5
C3
330
1F
100
AcDbEntity
  8
0
  6
CONTINUOUS
 62
     7
100
AcDbLine
 10
206.3692786729
 20
158.4882198195
 30
0.0
 11
206.3692786729
 21
168.1953266006
 31
0.0
  0
ARC
  5
C4
330
1F
100
AcDbEntity
  8
0
  6
CONTINUOUS
 62
     7
100
AcDbCircle
 10
207.076385454
 20
167.4882198195
 30
0.0
 40
1.000000000000028
100
AcDbArc
 50
90.0
 51
135.0
  0
LINE
  5
C5
330
1F
100
AcDbEntity
  8
0
  6
CONTINUOUS
 62
     7
100
AcDbLine
 10
207.076385454
 20
168.4882198195
 30
0.0
 11
207.076385454
 21
158.4882198195
 31
0.0
  0
LINE
  5
C6
330
1F
100
AcDbEntity
  8
0
  6
CONTINUOUS
 62
     7
100
AcDbLine
 10
206.3692786729
 20
158.4882198195
 30
0.0
 11
207.076385454
 21
158.4882198195
 31
0.0
  0
LINE
  5
C7
330
1F
100
AcDbEntity
  8
0
  6
CONTINUOUS
 62
     7
100
AcDbLine
 10
206.3692786729
 20
108.4882198195
 30
0.0
 11
206.3692786729
 21
158.4882198195
 31
0.0
  0
LINE
  5
C8
330
1F
100
AcDbEntity
  8
0
  6
CONTINUOUS
 62
     7
100
AcDbLine
 10
207.076385454
 20
158.4882198195
 30
0.0
 11
207.076385454
 21
108.4882198195
 31
0.0
  0
LINE
  5
C9
330
1F
100
AcDbEntity
  8
0
  6
CONTINUOUS
 62
     7
100
AcDbLine
 10
206.3692786729
 20
108.4882198195
 30
0.0
 11
207.076385454
 21
108.4882198195
 31
0.0
  0
LINE
  5
CA
330
1F
100
AcDbEntity
  8
0
  6
CONTINUOUS
 62
     7
100
AcDbLine
 10
207.076385454
 20
168.4882198195
 30
0.0
 11
221.2479583293
 21
168.4882198195
 31
0.0
  0
LINE
  5
CB
330
1F
100
AcDbEntity
  8
0
  6
CONTINUOUS
 62
     7
100
AcDbLine
 10
221.2479583293
 20
158.4882198195
 30
0.0
 11
221.2479583293
 21
168.4882198195
 31
0.0
  0
LINE
  5
CC
330
1F
100
AcDbEntity
  8
0
  6
CONTINUOUS
 62
     7
100
AcDbLine
 10
221.2479583293
 20
158.4882198195
 30
0.0
 11
207.076385454
 21
158.4882198195
 31
0.0
  0
LINE
  5
CD
330
1F
100
AcDbEntity
  8
0
  6
CONTINUOUS
 62
     7
100
AcDbLine
 10
221.2479583293
 20
108.4882198195
 30
0.0
 11
221.2479583293
 21
158.4882198195
 31
0.0
  0
LINE
  5
CE
330
1F
100
AcDbEntity
  8
0
  6
CONTINUOUS
 62
     7
100
AcDbLine
 10
207.076385454
 20
108.4882198195
 30
0.0
 11
221.2479583293
 21
108.4882198195
 31
0.0
  0
LINE
  5
CF
330
1F
100
AcDbEntity
  8
0
  6
CONTINUOUS
 62
     7
100
AcDbLine
 10
207.076385454
 20
108.4882198195
 30
0.0
 11
207.076385454
 21
98.4882198195
 31
0.0
  0
ARC
  5
D0
330
1F
100
AcDbEntity
  8
0
  6
CONTINUOUS
 62
     7
100
AcDbCircle
 10
207.076385454
 20
99.4882198195
 30
0.0
 40
1.000000000000008
100
AcDbArc
 50
225.0
 51
270.0
  0
LINE
  5
D1
330
1F
100
AcDbEntity
  8
0
  6
CONTINUOUS
 62
     7
100
AcDbLine
 10
206.3692786729
 20
98.7811130383
 30
0.0
 11
206.3692786729
 21
108.4882198195
 31
0.0
  0
LINE
  5
D2
330
1F
100
AcDbEntity
  8
0
  6
CONTINUOUS
 62
     7
100
AcDbLine
 10
221.2479583293
 20
98.4882198195
 30
0.0
 11
221.2479583293
 21
108.4882198195
 31
0.0
  0
LINE
  5
D3
330
1F
100
AcDbEntity
  8
0
  6
CONTINUOUS
 62
     7
100
AcDbLine
 10
221.2479583293
 20
98.4882198195
 30
0.0
 11
207.076385454
 21
98.4882198195
 31
0.0
  0
ARC
  5
D4
330
1F
100
AcDbEntity
  8
0
  6
CONTINUOUS
 62
     7
100
AcDbCircle
 10
221.2479583293
 20
167.4882198195
 30
0.0
 40
1.0
100
AcDbArc
 50
45.0
 51
90.0
  0
LINE
  5
D5
330
1F
100
AcDbEntity
  8
0
  6
CONTINUOUS
 62
     7
100
AcDbLine
 10
221.9550651105
 20
168.1953266006
 30
0.0
 11
221.9550651105
 21
158.4882198195
 31
0.0
  0
LINE
  5
D6
330
1F
100
AcDbEntity
  8
0
  6
CONTINUOUS
 62
     7
100
AcDbLine
 10
221.2479583293
 20
158.4882198195
 30
0.0
 11
221.9550651105
 21
158.4882198195
 31
0.0
  0
LINE
  5
D7
330
1F
100
AcDbEntity
  8
0
  6
CONTINUOUS
 62
     7
100
AcDbLine
 10
221.9550651105
 20
158.4882198195
 30
0.0
 11
221.9550651105
 21
108.4882198195
 31
0.0
  0
LINE
  5
D8
330
1F
100
AcDbEntity
  8
0
  6
CONTINUOUS
 62
     7
100
AcDbLine
 10
221.2479583293
 20
108.4882198195
 30
0.0
 11
221.9550651105
 21
108.4882198195
 31
0.0
  0
LINE
  5
D9
330
1F
100
AcDbEntity
  8
0
  6
CONTINUOUS
 62
     7
100
AcDbLine
 10
221.9550651105
 20
108.4882198195
 30
0.0
 11
221.9550651105
 21
98.7811130383
 31
0.0
  0
ARC
  5
DA
330
1F
100
AcDbEntity
  8
0
  6
CONTINUOUS
 62
     7
100
AcDbCircle
 10
221.2479583293
 20
99.4882198195
 30
0.0
 40
1.0
100
AcDbArc
 50
270.0
 51
315.0
  0
LINE
  5
DB
330
1F
100
AcDbEntity
  8
0
  6
CONTINUOUS
 62
     7
100
AcDbLine
 10
201.9550651105
 20
163.7811130383
 30
0.0
 11
201.9550651105
 21
158.4882198195
 31
0.0
  0
LINE
  5
DC
330
1F
100
AcDbEntity
  8
0
  6
CONTINUOUS
 62
     7
100
AcDbLine
 10
201.9550651105
 20
163.7811130383
 30
0.0
 11
206.3692786729
 21
168.1953266006
 31
0.0
  0
LINE
  5
DD
330
1F
100
AcDbEntity
  8
0
  6
CONTINUOUS
 62
     7
100
AcDbLine
 10
206.3692786729
 20
158.4882198195
 30
0.0
 11
201.9550651105
 21
158.4882198195
 31
0.0
  0
LINE
  5
DE
330
1F
100
AcDbEntity
  8
0
  6
CONTINUOUS
 62
     7
100
AcDbLine
 10
201.9550651105
 20
158.4882198195
 30
0.0
 11
201.9550651105
 21
108.4882198195
 31
0.0
  0
LINE
  5
DF
330
1F
100
AcDbEntity
  8
0
  6
CONTINUOUS
 62
     7
100
AcDbLine
 10
206.3692786729
 20
108.4882198195
 30
0.0
 11
201.9550651105
 21
108.4882198195
 31
0.0
  0
LINE
  5
E0
330
1F
100
AcDbEntity
  8
0
  6
CONTINUOUS
 62
     7
100
AcDbLine
 10
201.9550651105
 20
108.4882198195
 30
0.0
 11
201.9550651105
 21
103.1953266006
 31
0.0
  0
LINE
  5
E1
330
1F
100
AcDbEntity
  8
0
  6
CONTINUOUS
 62
     7
100
AcDbLine
 10
206.3692786729
 20
98.7811130383
 30
0.0
 11
201.9550651105
 21
103.1953266006
 31
0.0
  0
LINE
  5
E2
330
1F
100
AcDbEntity
  8
0
  6
CONTINUOUS
 62
     7
100
AcDbLine
 10
226.3692786729
 20
158.4882198195
 30
0.0
 11
226.3692786729
 21
163.7811130383
 31
0.0
  0
LINE
  5
E3
330
1F
100
AcDbEntity
  8
0
  6
CONTINUOUS
 62
     7
100
AcDbLine
 10
221.9550651105
 20
158.4882198195
 30
0.0
 11
226.3692786729
 21
158.4882198195
 31
0.0
  0
LINE
  5
E4
330
1F
100
AcDbEntity
  8
0
  6
CONTINUOUS
 62
     7
100
AcDbLine
 10
226.3692786729
 20
163.7811130383
 30
0.0
 11
221.9550651105
 21
168.1953266006
 31
0.0
  0
LINE
  5
E5
330
1F
100
AcDbEntity
  8
0
  6
CONTINUOUS
 62
     7
100
AcDbLine
 10
226.3692786729
 20
108.4882198195
 30
0.0
 11
226.3692786729
 21
158.4882198195
 31
0.0
  0
LINE
  5
E6
330
1F
100
AcDbEntity
  8
0
  6
CONTINUOUS
 62
     7
100
AcDbLine
 10
221.9550651105
 20
108.4882198195
 30
0.0
 11
226.3692786729
 21
108.4882198195
 31
0.0
  0
LINE
  5
E7
330
1F
100
AcDbEntity
  8
0
  6
CONTINUOUS
 62
     7
100
AcDbLine
 10
226.3692786729
 20
103.1953266006
 30
0.0
 11
226.3692786729
 21
108.4882198195
 31
0.0
  0
LINE
  5
E8
330
1F
100
AcDbEntity
  8
0
  6
CONTINUOUS
 62
     7
100
AcDbLine
 10
221.9550651105
 20
98.7811130383
 30
0.0
 11
226.3692786729
 21
103.1953266006
 31
0.0
  0
LINE
  5
E9
330
1F
100
AcDbEntity
  8
0
  6
CONTINUOUS
 62
     7
100
AcDbLine
 10
201.6621718917
 20
158.4882198195
 30
0.0
 11
201.6621718917
 21
163.0740062571
 31
0.0
  0
ARC
  5
EA
330
1F
100
AcDbEntity
  8
0
  6
CONTINUOUS
 62
     7
100
AcDbCircle
 10
202.6621718917
 20
163.0740062571
 30
0.0
 40
1.0
100
AcDbArc
 50
135.0
 51
180.0
  0
LINE
  5
EB
330
1F
100
AcDbEntity
  8
0
  6
CONTINUOUS
 62
     7
100
AcDbLine
 10
201.6621718917
 20
158.4882198195
 30
0.0
 11
201.9550651105
 21
158.4882198195
 31
0.0
  0
LINE
  5
EC
330
1F
100
AcDbEntity
  8
0
  6
CONTINUOUS
 62
     7
100
AcDbLine
 10
201.6621718917
 20
108.4882198195
 30
0.0
 11
201.6621718917
 21
158.4882198195
 31
0.0
  0
LINE
  5
ED
330
1F
100
AcDbEntity
  8
0
  6
CONTINUOUS
 62
     7
100
AcDbLine
 10
201.6621718917
 20
108.4882198195
 30
0.0
 11
201.9550651105
 21
108.4882198195
 31
0.0
  0
LINE
  5
EE
330
1F
100
AcDbEntity
  8
0
  6
CONTINUOUS
 62
     7
100
AcDbLine
 10
201.6621718917
 20
103.9024333818
 30
0.0
 11
201.6621718917
 21
108.4882198195
 31
0.0
  0
ARC
  5
EF
330
1F
100
AcDbEntity
  8
0
  6
CONTINUOUS
 62
     7
100
AcDbCircle
 10
202.6621718917
 20
103.9024333818
 30
0.0
 40
1.0
100
AcDbArc
 50
180.0
 51
225.0
  0
LINE
  5
F0
330
1F
100
AcDbEntity
  8
0
  6
CONTINUOUS
 62
     7
100
AcDbLine
 10
226.3692786729
 20
158.4882198195
 30
0.0
 11
226.6621718917
 21
158.4882198195
 31
0.0
  0
LINE
  5
F1
330
1F
100
AcDbEntity
  8
0
  6
CONTINUOUS
 62
     7
100
AcDbLine
 10
226.6621718917
 20
158.4882198195
 30
0.0
 11
226.6621718917
 21
108.4882198195
 31
0.0
  0
LINE
  5
F2
330
1F
100
AcDbEntity
  8
0
  6
CONTINUOUS
 62
     7
100
AcDbLine
 10
226.3692786729
 20
108.4882198195
 30
0.0
 11
226.6621718917
 21
108.4882198195
 31
0.0
  0
ARC
  5
F3
330
1F
100
AcDbEntity
  8
0
  6
CONTINUOUS
 62
     7
100
AcDbCircle
 10
225.6621718917
 20
163.0740062571
 30
0.0
 40
1.000000000000008
100
AcDbArc
 50
0.0
 51
45.0
  0
LINE
  5
F4
330
1F
100
AcDbEntity
  8
0
  6
CONTINUOUS
 62
     7
100
AcDbLine
 10
226.6621718917
 20
163.0740062571
 30
0.0
 11
226.6621718917
 21
158.4882198195
 31
0.0
  0
LINE
  5
F5
330
1F
100
AcDbEntity
  8
0
  6
CONTINUOUS
 62
     7
100
AcDbLine
 10
226.6621718917
 20
108.4882198195
 30
0.0
 11
226.6621718917
 21
103.9024333818
 31
0.0
  0
ARC
  5
F6
330
1F
100
AcDbEntity
  8
0
  6
CONTINUOUS
 62
     7
100
AcDbCircle
 10
225.6621718917
 20
103.9024333818
 30
0.0
 40
1.000000000000018
100
AcDbArc
 50
315.0
 51
0.0
  0
LINE
  5
F7
330
1F
100
AcDbEntity
  8
0
  6
CONTINUOUS
 62
     7
100
AcDbLine
 10
78.1467497533
 20
50.323559655
 30
0.0
 11
78.1772842932
 21
50.323559655
 31
0.0
  0
LINE
  5
F8
330
1F
100
AcDbEntity
  8
0
  6
CONTINUOUS
 62
     7
100
AcDbLine
 10
78.1467497533
 20
50.323559655
 30
0.0
 11
78.1467497533
 21
50.3846287348
 31
0.0
  0
POINT
  5
F9
330
1F
100
AcDbEntity
  8
0
  6
CONTINUOUS
 62
     7
100
AcDbPoint
 10
78.1467497533
 20
50.323559655
 30
0.0
  0
SPLINE
  5
FA
330
1F
100
AcDbEntity
  8
0
  6
CONTINUOUS
 62
     7
100
AcDbSpline
210
0.0
220
0.0
230
1.0
 70
     8
 71
     3
 72
    14
 73
    10
 74
     0
 42
0.00000001
 43
0.00000001
 40
0.0
 40
0.0
 40
0.0
 40
0.0
 40
0.0902891402792937
 40
0.1854497523410863
 40
0.2910419221567778
 40
0.4092940885583089
 40
0.5867099877506506
 40
0.7847116609745663
 40
0.9999999999999999
 40
0.9999999999999999
 40
0.9999999999999999
 40
0.9999999999999999
 10
73.8192497532599
 20
50.32355965496492
 30
0.0
 10
73.83737013380569
 20
50.48554244574512
 30
0.0
 10
73.87458856421875
 20
50.81824766744491
 30
0.0
 10
74.15529333293483
 20
51.27218063155308
 30
0.0
 10
74.5630503375346
 20
51.67318623409071
 30
0.0
 10
75.16906715912604
 20
52.06438955653062
 30
0.0
 10
75.98966342612975
 20
52.39825805496531
 30
0.0
 10
77.02309957258208
 20
52.63843412419611
 30
0.0
 10
77.76189911283751
 20
52.66843289226072
 30
0.0
 10
78.14674975325991
 20
52.68405965496492
 30
0.0
  0
SPLINE
  5
FB
330
1F
100
AcDbEntity
  8
0
  6
CONTINUOUS
 62
     7
100
AcDbSpline
210
0.0
220
0.0
230
1.0
 70
     8
 71
     3
 72
    14
 73
    10
 74
     0
 42
0.00000001
 43
0.00000001
 40
0.0
 40
0.0
 40
0.0
 40
0.0
 40
0.215288339025435
 40
0.4132900122493511
 40
0.5907059114416927
 40
0.7089580778432235
 40
0.8145502476589145
 40
0.9097108597207068
 40
1.0
 40
1.0
 40
1.0
 40
1.0
 10
78.14674975325994
 20
47.96305965496492
 30
0.0
 10
77.76189911283753
 20
47.97868641766915
 30
0.0
 10
77.0230995725821
 20
48.00868518573375
 30
0.0
 10
75.98966342612975
 20
48.24886125496451
 30
0.0
 10
75.16906715912604
 20
48.58272975339922
 30
0.0
 10
74.5630503375346
 20
48.97393307583913
 30
0.0
 10
74.15529333293483
 20
49.37493867837676
 30
0.0
 10
73.87458856421875
 20
49.82887164248493
 30
0.0
 10
73.83737013380568
 20
50.16157686418472
 30
0.0
 10
73.8192497532599
 20
50.32355965496492
 30
0.0
  0
SPLINE
  5
FC
330
1F
100
AcDbEntity
  8
0
  6
CONTINUOUS
 62
     7
100
AcDbSpline
210
0.0
220
0.0
230
1.0
 70
     8
 71
     3
 72
    14
 73
    10
 74
     0
 42
0.00000001
 43
0.00000001
 40
0.0
 40
0.0
 40
0.0
 40
0.0
 40
0.0902891402792949
 40
0.1854497523410859
 40
0.291041922156777
 40
0.4092940885583086
 40
0.5867099877506495
 40
0.7847116609745654
 40
0.9999999999999999
 40
0.9999999999999999
 40
0.9999999999999999
 40
0.9999999999999999
 10
82.47424975325993
 20
50.32355965496492
 30
0.0
 10
82.45612937271414
 20
50.16157686418472
 30
0.0
 10
82.41891094230107
 20
49.82887164248493
 30
0.0
 10
82.13820617358502
 20
49.37493867837678
 30
0.0
 10
81.73044916898525
 20
48.97393307583912
 30
0.0
 10
81.1244323473938
 20
48.58272975339921
 30
0.0
 10
80.30383608039008
 20
48.24886125496452
 30
0.0
 10
79.27039993393778
 20
48.00868518573375
 30
0.0
 10
78.53160039368234
 20
47.97868641766914
 30
0.0
 10
78.14674975325994
 20
47.96305965496492
 30
0.0
  0
SPLINE
  5
FD
330
1F
100
AcDbEntity
  8
0
  6
CONTINUOUS
 62
     7
100
AcDbSpline
210
0.0
220
0.0
230
1.0
 70
     8
 71
     3
 72
    14
 73
    10
 74
     0
 42
0.00000001
 43
0.00000001
 40
0.0
 40
0.0
 40
0.0
 40
0.0
 40
0.0921005365871966
 40
0.1885811201974381
 40
0.294852577301212
 40
0.4131718684170202
 40
0.5898806476230772
 40
0.7865010052660264
 40
1.0
 40
1.0
 40
1.0
 40
1.0
 10
82.64674975325991
 20
50.32355965496492
 30
0.0
 10
82.62801277301419
 20
50.15029343756445
 30
0.0
 10
82.58964773351727
 20
49.79552094024226
 30
0.0
 10
82.29873533996663
 20
49.30946965682816
 30
0.0
 10
81.87473518548651
 20
48.87951607228776
 30
0.0
 10
81.24482875952057
 20
48.46037268411374
 30
0.0
 10
80.39131884832643
 20
48.10242164621152
 30
0.0
 10
79.31596182612145
 20
47.84488454464267
 30
0.0
 10
78.54703560652777
 20
47.81270934620165
 30
0.0
 10
78.14674975325994
 20
47.79595965496492
 30
0.0
  0
SPLINE
  5
FE
330
1F
100
AcDbEntity
  8
0
  6
CONTINUOUS
 62
     7
100
AcDbSpline
210
0.0
220
0.0
230
1.0
 70
     8
 71
     3
 72
    14
 73
    10
 74
     0
 42
0.00000001
 43
0.00000001
 40
0.0
 40
0.0
 40
0.0
 40
0.0
 40
0.2134989947339743
 40
0.4101193523769238
 40
0.5868281315829813
 40
0.7051474226987896
 40
0.8114188798025631
 40
0.9078994634128043
 40
1.0
 40
1.0
 40
1.0
 40
1.0
 10
78.14674975325994
 20
47.79595965496492
 30
0.0
 10
77.74646389999211
 20
47.81270934620165
 30
0.0
 10
76.97753768039841
 20
47.84488454464265
 30
0.0
 10
75.9021806581934
 20
48.10242164621153
 30
0.0
 10
75.04867074699926
 20
48.46037268411373
 30
0.0
 10
74.41876432103331
 20
48.87951607228777
 30
0.0
 10
73.99476416655321
 20
49.30946965682816
 30
0.0
 10
73.70385177300257
 20
49.79552094024226
 30
0.0
 10
73.66548673350563
 20
50.15029343756446
 30
0.0
 10
73.64674975325991
 20
50.32355965496492
 30
0.0
  0
SPLINE
  5
FF
330
1F
100
AcDbEntity
  8
0
  6
CONTINUOUS
 62
     7
100
AcDbSpline
210
0.0
220
0.0
230
1.0
 70
     8
 71
     3
 72
    14
 73
    10
 74
     0
 42
0.00000001
 43
0.00000001
 40
0.0
 40
0.0
 40
0.0
 40
0.0
 40
0.0921005365871966
 40
0.1885811201974384
 40
0.2948525773012127
 40
0.4131718684170211
 40
0.5898806476230779
 40
0.7865010052660263
 40
1.0
 40
1.0
 40
1.0
 40
1.0
 10
73.64674975325991
 20
50.32355965496492
 30
0.0
 10
73.66548673350563
 20
50.4968258723654
 30
0.0
 10
73.70385177300257
 20
50.85159836968759
 30
0.0
 10
73.99476416655321
 20
51.33764965310169
 30
0.0
 10
74.41876432103332
 20
51.76760323764208
 30
0.0
 10
75.04867074699926
 20
52.18674662581612
 30
0.0
 10
75.9021806581934
 20
52.5446976637183
 30
0.0
 10
76.97753768039838
 20
52.8022347652872
 30
0.0
 10
77.74646389999208
 20
52.83440996372818
 30
0.0
 10
78.14674975325991
 20
52.85115965496492
 30
0.0
  0
SPLINE
  5
100
330
1F
100
AcDbEntity
  8
0
  6
CONTINUOUS
 62
     7
100
AcDbSpline
210
0.0
220
0.0
230
1.0
 70
     8
 71
     3
 72
    14
 73
    10
 74
     0
 42
0.00000001
 43
0.00000001
 40
0.0
 40
0.0
 40
0.0
 40
0.0
 40
0.213498994733975
 40
0.410119352376925
 40
0.5868281315829822
 40
0.7051474226987903
 40
0.8114188798025637
 40
0.9078994634128043
 40
1.0
 40
1.0
 40
1.0
 40
1.0
 10
78.14674975325991
 20
52.85115965496492
 30
0.0
 10
78.54703560652774
 20
52.83440996372818
 30
0.0
 10
79.31596182612144
 20
52.80223476528717
 30
0.0
 10
80.39131884832643
 20
52.5446976637183
 30
0.0
 10
81.24482875952059
 20
52.18674662581611
 30
0.0
 10
81.87473518548653
 20
51.76760323764208
 30
0.0
 10
82.29873533996664
 20
51.33764965310168
 30
0.0
 10
82.58964773351728
 20
50.85159836968758
 30
0.0
 10
82.62801277301419
 20
50.4968258723654
 30
0.0
 10
82.64674975325991
 20
50.32355965496492
 30
0.0
  0
SPLINE
  5
101
330
1F
100
AcDbEntity
  8
0
  6
CONTINUOUS
 62
     7
100
AcDbSpline
210
0.0
220
0.0
230
1.0
 70
     8
 71
     3
 72
    14
 73
    10
 74
     0
 42
0.00000001
 43
0.00000001
 40
0.0
 40
0.0
 40
0.0
 40
0.0
 40
0.2152883390254353
 40
0.4132900122493516
 40
0.5907059114416936
 40
0.7089580778432243
 40
0.8145502476589151
 40
0.9097108597207069
 40
1.0
 40
1.0
 40
1.0
 40
1.0
 10
78.14674975325991
 20
52.68405965496492
 30
0.0
 10
78.53160039368231
 20
52.66843289226072
 30
0.0
 10
79.27039993393775
 20
52.6384341241961
 30
0.0
 10
80.30383608039008
 20
52.3982580549653
 30
0.0
 10
81.1244323473938
 20
52.06438955653063
 30
0.0
 10
81.73044916898525
 20
51.67318623409069
 30
0.0
 10
82.13820617358502
 20
51.27218063155308
 30
0.0
 10
82.41891094230107
 20
50.81824766744489
 30
0.0
 10
82.45612937271414
 20
50.48554244574511
 30
0.0
 10
82.47424975325993
 20
50.32355965496492
 30
0.0
  0
LINE
  5
102
330
1F
100
AcDbEntity
  8
0
  6
CONTINUOUS
 62
     7
100
AcDbLine
 10
74.4551497533
 20
49.960759655
 30
0.0
 11
74.4551497533
 21
50.231959655
 31
0.0
  0
LINE
  5
103
330
1F
100
AcDbEntity
  8
0
  6
CONTINUOUS
 62
     7
100
AcDbLine
 10
74.4551497533
 20
50.231959655
 30
0.0
 11
75.0802497533
 21
50.231959655
 31
0.0
  0
LINE
  5
104
330
1F
100
AcDbEntity
  8
0
  6
CONTINUOUS
 62
     7
100
AcDbLine
 10
75.0802497533
 20
50.231959655
 30
0.0
 11
75.0802497533
 21
49.919359655
 31
0.0
  0
LINE
  5
105
330
1F
100
AcDbEntity
  8
0
  6
CONTINUOUS
 62
     7
100
AcDbLine
 10
75.0802497533
 20
49.919359655
 30
0.0
 11
76.2119497533
 21
49.919359655
 31
0.0
  0
LINE
  5
106
330
1F
100
AcDbEntity
  8
0
  6
CONTINUOUS
 62
     7
100
AcDbLine
 10
76.2119497533
 20
49.919359655
 30
0.0
 11
76.2119497533
 21
50.738559655
 31
0.0
  0
LINE
  5
107
330
1F
100
AcDbEntity
  8
0
  6
CONTINUOUS
 62
     7
100
AcDbLine
 10
76.2119497533
 20
50.738559655
 30
0.0
 11
75.5221497533
 21
50.738559655
 31
0.0
  0
LINE
  5
108
330
1F
100
AcDbEntity
  8
0
  6
CONTINUOUS
 62
     7
100
AcDbLine
 10
75.5221497533
 20
50.738559655
 30
0.0
 11
75.5221497533
 21
51.148159655
 31
0.0
  0
LINE
  5
109
330
1F
100
AcDbEntity
  8
0
  6
CONTINUOUS
 62
     7
100
AcDbLine
 10
75.5221497533
 20
51.148159655
 30
0.0
 11
76.8371497533
 21
51.148159655
 31
0.0
  0
SPLINE
  5
10A
330
1F
100
AcDbEntity
  8
0
  6
CONTINUOUS
 62
     7
100
AcDbSpline
210
0.0
220
0.0
230
1.0
 70
     8
 71
     3
 72
    11
 73
     7
 74
     0
 42
0.00000001
 43
0.00000001
 40
0.0
 40
0.0
 40
0.0
 40
0.0
 40
0.2833448308640329
 40
0.5580866109706035
 40
0.7754665892499429
 40
1.0
 40
1.0
 40
1.0
 40
1.0
 10
76.83714975325992
 20
49.96015965496492
 30
0.0
 10
76.82816271545194
 20
49.8915846392407
 30
0.0
 10
76.8104615085599
 20
49.75651671509301
 30
0.0
 10
76.68711599356934
 20
49.60670265871275
 30
0.0
 10
76.5368078314314
 20
49.51550955497194
 30
0.0
 10
76.43014464616135
 20
49.50453550212538
 30
0.0
 10
76.37594975325993
 20
49.49895965496492
 30
0.0
  0
LINE
  5
10B
330
1F
100
AcDbEntity
  8
0
  6
CONTINUOUS
 62
     7
100
AcDbLine
 10
76.3759497533
 20
49.498959655
 30
0.0
 11
74.9168497533
 21
49.498959655
 31
0.0
  0
SPLINE
  5
10C
330
1F
100
AcDbEntity
  8
0
  6
CONTINUOUS
 62
     7
100
AcDbSpline
210
0.0
220
0.0
230
1.0
 70
     8
 71
     3
 72
    11
 73
     7
 74
     0
 42
0.00000001
 43
0.00000001
 40
0.0
 40
0.0
 40
0.0
 40
0.0
 40
0.2832327603404957
 40
0.5580114153644091
 40
0.7754417085638381
 40
1.0
 40
1.0
 40
1.0
 40
1.0
 10
74.91684975325991
 20
49.49895965496492
 30
0.0
 10
74.84822611719605
 20
49.50796597981623
 30
0.0
 10
74.71302716548787
 20
49.52570980320542
 30
0.0
 10
74.56307137045452
 20
49.6492117163123
 30
0.0
 10
74.47173507210616
 20
49.79969545004543
 30
0.0
 10
74.46073731356023
 20
49.90649745080999
 30
0.0
 10
74.45514975325993
 20
49.96075965496492
 30
0.0
  0
LINE
  5
10D
330
1F
100
AcDbEntity
  8
0
  6
CONTINUOUS
 62
     7
100
AcDbLine
 10
76.8371497533
 20
51.148159655
 30
0.0
 11
76.8371497533
 21
49.960159655
 31
0.0
  0
LINE
  5
10E
330
1F
100
AcDbEntity
  8
0
  6
CONTINUOUS
 62
     7
100
AcDbLine
 10
79.4347497533
 20
50.686359655
 30
0.0
 11
79.4347497533
 21
49.498959655
 31
0.0
  0
LINE
  5
10F
330
1F
100
AcDbEntity
  8
0
  6
CONTINUOUS
 62
     7
100
AcDbLine
 10
79.4347497533
 20
49.498959655
 30
0.0
 11
78.8094497533
 21
49.498959655
 31
0.0
  0
LINE
  5
110
330
1F
100
AcDbEntity
  8
0
  6
CONTINUOUS
 62
     7
100
AcDbLine
 10
78.8094497533
 20
49.498959655
 30
0.0
 11
78.8094497533
 21
50.738559655
 31
0.0
  0
LINE
  5
111
330
1F
100
AcDbEntity
  8
0
  6
CONTINUOUS
 62
     7
100
AcDbLine
 10
78.8094497533
 20
50.738559655
 30
0.0
 11
77.6240497533
 21
50.738559655
 31
0.0
  0
LINE
  5
112
330
1F
100
AcDbEntity
  8
0
  6
CONTINUOUS
 62
     7
100
AcDbLine
 10
77.6240497533
 20
50.738559655
 30
0.0
 11
77.6240497533
 21
49.498959655
 31
0.0
  0
LINE
  5
113
330
1F
100
AcDbEntity
  8
0
  6
CONTINUOUS
 62
     7
100
AcDbLine
 10
77.6240497533
 20
49.498959655
 30
0.0
 11
77.0095497533
 21
49.498959655
 31
0.0
  0
LINE
  5
114
330
1F
100
AcDbEntity
  8
0
  6
CONTINUOUS
 62
     7
100
AcDbLine
 10
77.0095497533
 20
51.148159655
 30
0.0
 11
78.9730497533
 21
51.148159655
 31
0.0
  0
SPLINE
  5
115
330
1F
100
AcDbEntity
  8
0
  6
CONTINUOUS
 62
     7
100
AcDbSpline
210
0.0
220
0.0
230
1.0
 70
     8
 71
     3
 72
    11
 73
     7
 74
     0
 42
0.00000001
 43
0.00000001
 40
0.0
 40
0.0
 40
0.0
 40
0.0
 40
0.2832834002916871
 40
0.5580419236669862
 40
0.7754510728848657
 40
1.0
 40
1.0
 40
1.0
 40
1.0
 10
78.97304975325994
 20
51.14815965496492
 30
0.0
 10
79.04168874273195
 20
51.13915641521492
 30
0.0
 10
79.17690116140552
 20
51.12142087114792
 30
0.0
 10
79.3268651344057
 20
50.99791034554204
 30
0.0
 10
79.41817388392892
 20
50.84741874074971
 30
0.0
 10
79.42916527529493
 20
50.74062111767726
 30
0.0
 10
79.43474975325995
 20
50.68635965496492
 30
0.0
  0
LINE
  5
116
330
1F
100
AcDbEntity
  8
0
  6
CONTINUOUS
 62
     7
100
AcDbLine
 10
77.0095497533
 20
49.498959655
 30
0.0
 11
77.0095497533
 21
51.148159655
 31
0.0
  0
LINE
  5
117
330
1F
100
AcDbEntity
  8
0
  6
CONTINUOUS
 62
     7
100
AcDbLine
 10
80.2107497533
 20
50.738559655
 30
0.0
 11
81.8383497533
 21
50.738559655
 31
0.0
  0
LINE
  5
118
330
1F
100
AcDbEntity
  8
0
  6
CONTINUOUS
 62
     7
100
AcDbLine
 10
80.2107497533
 20
49.498959655
 30
0.0
 11
80.2107497533
 21
50.738559655
 31
0.0
  0
LINE
  5
119
330
1F
100
AcDbEntity
  8
0
  6
CONTINUOUS
 62
     7
100
AcDbLine
 10
79.5856497533
 20
49.498959655
 30
0.0
 11
80.2107497533
 21
49.498959655
 31
0.0
  0
LINE
  5
11A
330
1F
100
AcDbEntity
  8
0
  6
CONTINUOUS
 62
     7
100
AcDbLine
 10
79.5856497533
 20
50.686359655
 30
0.0
 11
79.5856497533
 21
49.498959655
 31
0.0
  0
SPLINE
  5
11B
330
1F
100
AcDbEntity
  8
0
  6
CONTINUOUS
 62
     7
100
AcDbSpline
210
0.0
220
0.0
230
1.0
 70
     8
 71
     3
 72
    11
 73
     7
 74
     0
 42
0.00000001
 43
0.00000001
 40
0.0
 40
0.0
 40
0.0
 40
0.0
 40
0.2832831090848536
 40
0.5580598110863044
 40
0.7754688048580538
 40
1.0
 40
1.0
 40
1.0
 40
1.0
 10
80.04744975325994
 20
51.14815965496492
 30
0.0
 10
79.9788051702388
 20
51.13915532250474
 30
0.0
 10
79.8435772593456
 20
51.12141703910365
 30
0.0
 10
79.69358297861689
 20
50.99791497817436
 30
0.0
 10
79.60223534271303
 20
50.84742532037384
 30
0.0
 10
79.59123736333763
 20
50.74062194921458
 30
0.0
 10
79.58564975325993
 20
50.68635965496492
 30
0.0
  0
LINE
  5
11C
330
1F
100
AcDbEntity
  8
0
  6
CONTINUOUS
 62
     7
100
AcDbLine
 10
81.8383497533
 20
51.148159655
 30
0.0
 11
80.0474497533
 21
51.148159655
 31
0.0
  0
LINE
  5
11D
330
1F
100
AcDbEntity
  8
0
  6
CONTINUOUS
 62
     7
100
AcDbLine
 10
81.8383497533
 20
50.738559655
 30
0.0
 11
81.8383497533
 21
51.148159655
 31
0.0
  0
LINE
  5
11E
330
1F
100
AcDbEntity
  8
0
  6
CONTINUOUS
 62
     7
100
AcDbLine
 10
81.4827497533
 20
50.156559655
 30
0.0
 11
81.4827497533
 21
50.501459655
 31
0.0
  0
LINE
  5
11F
330
1F
100
AcDbEntity
  8
0
  6
CONTINUOUS
 62
     7
100
AcDbLine
 10
80.4371497533
 20
50.156559655
 30
0.0
 11
81.4827497533
 21
50.156559655
 31
0.0
  0
LINE
  5
120
330
1F
100
AcDbEntity
  8
0
  6
CONTINUOUS
 62
     7
100
AcDbLine
 10
80.4371497533
 20
50.501459655
 30
0.0
 11
80.4371497533
 21
50.156559655
 31
0.0
  0
LINE
  5
121
330
1F
100
AcDbEntity
  8
0
  6
CONTINUOUS
 62
     7
100
AcDbLine
 10
81.4827497533
 20
50.501459655
 30
0.0
 11
80.4371497533
 21
50.501459655
 31
0.0
  0
LINE
  5
122
330
1F
100
AcDbEntity
  8
0
  6
CONTINUOUS
 62
     7
100
AcDbLine
 10
52.1467497533
 20
57.323559655
 30
0.0
 11
52.1467497533
 21
61.323559655
 31
0.0
  0
LINE
  5
123
330
1F
100
AcDbEntity
  8
0
  6
CONTINUOUS
 62
     7
100
AcDbLine
 10
52.1467497533
 20
61.323559655
 30
0.0
 11
54.1467497533
 21
61.323559655
 31
0.0
  0
LINE
  5
124
330
1F
100
AcDbEntity
  8
0
  6
CONTINUOUS
 62
     7
100
AcDbLine
 10
54.1467497533
 20
61.323559655
 30
0.0
 11
54.1467497533
 21
57.323559655
 31
0.0
  0
LINE
  5
125
330
1F
100
AcDbEntity
  8
0
  6
CONTINUOUS
 62
     7
100
AcDbLine
 10
54.1467497533
 20
57.323559655
 30
0.0
 11
52.1467497533
 21
57.323559655
 31
0.0
  0
LINE
  5
126
330
1F
100
AcDbEntity
  8
0
  6
CONTINUOUS
 62
     7
100
AcDbLine
 10
102.1467497533
 20
57.323559655
 30
0.0
 11
102.1467497533
 21
61.323559655
 31
0.0
  0
LINE
  5
127
330
1F
100
AcDbEntity
  8
0
  6
CONTINUOUS
 62
     7
100
AcDbLine
 10
102.1467497533
 20
61.323559655
 30
0.0
 11
104.1467497533
 21
61.323559655
 31
0.0
  0
LINE
  5
128
330
1F
100
AcDbEntity
  8
0
  6
CONTINUOUS
 62
     7
100
AcDbLine
 10
104.1467497533
 20
61.323559655
 30
0.0
 11
104.1467497533
 21
57.323559655
 31
0.0
  0
LINE
  5
129
330
1F
100
AcDbEntity
  8
0
  6
CONTINUOUS
 62
     7
100
AcDbLine
 10
104.1467497533
 20
57.323559655
 30
0.0
 11
102.1467497533
 21
57.323559655
 31
0.0
  0
LINE
  5
12A
330
1F
100
AcDbEntity
  8
0
  6
CONTINUOUS
 62
     7
100
AcDbLine
 10
102.1467497533
 20
57.323559655
 30
0.0
 11
54.1467497533
 21
57.323559655
 31
0.0
  0
LINE
  5
12B
330
1F
100
AcDbEntity
  8
0
  6
CONTINUOUS
 62
     7
100
AcDbLine
 10
102.1467497533
 20
61.323559655
 30
0.0
 11
54.1467497533
 21
61.323559655
 31
0.0
  0
LINE
  5
12C
330
1F
100
AcDbEntity
  8
0
  6
CONTINUOUS
 62
     7
100
AcDbLine
 10
65.6467497533
 20
22.323559655
 30
0.0
 11
65.6467497533
 21
57.323559655
 31
0.0
  0
LINE
  5
12D
330
1F
100
AcDbEntity
  8
0
  6
CONTINUOUS
 62
     7
100
AcDbLine
 10
70.6467497533
 20
57.323559655
 30
0.0
 11
70.6467497533
 21
22.323559655
 31
0.0
  0
LINE
  5
12E
330
1F
100
AcDbEntity
  8
0
  6
CONTINUOUS
 62
     7
100
AcDbLine
 10
85.6467497533
 20
22.323559655
 30
0.0
 11
85.6467497533
 21
57.323559655
 31
0.0
  0
LINE
  5
12F
330
1F
100
AcDbEntity
  8
0
  6
CONTINUOUS
 62
     7
100
AcDbLine
 10
90.6467497533
 20
57.323559655
 30
0.0
 11
90.6467497533
 21
22.323559655
 31
0.0
  0
LINE
  5
130
330
1F
100
AcDbEntity
  8
0
  6
CONTINUOUS
 62
     7
100
AcDbLine
 10
113.1467497533
 20
16.9093460926
 30
0.0
 11
103.1467497533
 21
16.9093460926
 31
0.0
  0
LINE
  5
131
330
1F
100
AcDbEntity
  8
0
  6
CONTINUOUS
 62
     7
100
AcDbLine
 10
103.1467497533
 20
17.6164528738
 30
0.0
 11
103.1467497533
 21
16.9093460926
 31
0.0
  0
LINE
  5
132
330
1F
100
AcDbEntity
  8
0
  6
CONTINUOUS
 62
     7
100
AcDbLine
 10
103.1467497533
 20
17.6164528738
 30
0.0
 11
112.8538565344
 21
17.6164528738
 31
0.0
  0
ARC
  5
133
330
1F
100
AcDbEntity
  8
0
  6
CONTINUOUS
 62
     7
100
AcDbCircle
 10
112.1467497533
 20
16.9093460926
 30
0.0
 40
1.000000000000006
100
AcDbArc
 50
0.0
 51
45.0
  0
LINE
  5
134
330
1F
100
AcDbEntity
  8
0
  6
CONTINUOUS
 62
     7
100
AcDbLine
 10
43.4396429721
 20
17.6164528738
 30
0.0
 11
53.1467497533
 21
17.6164528738
 31
0.0
  0
LINE
  5
135
330
1F
100
AcDbEntity
  8
0
  6
CONTINUOUS
 62
     7
100
AcDbLine
 10
53.1467497533
 20
17.6164528738
 30
0.0
 11
53.1467497533
 21
16.9093460926
 31
0.0
  0
LINE
  5
136
330
1F
100
AcDbEntity
  8
0
  6
CONTINUOUS
 62
     7
100
AcDbLine
 10
53.1467497533
 20
16.9093460926
 30
0.0
 11
43.1467497533
 21
16.9093460926
 31
0.0
  0
ARC
  5
137
330
1F
100
AcDbEntity
  8
0
  6
CONTINUOUS
 62
     7
100
AcDbCircle
 10
44.1467497533
 20
16.9093460926
 30
0.0
 40
1.0
100
AcDbArc
 50
135.0
 51
180.0
  0
LINE
  5
138
330
1F
100
AcDbEntity
  8
0
  6
CONTINUOUS
 62
     7
100
AcDbLine
 10
53.1467497533
 20
17.6164528738
 30
0.0
 11
103.1467497533
 21
17.6164528738
 31
0.0
  0
LINE
  5
139
330
1F
100
AcDbEntity
  8
0
  6
CONTINUOUS
 62
     7
100
AcDbLine
 10
103.1467497533
 20
16.9093460926
 30
0.0
 11
53.1467497533
 21
16.9093460926
 31
0.0
  0
LINE
  5
13A
330
1F
100
AcDbEntity
  8
0
  6
CONTINUOUS
 62
     7
100
AcDbLine
 10
103.1467497533
 20
2.7377732173
 30
0.0
 11
103.1467497533
 21
16.9093460926
 31
0.0
  0
LINE
  5
13B
330
1F
100
AcDbEntity
  8
0
  6
CONTINUOUS
 62
     7
100
AcDbLine
 10
53.1467497533
 20
2.7377732173
 30
0.0
 11
103.1467497533
 21
2.7377732173
 31
0.0
  0
LINE
  5
13C
330
1F
100
AcDbEntity
  8
0
  6
CONTINUOUS
 62
     7
100
AcDbLine
 10
53.1467497533
 20
16.9093460926
 30
0.0
 11
53.1467497533
 21
2.7377732173
 31
0.0
  0
LINE
  5
13D
330
1F
100
AcDbEntity
  8
0
  6
CONTINUOUS
 62
     7
100
AcDbLine
 10
43.1467497533
 20
2.7377732173
 30
0.0
 11
53.1467497533
 21
2.7377732173
 31
0.0
  0
LINE
  5
13E
330
1F
100
AcDbEntity
  8
0
  6
CONTINUOUS
 62
     7
100
AcDbLine
 10
43.1467497533
 20
2.7377732173
 30
0.0
 11
43.1467497533
 21
16.9093460926
 31
0.0
  0
LINE
  5
13F
330
1F
100
AcDbEntity
  8
0
  6
CONTINUOUS
 62
     7
100
AcDbLine
 10
113.1467497533
 20
16.9093460926
 30
0.0
 11
113.1467497533
 21
2.7377732173
 31
0.0
  0
LINE
  5
140
330
1F
100
AcDbEntity
  8
0
  6
CONTINUOUS
 62
     7
100
AcDbLine
 10
103.1467497533
 20
2.7377732173
 30
0.0
 11
113.1467497533
 21
2.7377732173
 31
0.0
  0
LINE
  5
141
330
1F
100
AcDbEntity
  8
0
  6
CONTINUOUS
 62
     7
100
AcDbLine
 10
112.8538565344
 20
2.0306664362
 30
0.0
 11
103.1467497533
 21
2.0306664362
 31
0.0
  0
LINE
  5
142
330
1F
100
AcDbEntity
  8
0
  6
CONTINUOUS
 62
     7
100
AcDbLine
 10
103.1467497533
 20
2.0306664362
 30
0.0
 11
103.1467497533
 21
2.7377732173
 31
0.0
  0
ARC
  5
143
330
1F
100
AcDbEntity
  8
0
  6
CONTINUOUS
 62
     7
100
AcDbCircle
 10
112.1467497533
 20
2.7377732173
 30
0.0
 40
0.9999999999999971
100
AcDbArc
 50
315.0
 51
0.0
  0
LINE
  5
144
330
1F
100
AcDbEntity
  8
0
  6
CONTINUOUS
 62
     7
100
AcDbLine
 10
53.1467497533
 20
2.0306664362
 30
0.0
 11
53.1467497533
 21
2.7377732173
 31
0.0
  0
LINE
  5
145
330
1F
100
AcDbEntity
  8
0
  6
CONTINUOUS
 62
     7
100
AcDbLine
 10
53.1467497533
 20
2.0306664362
 30
0.0
 11
43.4396429721
 21
2.0306664362
 31
0.0
  0
ARC
  5
146
330
1F
100
AcDbEntity
  8
0
  6
CONTINUOUS
 62
     7
100
AcDbCircle
 10
44.1467497533
 20
2.7377732173
 30
0.0
 40
1.0
100
AcDbArc
 50
180.0
 51
225.0
  0
LINE
  5
147
330
1F
100
AcDbEntity
  8
0
  6
CONTINUOUS
 62
     7
100
AcDbLine
 10
103.1467497533
 20
2.0306664362
 30
0.0
 11
53.1467497533
 21
2.0306664362
 31
0.0
  0
LINE
  5
148
330
1F
100
AcDbEntity
  8
0
  6
CONTINUOUS
 62
     7
100
AcDbLine
 10
53.1467497533
 20
22.0306664362
 30
0.0
 11
47.8538565344
 21
22.0306664362
 31
0.0
  0
LINE
  5
149
330
1F
100
AcDbEntity
  8
0
  6
CONTINUOUS
 62
     7
100
AcDbLine
 10
53.1467497533
 20
22.0306664362
 30
0.0
 11
53.1467497533
 21
17.6164528738
 31
0.0
  0
LINE
  5
14A
330
1F
100
AcDbEntity
  8
0
  6
CONTINUOUS
 62
     7
100
AcDbLine
 10
43.4396429721
 20
17.6164528738
 30
0.0
 11
47.8538565344
 21
22.0306664362
 31
0.0
  0
LINE
  5
14B
330
1F
100
AcDbEntity
  8
0
  6
CONTINUOUS
 62
     7
100
AcDbLine
 10
108.4396429721
 20
22.0306664362
 30
0.0
 11
103.1467497533
 21
22.0306664362
 31
0.0
  0
LINE
  5
14C
330
1F
100
AcDbEntity
  8
0
  6
CONTINUOUS
 62
     7
100
AcDbLine
 10
108.4396429721
 20
22.0306664362
 30
0.0
 11
112.8538565344
 21
17.6164528738
 31
0.0
  0
LINE
  5
14D
330
1F
100
AcDbEntity
  8
0
  6
CONTINUOUS
 62
     7
100
AcDbLine
 10
103.1467497533
 20
22.0306664362
 30
0.0
 11
103.1467497533
 21
17.6164528738
 31
0.0
  0
LINE
  5
14E
330
1F
100
AcDbEntity
  8
0
  6
CONTINUOUS
 62
     7
100
AcDbLine
 10
103.1467497533
 20
22.0306664362
 30
0.0
 11
53.1467497533
 21
22.0306664362
 31
0.0
  0
LINE
  5
14F
330
1F
100
AcDbEntity
  8
0
  6
CONTINUOUS
 62
     7
100
AcDbLine
 10
47.8538565344
 20
-2.3835471262
 30
0.0
 11
53.1467497533
 21
-2.3835471262
 31
0.0
  0
LINE
  5
150
330
1F
100
AcDbEntity
  8
0
  6
CONTINUOUS
 62
     7
100
AcDbLine
 10
43.4396429721
 20
2.0306664362
 30
0.0
 11
47.8538565344
 21
-2.3835471262
 31
0.0
  0
LINE
  5
151
330
1F
100
AcDbEntity
  8
0
  6
CONTINUOUS
 62
     7
100
AcDbLine
 10
53.1467497533
 20
-2.3835471262
 30
0.0
 11
53.1467497533
 21
2.0306664362
 31
0.0
  0
LINE
  5
152
330
1F
100
AcDbEntity
  8
0
  6
CONTINUOUS
 62
     7
100
AcDbLine
 10
53.1467497533
 20
-2.3835471262
 30
0.0
 11
103.1467497533
 21
-2.3835471262
 31
0.0
  0
LINE
  5
153
330
1F
100
AcDbEntity
  8
0
  6
CONTINUOUS
 62
     7
100
AcDbLine
 10
103.1467497533
 20
-2.3835471262
 30
0.0
 11
103.1467497533
 21
2.0306664362
 31
0.0
  0
LINE
  5
154
330
1F
100
AcDbEntity
  8
0
  6
CONTINUOUS
 62
     7
100
AcDbLine
 10
103.1467497533
 20
-2.3835471262
 30
0.0
 11
108.4396429721
 21
-2.3835471262
 31
0.0
  0
LINE
  5
155
330
1F
100
AcDbEntity
  8
0
  6
CONTINUOUS
 62
     7
100
AcDbLine
 10
108.4396429721
 20
-2.3835471262
 30
0.0
 11
112.8538565344
 21
2.0306664362
 31
0.0
  0
LINE
  5
156
330
1F
100
AcDbEntity
  8
0
  6
CONTINUOUS
 62
     7
100
AcDbLine
 10
53.1467497533
 20
22.323559655
 30
0.0
 11
103.1467497533
 21
22.323559655
 31
0.0
  0
LINE
  5
157
330
1F
100
AcDbEntity
  8
0
  6
CONTINUOUS
 62
     7
100
AcDbLine
 10
103.1467497533
 20
22.323559655
 30
0.0
 11
103.1467497533
 21
22.0306664362
 31
0.0
  0
LINE
  5
158
330
1F
100
AcDbEntity
  8
0
  6
CONTINUOUS
 62
     7
100
AcDbLine
 10
53.1467497533
 20
22.323559655
 30
0.0
 11
53.1467497533
 21
22.0306664362
 31
0.0
  0
LINE
  5
159
330
1F
100
AcDbEntity
  8
0
  6
CONTINUOUS
 62
     7
100
AcDbLine
 10
103.1467497533
 20
22.323559655
 30
0.0
 11
107.7325361909
 21
22.323559655
 31
0.0
  0
ARC
  5
15A
330
1F
100
AcDbEntity
  8
0
  6
CONTINUOUS
 62
     7
100
AcDbCircle
 10
107.7325361909
 20
21.323559655
 30
0.0
 40
1.000000000000006
100
AcDbArc
 50
45.0
 51
90.0
  0
LINE
  5
15B
330
1F
100
AcDbEntity
  8
0
  6
CONTINUOUS
 62
     7
100
AcDbLine
 10
48.5609633156
 20
22.323559655
 30
0.0
 11
53.1467497533
 21
22.323559655
 31
0.0
  0
ARC
  5
15C
330
1F
100
AcDbEntity
  8
0
  6
CONTINUOUS
 62
     7
100
AcDbCircle
 10
48.5609633156
 20
21.323559655
 30
0.0
 40
1.0
100
AcDbArc
 50
90.0
 51
135.0
  0
LINE
  5
15D
330
1F
100
AcDbEntity
  8
0
  6
CONTINUOUS
 62
     7
100
AcDbLine
 10
53.1467497533
 20
-2.3835471262
 30
0.0
 11
53.1467497533
 21
-2.676440345
 31
0.0
  0
LINE
  5
15E
330
1F
100
AcDbEntity
  8
0
  6
CONTINUOUS
 62
     7
100
AcDbLine
 10
53.1467497533
 20
-2.676440345
 30
0.0
 11
48.5609633156
 21
-2.676440345
 31
0.0
  0
ARC
  5
15F
330
1F
100
AcDbEntity
  8
0
  6
CONTINUOUS
 62
     7
100
AcDbCircle
 10
48.5609633156
 20
-1.676440345
 30
0.0
 40
0.9999999999999996
100
AcDbArc
 50
225.0
 51
270.0
  0
LINE
  5
160
330
1F
100
AcDbEntity
  8
0
  6
CONTINUOUS
 62
     7
100
AcDbLine
 10
103.1467497533
 20
-2.3835471262
 30
0.0
 11
103.1467497533
 21
-2.676440345
 31
0.0
  0
LINE
  5
161
330
1F
100
AcDbEntity
  8
0
  6
CONTINUOUS
 62
     7
100
AcDbLine
 10
103.1467497533
 20
-2.676440345
 30
0.0
 11
53.1467497533
 21
-2.676440345
 31
0.0
  0
LINE
  5
162
330
1F
100
AcDbEntity
  8
0
  6
CONTINUOUS
 62
     7
100
AcDbLine
 10
107.7325361909
 20
-2.676440345
 30
0.0
 11
103.1467497533
 21
-2.676440345
 31
0.0
  0
ARC
  5
163
330
1F
100
AcDbEntity
  8
0
  6
CONTINUOUS
 62
     7
100
AcDbCircle
 10
107.7325361909
 20
-1.676440345
 30
0.0
 40
1.000000000000005
100
AcDbArc
 50
270.0
 51
315.0
  0
ENDSEC
  0
SECTION
  2
OBJECTS
  0
DICTIONARY
  5
C
330
0
100
AcDbDictionary
  3
ACAD_GROUP
350
D
  3
ACAD_MLINESTYLE
350
17
  3
ACAD_SCALELIST
350
47
  3
DWGPROPS
350
164
  0
DICTIONARY
  5
D
102
{ACAD_REACTORS
330
C
102
}
330
C
100
AcDbDictionary
  0
DICTIONARY
  5
17
102
{ACAD_REACTORS
330
C
102
}
330
C
100
AcDbDictionary
  3
STANDARD
350
18
  0
DICTIONARY
  5
47
102
{ACAD_REACTORS
330
C
102
}
330
C
100
AcDbDictionary
  0
XRECORD
  5
164
102
{ACAD_REACTORS
330
C
102
}
330
C
100
AcDbXrecord
  1
DWGPROPS COOKIE
  2

  3

  4

  6

  7

  8
Pedro.Queiros
  9

300
=
301
=
302
=
303
=
304
=
305
=
306
=
307
=
308
=
309
=
 40
0.0
 41
2459716.666790718
 42
2459716.6667911
  1

 90
        0
  0
MLINESTYLE
  5
18
102
{ACAD_REACTORS
330
17
102
}
330
17
100
AcDbMlineStyle
  2
Standard
 70
     0
  3

 62
   256
 51
90.0
 52
90.0
 71
     2
 49
0.5
 62
   256
  6
BYLAYER
 49
-0.5
 62
   256
  6
BYLAYER
  0
ENDSEC
  0
EOF
