  0
SECTION
  2
HEADER
  9
$ACADVER
  1
AC1014
  9
$ACADMAINTVER
 70
     9
  9
$DWGCODEPAGE
  3
ANSI_1252
  9
$INSBASE
 10
0.0
 20
0.0
 30
0.0
  9
$EXTMIN
 10
0.0
 20
0.0
 30
0.0
  9
$EXTMAX
 10
279.4
 20
215.9
 30
0.0
  9
$LIMMIN
 10
0.0
 20
0.0
  9
$LIMMAX
 10
279.4
 20
215.9
  9
$ORTHOMODE
 70
     0
  9
$REGENMODE
 70
     1
  9
$FILLMODE
 70
     1
  9
$QTEXTMODE
 70
     0
  9
$MIRRTEXT
 70
     1
  9
$DRAGMODE
 70
     2
  9
$LTSCALE
 40
1.0
  9
$OSMODE
 70
    37
  9
$ATTMODE
 70
     1
  9
$TEXTSIZE
 40
3.5
  9
$TRACEWID
 40
1.0
  9
$TEXTSTYLE
  7
STANDARD
  9
$CLAYER
  8
0
  9
$CELTYPE
  6
BYLAYER
  9
$CECOLOR
 62
   256
  9
$CELTSCALE
 40
1.0
  9
$DELOBJ
 70
     1
  9
$DISPSILH
 70
     0
  9
$DIMSCALE
 40
1.0
  9
$DIMASZ
 40
3.302
  9
$DIMEXO
 40
1.0
  9
$DIMDLI
 40
3.75
  9
$DIMRND
 40
0.0
  9
$DIMDLE
 40
0.0
  9
$DIMEXE
 40
1.0
  9
$DIMTP
 40
0.0
  9
$DIMTM
 40
0.0
  9
$DIMTXT
 40
3.5
  9
$DIMCEN
 40
2.5
  9
$DIMTSZ
 40
0.0
  9
$DIMTOL
 70
     0
  9
$DIMLIM
 70
     0
  9
$DIMTIH
 70
     1
  9
$DIMTOH
 70
     1
  9
$DIMSE1
 70
     0
  9
$DIMSE2
 70
     0
  9
$DIMTAD
 70
     1
  9
$DIMZIN
 70
     1
  9
$DIMBLK
  1

  9
$DIMASO
 70
     1
  9
$DIMSHO
 70
     1
  9
$DIMPOST
  1

  9
$DIMAPOST
  1

  9
$DIMALT
 70
     0
  9
$DIMALTD
 70
     3
  9
$DIMALTF
 40
0.0393700787
  9
$DIMLFAC
 40
5.0
  9
$DIMTOFL
 70
     1
  9
$DIMTVP
 40
0.0
  9
$DIMTIX
 70
     0
  9
$DIMSOXD
 70
     0
  9
$DIMSAH
 70
     0
  9
$DIMBLK1
  1

  9
$DIMBLK2
  1

  9
$DIMSTYLE
  2
ISO-25
  9
$DIMCLRD
 70
     0
  9
$DIMCLRE
 70
     0
  9
$DIMCLRT
 70
     0
  9
$DIMTFAC
 40
1.0
  9
$DIMGAP
 40
1.524
  9
$DIMJUST
 70
     0
  9
$DIMSD1
 70
     0
  9
$DIMSD2
 70
     0
  9
$DIMTOLJ
 70
     0
  9
$DIMTZIN
 70
     1
  9
$DIMALTZ
 70
     0
  9
$DIMALTTZ
 70
     0
  9
$DIMFIT
 70
     3
  9
$DIMUPT
 70
     0
  9
$DIMUNIT
 70
     2
  9
$DIMDEC
 70
     2
  9
$DIMTDEC
 70
     2
  9
$DIMALTU
 70
     2
  9
$DIMALTTD
 70
     3
  9
$DIMTXSTY
  7
STANDARD
  9
$DIMAUNIT
 70
     0
  9
$LUNITS
 70
     2
  9
$LUPREC
 70
     2
  9
$SKETCHINC
 40
1.0
  9
$FILLETRAD
 40
0.0
  9
$AUNITS
 70
     0
  9
$AUPREC
 70
     2
  9
$MENU
  1
.
  9
$ELEVATION
 40
0.0
  9
$PELEVATION
 40
0.0
  9
$THICKNESS
 40
0.0
  9
$LIMCHECK
 70
     0
  9
$CHAMFERA
 40
0.0
  9
$CHAMFERB
 40
0.0
  9
$CHAMFERC
 40
0.0
  9
$CHAMFERD
 40
0.0
  9
$SKPOLY
 70
     0
  9
$TDCREATE
 40
2459716.741304202
  9
$TDUPDATE
 40
2459716.741304803
  9
$TDINDWG
 40
0.0000000116
  9
$TDUSRTIMER
 40
0.0000000116
  9
$USRTIMER
 70
     1
  9
$ANGBASE
 50
0.0
  9
$ANGDIR
 70
     0
  9
$PDMODE
 70
     0
  9
$PDSIZE
 40
-1.0
  9
$PLINEWID
 40
0.0
  9
$COORDS
 70
     1
  9
$SPLFRAME
 70
     0
  9
$SPLINETYPE
 70
     6
  9
$SPLINESEGS
 70
     8
  9
$ATTDIA
 70
     0
  9
$ATTREQ
 70
     1
  9
$HANDLING
 70
     1
  9
$HANDSEED
  5
18C
  9
$SURFTAB1
 70
     6
  9
$SURFTAB2
 70
     6
  9
$SURFTYPE
 70
     6
  9
$SURFU
 70
     6
  9
$SURFV
 70
     6
  9
$UCSNAME
  2

  9
$UCSORG
 10
0.0
 20
0.0
 30
0.0
  9
$UCSXDIR
 10
1.0
 20
0.0
 30
0.0
  9
$UCSYDIR
 10
0.0
 20
1.0
 30
0.0
  9
$PUCSNAME
  2

  9
$PUCSORG
 10
0.0
 20
0.0
 30
0.0
  9
$PUCSXDIR
 10
1.0
 20
0.0
 30
0.0
  9
$PUCSYDIR
 10
0.0
 20
1.0
 30
0.0
  9
$USERI1
 70
     0
  9
$USERI2
 70
     0
  9
$USERI3
 70
     0
  9
$USERI4
 70
     0
  9
$USERI5
 70
     0
  9
$USERR1
 40
0.0
  9
$USERR2
 40
0.0
  9
$USERR3
 40
0.0
  9
$USERR4
 40
0.0
  9
$USERR5
 40
0.0
  9
$WORLDVIEW
 70
     1
  9
$SHADEDGE
 70
     3
  9
$SHADEDIF
 70
    70
  9
$TILEMODE
 70
     1
  9
$MAXACTVP
 70
    64
  9
$PINSBASE
 10
0.0
 20
0.0
 30
0.0
  9
$PLIMCHECK
 70
     0
  9
$PEXTMIN
 10
1.0000000000E+20
 20
1.0000000000E+20
 30
1.0000000000E+20
  9
$PEXTMAX
 10
-1.0000000000E+20
 20
-1.0000000000E+20
 30
-1.0000000000E+20
  9
$PLIMMIN
 10
0.0
 20
0.0
  9
$PLIMMAX
 10
420.0
 20
297.0
  9
$UNITMODE
 70
     0
  9
$VISRETAIN
 70
     1
  9
$PLINEGEN
 70
     0
  9
$PSLTSCALE
 70
     1
  9
$TREEDEPTH
 70
  3020
  9
$PICKSTYLE
 70
     1
  9
$CMLSTYLE
  2
STANDARD
  9
$CMLJUST
 70
     0
  9
$CMLSCALE
 40
20.0
  9
$PROXYGRAPHICS
 70
     1
  9
$MEASUREMENT
 70
     1
  0
ENDSEC
  0
SECTION
  2
CLASSES
  0
CLASS
  1
ACDBDICTIONARYWDFLT
  2
AcDbDictionaryWithDefault
  3
ObjectDBX Classes
 90
        0
280
     0
281
     0
  0
CLASS
  1
VISUALSTYLE
  2
AcDbVisualStyle
  3
ObjectDBX Classes
 90
     4095
280
     0
281
     0
  0
CLASS
  1
MATERIAL
  2
AcDbMaterial
  3
ObjectDBX Classes
 90
     1153
280
     0
281
     0
  0
CLASS
  1
SCALE
  2
AcDbScale
  3
ObjectDBX Classes
 90
     1153
280
     0
281
     0
  0
CLASS
  1
TABLESTYLE
  2
AcDbTableStyle
  3
ObjectDBX Classes
 90
     4095
280
     0
281
     0
  0
CLASS
  1
MLEADERSTYLE
  2
AcDbMLeaderStyle
  3
ACDB_MLEADERSTYLE_CLASS
 90
     4095
280
     0
281
     0
  0
CLASS
  1
SUN
  2
AcDbSun
  3
SCENEOE
 90
     1153
280
     0
281
     0
  0
CLASS
  1
XRECORD
  2
AcDbXrecord
  3
ObjectDBX Classes
 90
        0
280
     0
281
     0
  0
CLASS
  1
LWPOLYLINE
  2
AcDbPolyline
  3
ObjectDBX Classes
 90
        0
280
     0
281
     1
  0
CLASS
  1
HATCH
  2
AcDbHatch
  3
ObjectDBX Classes
 90
        0
280
     0
281
     1
  0
ENDSEC
  0
SECTION
  2
TABLES
  0
TABLE
  2
VPORT
  5
8
330
0
100
AcDbSymbolTable
 70
     1
  0
VPORT
  5
29
330
8
100
AcDbSymbolTableRecord
100
AcDbViewportTableRecord
  2
*ACTIVE
 70
     0
 10
0.0
 20
0.0
 11
1.0
 21
1.0
 12
139.7
 22
107.95
 13
0.0
 23
0.0
 14
10.0
 24
10.0
 15
10.0
 25
10.0
 16
0.0
 26
0.0
 36
1.0
 17
0.0
 27
0.0
 37
0.0
 40
215.9
 41
1.2941176471
 42
50.0
 43
0.0
 44
0.0
 50
0.0
 51
0.0
 71
     0
 72
  2000
 73
     1
 74
     3
 75
     0
 76
     0
 77
     0
 78
     0
  0
ENDTAB
  0
TABLE
  2
LTYPE
  5
5
330
0
100
AcDbSymbolTable
 70
     6
  0
LTYPE
  5
14
330
5
100
AcDbSymbolTableRecord
100
AcDbLinetypeTableRecord
  2
BYBLOCK
 70
     0
  3

 72
    65
 73
     0
 40
0.0
  0
LTYPE
  5
15
330
5
100
AcDbSymbolTableRecord
100
AcDbLinetypeTableRecord
  2
BYLAYER
 70
     0
  3

 72
    65
 73
     0
 40
0.0
  0
LTYPE
  5
16
330
5
100
AcDbSymbolTableRecord
100
AcDbLinetypeTableRecord
  2
CONTINUOUS
 70
     0
  3
Solid line
 72
    65
 73
     0
 40
0.0
  0
LTYPE
  5
5E
330
5
100
AcDbSymbolTableRecord
100
AcDbLinetypeTableRecord
  2
HIDDEN
 70
     0
  3
Hidden __ __ __ __ __ __ __ __ __ __ __ __ __ __
 72
    65
 73
     2
 40
1.905
 49
1.27
 74
     0
 49
-0.635
 74
     0
  0
LTYPE
  5
5F
330
5
100
AcDbSymbolTableRecord
100
AcDbLinetypeTableRecord
  2
PHANTOM
 70
     0
  3
Phantom ______  __  __  ______  __  __  ______
 72
    65
 73
     6
 40
12.7
 49
6.35
 74
     0
 49
-1.27
 74
     0
 49
1.27
 74
     0
 49
-1.27
 74
     0
 49
1.27
 74
     0
 49
-1.27
 74
     0
  0
LTYPE
  5
60
330
5
100
AcDbSymbolTableRecord
100
AcDbLinetypeTableRecord
  2
CENTER
 70
     0
  3
Center ____ _ ____ _ ____ _ ____ _ ____ _ ____
 72
    65
 73
     4
 40
10.16
 49
6.35
 74
     0
 49
-1.27
 74
     0
 49
1.27
 74
     0
 49
-1.27
 74
     0
  0
LTYPE
  5
61
330
5
100
AcDbSymbolTableRecord
100
AcDbLinetypeTableRecord
  2
CENTERX2
 70
     0
  3
Center (2x) ________  __  ________  __  _____
 72
    65
 73
     4
 40
20.32
 49
12.7
 74
     0
 49
-2.54
 74
     0
 49
2.54
 74
     0
 49
-2.54
 74
     0
  0
LTYPE
  5
62
330
5
100
AcDbSymbolTableRecord
100
AcDbLinetypeTableRecord
  2
DOT2
 70
     0
  3
Dot (.5x) ........................................
 72
    65
 73
     2
 40
0.635
 49
0.0
 74
     0
 49
-0.635
 74
     0
  0
ENDTAB
  0
TABLE
  2
LAYER
  5
2
330
0
100
AcDbSymbolTable
 70
     1
  0
LAYER
  5
10
330
2
100
AcDbSymbolTableRecord
100
AcDbLayerTableRecord
  2
0
 70
     0
 62
     7
  6
CONTINUOUS
  0
ENDTAB
  0
TABLE
  2
STYLE
  5
3
330
0
100
AcDbSymbolTable
 70
     1
  0
STYLE
  5
11
330
3
100
AcDbSymbolTableRecord
100
AcDbTextStyleTableRecord
  2
STANDARD
 70
     0
 40
0.0
 41
1.0
 50
0.0
 71
     0
 42
3.5
  3
GOTHIC.TTF
  4

1001
ACAD
1000
CENTURY GOTHIC
1071
       34
  0
ENDTAB
  0
TABLE
  2
VIEW
  5
6
330
0
100
AcDbSymbolTable
 70
     0
  0
ENDTAB
  0
TABLE
  2
UCS
  5
7
330
0
100
AcDbSymbolTable
 70
     0
  0
ENDTAB
  0
TABLE
  2
APPID
  5
9
330
0
100
AcDbSymbolTable
 70
     1
  0
APPID
  5
12
330
9
100
AcDbSymbolTableRecord
100
AcDbRegAppTableRecord
  2
ACAD
 70
     0
  0
ENDTAB
  0
TABLE
  2
DIMSTYLE
  5
A
330
0
100
AcDbSymbolTable
 70
     1
  0
DIMSTYLE
105
27
330
A
100
AcDbSymbolTableRecord
100
AcDbDimStyleTableRecord
  2
ISO-25
 70
     0
  3

  4

  5

  6

  7

 40
1.0
 41
2.5
 42
0.625
 43
3.75
 44
1.25
 45
0.0
 46
0.0
 47
0.0
 48
0.0
140
2.5
141
2.5
142
0.0
143
0.0393700787
144
1.0
145
0.0
146
1.0
147
0.625
 71
     0
 72
     0
 73
     0
 74
     0
 75
     0
 76
     0
 77
     1
 78
     8
170
     0
171
     3
172
     1
173
     0
174
     0
175
     0
176
     0
177
     0
178
     0
270
     2
271
     2
272
     2
273
     2
274
     3
340
11
275
     0
280
     0
281
     0
282
     0
283
     0
284
     8
285
     0
286
     0
287
     3
288
     0
  0
ENDTAB
  0
TABLE
  2
BLOCK_RECORD
  5
1
330
0
100
AcDbSymbolTable
 70
     1
  0
BLOCK_RECORD
  5
1F
330
1
100
AcDbSymbolTableRecord
100
AcDbBlockTableRecord
  2
*MODEL_SPACE
  0
BLOCK_RECORD
  5
1B
330
1
100
AcDbSymbolTableRecord
100
AcDbBlockTableRecord
  2
*PAPER_SPACE
  0
BLOCK_RECORD
  5
23
330
1
100
AcDbSymbolTableRecord
100
AcDbBlockTableRecord
  2
*PAPER_SPACE0
  0
ENDTAB
  0
ENDSEC
  0
SECTION
  2
BLOCKS
  0
BLOCK
  5
20
330
1F
100
AcDbEntity
  8
0
100
AcDbBlockBegin
  2
*MODEL_SPACE
 70
     0
 10
0.0
 20
0.0
 30
0.0
  3
*MODEL_SPACE
  1

  0
ENDBLK
  5
21
330
1F
100
AcDbEntity
  8
0
100
AcDbBlockEnd
  0
BLOCK
  5
1C
330
1B
100
AcDbEntity
 67
     1
  8
0
100
AcDbBlockBegin
  2
*PAPER_SPACE
 70
     0
 10
0.0
 20
0.0
 30
0.0
  3
*PAPER_SPACE
  1

  0
ENDBLK
  5
1D
330
1B
100
AcDbEntity
 67
     1
  8
0
100
AcDbBlockEnd
  0
BLOCK
  5
24
330
23
100
AcDbEntity
  8
0
100
AcDbBlockBegin
  2
*PAPER_SPACE0
 70
     0
 10
0.0
 20
0.0
 30
0.0
  3
*PAPER_SPACE0
  1

  0
ENDBLK
  5
25
330
23
100
AcDbEntity
  8
0
100
AcDbBlockEnd
  0
ENDSEC
  0
SECTION
  2
ENTITIES
  0
LINE
  5
63
330
1F
100
AcDbEntity
  8
0
  6
CONTINUOUS
 62
     7
100
AcDbLine
 10
140.9733340128
 20
112.1138236432
 30
0.0
 11
141.0173037503
 21
112.1138236432
 31
0.0
  0
LINE
  5
64
330
1F
100
AcDbEntity
  8
0
  6
CONTINUOUS
 62
     7
100
AcDbLine
 10
140.9733340128
 20
112.1138236432
 30
0.0
 11
140.9733340128
 21
112.2017631182
 31
0.0
  0
LINE
  5
65
330
1F
100
AcDbEntity
  8
0
  6
CONTINUOUS
 62
     7
100
AcDbLine
 10
126.5576018054
 20
127.0561755266
 30
0.0
 11
126.6015715429
 21
127.0561755266
 31
0.0
  0
LINE
  5
66
330
1F
100
AcDbEntity
  8
0
  6
CONTINUOUS
 62
     7
100
AcDbLine
 10
126.5576018054
 20
127.0561755266
 30
0.0
 11
126.5576018054
 21
127.1441150016
 31
0.0
  0
LINE
  5
67
330
1F
100
AcDbEntity
  8
0
  6
CONTINUOUS
 62
     7
100
AcDbLine
 10
126.5576018054
 20
177.0561755266
 30
0.0
 11
126.5576018054
 21
177.1001452641
 31
0.0
  0
LINE
  5
68
330
1F
100
AcDbEntity
  8
0
  6
CONTINUOUS
 62
     7
100
AcDbLine
 10
126.5576018054
 20
177.0561755266
 30
0.0
 11
126.4696623304
 21
177.0561755266
 31
0.0
  0
LINE
  5
69
330
1F
100
AcDbEntity
  8
0
  6
CONTINUOUS
 62
     7
100
AcDbLine
 10
126.5576018054
 20
177.0561755266
 30
0.0
 11
126.6015715429
 21
177.0561755266
 31
0.0
  0
LINE
  5
6A
330
1F
100
AcDbEntity
  8
0
  6
CONTINUOUS
 62
     7
100
AcDbLine
 10
126.5576018054
 20
177.0561755266
 30
0.0
 11
126.5576018054
 21
177.1441150016
 31
0.0
  0
LINE
  5
6B
330
1F
100
AcDbEntity
  8
0
  6
CONTINUOUS
 62
     7
100
AcDbLine
 10
126.5576018054
 20
177.0561755266
 30
0.0
 11
126.5576018054
 21
177.1001452641
 31
0.0
  0
LINE
  5
6C
330
1F
100
AcDbEntity
  8
0
  6
CONTINUOUS
 62
     7
100
AcDbLine
 10
126.5576018054
 20
177.0561755266
 30
0.0
 11
126.4696623304
 21
177.0561755266
 31
0.0
  0
LINE
  5
6D
330
1F
100
AcDbEntity
  8
0
  6
CONTINUOUS
 62
     7
100
AcDbLine
 10
126.5576018054
 20
77.0561755266
 30
0.0
 11
126.6015715429
 21
77.0561755266
 31
0.0
  0
LINE
  5
6E
330
1F
100
AcDbEntity
  8
0
  6
CONTINUOUS
 62
     7
100
AcDbLine
 10
126.5576018054
 20
77.0561755266
 30
0.0
 11
126.5576018054
 21
77.1441150016
 31
0.0
  0
LINE
  5
6F
330
1F
100
AcDbEntity
  8
0
  6
CONTINUOUS
 62
     7
100
AcDbLine
 10
126.5576018054
 20
77.0561755266
 30
0.0
 11
126.5576018054
 21
77.1001452641
 31
0.0
  0
LINE
  5
70
330
1F
100
AcDbEntity
  8
0
  6
CONTINUOUS
 62
     7
100
AcDbLine
 10
126.5576018054
 20
77.0561755266
 30
0.0
 11
126.4696623304
 21
77.0561755266
 31
0.0
  0
LINE
  5
71
330
1F
100
AcDbEntity
  8
0
  6
CONTINUOUS
 62
     7
100
AcDbLine
 10
134.1576018054
 20
77.0561755266
 30
0.0
 11
134.1576018054
 21
77.1001452641
 31
0.0
  0
LINE
  5
72
330
1F
100
AcDbEntity
  8
0
  6
CONTINUOUS
 62
     7
100
AcDbLine
 10
134.1576018054
 20
77.0561755266
 30
0.0
 11
134.2455412804
 21
77.0561755266
 31
0.0
  0
LINE
  5
73
330
1F
100
AcDbEntity
  8
0
  6
CONTINUOUS
 62
     7
100
AcDbLine
 10
126.5576018054
 20
77.0561755266
 30
0.0
 11
126.5576018054
 21
77.1001452641
 31
0.0
  0
LINE
  5
74
330
1F
100
AcDbEntity
  8
0
  6
CONTINUOUS
 62
     7
100
AcDbLine
 10
126.5576018054
 20
77.0561755266
 30
0.0
 11
126.4696623304
 21
77.0561755266
 31
0.0
  0
LINE
  5
75
330
1F
100
AcDbEntity
  8
0
  6
CONTINUOUS
 62
     7
100
AcDbLine
 10
137.0576018054
 20
177.0561755266
 30
0.0
 11
137.0576018054
 21
177.0122057891
 31
0.0
  0
LINE
  5
76
330
1F
100
AcDbEntity
  8
0
  6
CONTINUOUS
 62
     7
100
AcDbLine
 10
137.0576018054
 20
177.0561755266
 30
0.0
 11
136.9696623304
 21
177.0561755266
 31
0.0
  0
POINT
  5
77
330
1F
100
AcDbEntity
  8
0
  6
CONTINUOUS
 62
     7
100
AcDbPoint
 10
140.9733340128
 20
112.1138236432
 30
0.0
  0
POINT
  5
78
330
1F
100
AcDbEntity
  8
0
  6
CONTINUOUS
 62
     7
100
AcDbPoint
 10
126.5576018054
 20
127.0561755266
 30
0.0
  0
POINT
  5
79
330
1F
100
AcDbEntity
  8
0
  6
CONTINUOUS
 62
     7
100
AcDbPoint
 10
126.5576018054
 20
177.0561755266
 30
0.0
  0
POINT
  5
7A
330
1F
100
AcDbEntity
  8
0
  6
CONTINUOUS
 62
     7
100
AcDbPoint
 10
126.5576018054
 20
177.0561755266
 30
0.0
  0
POINT
  5
7B
330
1F
100
AcDbEntity
  8
0
  6
CONTINUOUS
 62
     7
100
AcDbPoint
 10
126.5576018054
 20
177.0561755266
 30
0.0
  0
POINT
  5
7C
330
1F
100
AcDbEntity
  8
0
  6
CONTINUOUS
 62
     7
100
AcDbPoint
 10
126.5576018054
 20
77.0561755266
 30
0.0
  0
POINT
  5
7D
330
1F
100
AcDbEntity
  8
0
  6
CONTINUOUS
 62
     7
100
AcDbPoint
 10
126.5576018054
 20
77.0561755266
 30
0.0
  0
POINT
  5
7E
330
1F
100
AcDbEntity
  8
0
  6
CONTINUOUS
 62
     7
100
AcDbPoint
 10
134.1576018054
 20
77.0561755266
 30
0.0
  0
POINT
  5
7F
330
1F
100
AcDbEntity
  8
0
  6
CONTINUOUS
 62
     7
100
AcDbPoint
 10
126.5576018054
 20
77.0561755266
 30
0.0
  0
POINT
  5
80
330
1F
100
AcDbEntity
  8
0
  6
CONTINUOUS
 62
     7
100
AcDbPoint
 10
137.0576018054
 20
177.0561755266
 30
0.0
  0
ARC
  5
81
330
1F
100
AcDbEntity
  8
0
  6
CONTINUOUS
 62
     7
100
AcDbCircle
 10
166.5576018054
 20
242.0561755266
 30
0.0
 40
5.29289321881339
100
AcDbArc
 50
0.0
 51
90.0
  0
LINE
  5
82
330
1F
100
AcDbEntity
  8
0
  6
CONTINUOUS
 62
     7
100
AcDbLine
 10
171.8504950242
 20
242.0561755266
 30
0.0
 11
171.143388243
 21
242.0561755266
 31
0.0
  0
ARC
  5
83
330
1F
100
AcDbEntity
  8
0
  6
CONTINUOUS
 62
     7
100
AcDbCircle
 10
166.5576018054
 20
242.0561755266
 30
0.0
 40
4.585786437626865
100
AcDbArc
 50
0.0
 51
90.0
  0
LINE
  5
84
330
1F
100
AcDbEntity
  8
0
  6
CONTINUOUS
 62
     7
100
AcDbLine
 10
166.5576018054
 20
247.3490687454
 30
0.0
 11
166.5576018054
 21
246.6419619642
 31
0.0
  0
LINE
  5
85
330
1F
100
AcDbEntity
  8
0
  6
CONTINUOUS
 62
     7
100
AcDbLine
 10
86.5576018054
 20
247.3490687454
 30
0.0
 11
166.5576018054
 21
247.3490687454
 31
0.0
  0
LINE
  5
86
330
1F
100
AcDbEntity
  8
0
  6
CONTINUOUS
 62
     7
100
AcDbLine
 10
166.5576018054
 20
246.6419619642
 30
0.0
 11
86.5576018054
 21
246.6419619642
 31
0.0
  0
LINE
  5
87
330
1F
100
AcDbEntity
  8
0
  6
CONTINUOUS
 62
     7
100
AcDbLine
 10
86.5576018054
 20
247.3490687454
 30
0.0
 11
86.5576018054
 21
246.6419619642
 31
0.0
  0
LINE
  5
88
330
1F
100
AcDbEntity
  8
0
  6
CONTINUOUS
 62
     7
100
AcDbLine
 10
171.143388243
 20
12.0561755266
 30
0.0
 11
171.143388243
 21
242.0561755266
 31
0.0
  0
LINE
  5
89
330
1F
100
AcDbEntity
  8
0
  6
CONTINUOUS
 62
     7
100
AcDbLine
 10
171.8504950242
 20
242.0561755266
 30
0.0
 11
171.8504950242
 21
12.0561755266
 31
0.0
  0
LINE
  5
8A
330
1F
100
AcDbEntity
  8
0
  6
CONTINUOUS
 62
     7
100
AcDbLine
 10
171.143388243
 20
12.0561755266
 30
0.0
 11
171.8504950242
 21
12.0561755266
 31
0.0
  0
LINE
  5
8B
330
1F
100
AcDbEntity
  8
0
  6
CONTINUOUS
 62
     7
100
AcDbLine
 10
86.5576018054
 20
7.470389089
 30
0.0
 11
166.5576018054
 21
7.470389089
 31
0.0
  0
LINE
  5
8C
330
1F
100
AcDbEntity
  8
0
  6
CONTINUOUS
 62
     7
100
AcDbLine
 10
166.5576018054
 20
7.470389089
 30
0.0
 11
166.5576018054
 21
6.7632823078
 31
0.0
  0
LINE
  5
8D
330
1F
100
AcDbEntity
  8
0
  6
CONTINUOUS
 62
     7
100
AcDbLine
 10
166.5576018054
 20
6.7632823078
 30
0.0
 11
86.5576018054
 21
6.7632823078
 31
0.0
  0
LINE
  5
8E
330
1F
100
AcDbEntity
  8
0
  6
CONTINUOUS
 62
     7
100
AcDbLine
 10
86.5576018054
 20
7.470389089
 30
0.0
 11
86.5576018054
 21
6.7632823078
 31
0.0
  0
ARC
  5
8F
330
1F
100
AcDbEntity
  8
0
  6
CONTINUOUS
 62
     7
100
AcDbCircle
 10
86.5576018054
 20
242.0561755266
 30
0.0
 40
5.292893218813404
100
AcDbArc
 50
90.0
 51
180.0
  0
ARC
  5
90
330
1F
100
AcDbEntity
  8
0
  6
CONTINUOUS
 62
     7
100
AcDbCircle
 10
86.5576018054
 20
242.0561755266
 30
0.0
 40
4.585786437626837
100
AcDbArc
 50
90.0
 51
180.0
  0
LINE
  5
91
330
1F
100
AcDbEntity
  8
0
  6
CONTINUOUS
 62
     7
100
AcDbLine
 10
81.2647085866
 20
242.0561755266
 30
0.0
 11
81.9718153678
 21
242.0561755266
 31
0.0
  0
LINE
  5
92
330
1F
100
AcDbEntity
  8
0
  6
CONTINUOUS
 62
     7
100
AcDbLine
 10
81.9718153678
 20
242.0561755266
 30
0.0
 11
81.9718153678
 21
12.0561755266
 31
0.0
  0
LINE
  5
93
330
1F
100
AcDbEntity
  8
0
  6
CONTINUOUS
 62
     7
100
AcDbLine
 10
81.9718153678
 20
12.0561755266
 30
0.0
 11
81.2647085866
 21
12.0561755266
 31
0.0
  0
LINE
  5
94
330
1F
100
AcDbEntity
  8
0
  6
CONTINUOUS
 62
     7
100
AcDbLine
 10
81.2647085866
 20
12.0561755266
 30
0.0
 11
81.2647085866
 21
242.0561755266
 31
0.0
  0
ARC
  5
95
330
1F
100
AcDbEntity
  8
0
  6
CONTINUOUS
 62
     7
100
AcDbCircle
 10
86.5576018054
 20
12.0561755266
 30
0.0
 40
4.585786437626837
100
AcDbArc
 50
180.0
 51
270.0
  0
ARC
  5
96
330
1F
100
AcDbEntity
  8
0
  6
CONTINUOUS
 62
     7
100
AcDbCircle
 10
166.5576018054
 20
12.0561755266
 30
0.0
 40
4.585786437626859
100
AcDbArc
 50
270.0
 51
0.0
  0
ARC
  5
97
330
1F
100
AcDbEntity
  8
0
  6
CONTINUOUS
 62
     7
100
AcDbCircle
 10
86.5576018054
 20
12.0561755266
 30
0.0
 40
5.29289321881339
100
AcDbArc
 50
180.0
 51
270.0
  0
ARC
  5
98
330
1F
100
AcDbEntity
  8
0
  6
CONTINUOUS
 62
     7
100
AcDbCircle
 10
166.5576018054
 20
12.0561755266
 30
0.0
 40
5.292893218813418
100
AcDbArc
 50
270.0
 51
0.0
  0
LINE
  5
99
330
1F
100
AcDbEntity
  8
0
  6
CONTINUOUS
 62
     7
100
AcDbLine
 10
86.5576018054
 20
247.3490687454
 30
0.0
 11
86.5576018054
 21
251.7632823078
 31
0.0
  0
LINE
  5
9A
330
1F
100
AcDbEntity
  8
0
  6
CONTINUOUS
 62
     7
100
AcDbLine
 10
166.5576018054
 20
251.7632823078
 30
0.0
 11
86.5576018054
 21
251.7632823078
 31
0.0
  0
LINE
  5
9B
330
1F
100
AcDbEntity
  8
0
  6
CONTINUOUS
 62
     7
100
AcDbLine
 10
166.5576018054
 20
247.3490687454
 30
0.0
 11
166.5576018054
 21
251.7632823078
 31
0.0
  0
LINE
  5
9C
330
1F
100
AcDbEntity
  8
0
  6
CONTINUOUS
 62
     7
100
AcDbLine
 10
81.2647085866
 20
242.0561755266
 30
0.0
 11
76.8504950242
 21
242.0561755266
 31
0.0
  0
ARC
  5
9D
330
1F
100
AcDbEntity
  8
0
  6
CONTINUOUS
 62
     7
100
AcDbCircle
 10
86.5576018054
 20
242.0561755266
 30
0.0
 40
9.707106781186553
100
AcDbArc
 50
90.0
 51
180.0
  0
LINE
  5
9E
330
1F
100
AcDbEntity
  8
0
  6
CONTINUOUS
 62
     7
100
AcDbLine
 10
81.2647085866
 20
12.0561755266
 30
0.0
 11
76.8504950242
 21
12.0561755266
 31
0.0
  0
LINE
  5
9F
330
1F
100
AcDbEntity
  8
0
  6
CONTINUOUS
 62
     7
100
AcDbLine
 10
76.8504950242
 20
242.0561755266
 30
0.0
 11
76.8504950242
 21
12.0561755266
 31
0.0
  0
LINE
  5
A0
330
1F
100
AcDbEntity
  8
0
  6
CONTINUOUS
 62
     7
100
AcDbLine
 10
86.5576018054
 20
2.3490687454
 30
0.0
 11
86.5576018054
 21
6.7632823078
 31
0.0
  0
ARC
  5
A1
330
1F
100
AcDbEntity
  8
0
  6
CONTINUOUS
 62
     7
100
AcDbCircle
 10
86.5576018054
 20
12.0561755266
 30
0.0
 40
9.707106781186553
100
AcDbArc
 50
180.0
 51
270.0
  0
ARC
  5
A2
330
1F
100
AcDbEntity
  8
0
  6
CONTINUOUS
 62
     7
100
AcDbCircle
 10
166.5576018054
 20
242.0561755266
 30
0.0
 40
9.707106781186553
100
AcDbArc
 50
0.0
 51
90.0
  0
LINE
  5
A3
330
1F
100
AcDbEntity
  8
0
  6
CONTINUOUS
 62
     7
100
AcDbLine
 10
176.2647085866
 20
242.0561755266
 30
0.0
 11
171.8504950242
 21
242.0561755266
 31
0.0
  0
LINE
  5
A4
330
1F
100
AcDbEntity
  8
0
  6
CONTINUOUS
 62
     7
100
AcDbLine
 10
176.2647085866
 20
12.0561755266
 30
0.0
 11
171.8504950242
 21
12.0561755266
 31
0.0
  0
ARC
  5
A5
330
1F
100
AcDbEntity
  8
0
  6
CONTINUOUS
 62
     7
100
AcDbCircle
 10
166.5576018054
 20
12.0561755266
 30
0.0
 40
9.707106781186553
100
AcDbArc
 50
270.0
 51
0.0
  0
LINE
  5
A6
330
1F
100
AcDbEntity
  8
0
  6
CONTINUOUS
 62
     7
100
AcDbLine
 10
166.5576018054
 20
2.3490687454
 30
0.0
 11
166.5576018054
 21
6.7632823078
 31
0.0
  0
LINE
  5
A7
330
1F
100
AcDbEntity
  8
0
  6
CONTINUOUS
 62
     7
100
AcDbLine
 10
176.2647085866
 20
12.0561755266
 30
0.0
 11
176.2647085866
 21
242.0561755266
 31
0.0
  0
LINE
  5
A8
330
1F
100
AcDbEntity
  8
0
  6
CONTINUOUS
 62
     7
100
AcDbLine
 10
86.5576018054
 20
2.3490687454
 30
0.0
 11
166.5576018054
 21
2.3490687454
 31
0.0
  0
ARC
  5
A9
330
1F
100
AcDbEntity
  8
0
  6
CONTINUOUS
 62
     7
100
AcDbCircle
 10
86.5576018054
 20
242.0561755266
 30
0.0
 40
10.00000000000003
100
AcDbArc
 50
90.0
 51
180.0
  0
LINE
  5
AA
330
1F
100
AcDbEntity
  8
0
  6
CONTINUOUS
 62
     7
100
AcDbLine
 10
86.5576018054
 20
252.0561755266
 30
0.0
 11
86.5576018054
 21
251.7632823078
 31
0.0
  0
LINE
  5
AB
330
1F
100
AcDbEntity
  8
0
  6
CONTINUOUS
 62
     7
100
AcDbLine
 10
76.5576018054
 20
242.0561755266
 30
0.0
 11
76.8504950242
 21
242.0561755266
 31
0.0
  0
LINE
  5
AC
330
1F
100
AcDbEntity
  8
0
  6
CONTINUOUS
 62
     7
100
AcDbLine
 10
76.5576018054
 20
12.0561755266
 30
0.0
 11
76.5576018054
 21
242.0561755266
 31
0.0
  0
LINE
  5
AD
330
1F
100
AcDbEntity
  8
0
  6
CONTINUOUS
 62
     7
100
AcDbLine
 10
76.5576018054
 20
12.0561755266
 30
0.0
 11
76.8504950242
 21
12.0561755266
 31
0.0
  0
LINE
  5
AE
330
1F
100
AcDbEntity
  8
0
  6
CONTINUOUS
 62
     7
100
AcDbLine
 10
176.2647085866
 20
12.0561755266
 30
0.0
 11
176.5576018054
 21
12.0561755266
 31
0.0
  0
ARC
  5
AF
330
1F
100
AcDbEntity
  8
0
  6
CONTINUOUS
 62
     7
100
AcDbCircle
 10
166.5576018054
 20
12.0561755266
 30
0.0
 40
10.00000000000003
100
AcDbArc
 50
270.0
 51
0.0
  0
LINE
  5
B0
330
1F
100
AcDbEntity
  8
0
  6
CONTINUOUS
 62
     7
100
AcDbLine
 10
166.5576018054
 20
2.3490687454
 30
0.0
 11
166.5576018054
 21
2.0561755266
 31
0.0
  0
LINE
  5
B1
330
1F
100
AcDbEntity
  8
0
  6
CONTINUOUS
 62
     7
100
AcDbLine
 10
166.5576018054
 20
2.0561755266
 30
0.0
 11
86.5576018054
 21
2.0561755266
 31
0.0
  0
LINE
  5
B2
330
1F
100
AcDbEntity
  8
0
  6
CONTINUOUS
 62
     7
100
AcDbLine
 10
86.5576018054
 20
2.0561755266
 30
0.0
 11
86.5576018054
 21
2.3490687454
 31
0.0
  0
ARC
  5
B3
330
1F
100
AcDbEntity
  8
0
  6
CONTINUOUS
 62
     7
100
AcDbCircle
 10
86.5576018054
 20
12.0561755266
 30
0.0
 40
10.0
100
AcDbArc
 50
180.0
 51
270.0
  0
LINE
  5
B4
330
1F
100
AcDbEntity
  8
0
  6
CONTINUOUS
 62
     7
100
AcDbLine
 10
176.2647085866
 20
242.0561755266
 30
0.0
 11
176.5576018054
 21
242.0561755266
 31
0.0
  0
LINE
  5
B5
330
1F
100
AcDbEntity
  8
0
  6
CONTINUOUS
 62
     7
100
AcDbLine
 10
176.5576018054
 20
242.0561755266
 30
0.0
 11
176.5576018054
 21
12.0561755266
 31
0.0
  0
LINE
  5
B6
330
1F
100
AcDbEntity
  8
0
  6
CONTINUOUS
 62
     7
100
AcDbLine
 10
166.5576018054
 20
251.7632823078
 30
0.0
 11
166.5576018054
 21
252.0561755266
 31
0.0
  0
ARC
  5
B7
330
1F
100
AcDbEntity
  8
0
  6
CONTINUOUS
 62
     7
100
AcDbCircle
 10
166.5576018054
 20
242.0561755266
 30
0.0
 40
10.00000000000003
100
AcDbArc
 50
0.0
 51
90.0
  0
LINE
  5
B8
330
1F
100
AcDbEntity
  8
0
  6
CONTINUOUS
 62
     7
100
AcDbLine
 10
86.5576018054
 20
252.0561755266
 30
0.0
 11
166.5576018054
 21
252.0561755266
 31
0.0
  0
LINE
  5
B9
330
1F
100
AcDbEntity
  8
0
  6
CONTINUOUS
 62
     7
100
AcDbLine
 10
262.122674967
 20
177.0561755266
 30
0.0
 11
262.122674967
 21
177.0122057891
 31
0.0
  0
LINE
  5
BA
330
1F
100
AcDbEntity
  8
0
  6
CONTINUOUS
 62
     7
100
AcDbLine
 10
262.122674967
 20
177.0561755266
 30
0.0
 11
262.210614442
 21
177.0561755266
 31
0.0
  0
LINE
  5
BB
330
1F
100
AcDbEntity
  8
0
  6
CONTINUOUS
 62
     7
100
AcDbLine
 10
265.022674967
 20
77.0561755266
 30
0.0
 11
265.022674967
 21
77.1001452641
 31
0.0
  0
LINE
  5
BC
330
1F
100
AcDbEntity
  8
0
  6
CONTINUOUS
 62
     7
100
AcDbLine
 10
265.022674967
 20
77.0561755266
 30
0.0
 11
264.934735492
 21
77.0561755266
 31
0.0
  0
POINT
  5
BD
330
1F
100
AcDbEntity
  8
0
  6
CONTINUOUS
 62
     7
100
AcDbPoint
 10
262.122674967
 20
177.0561755266
 30
0.0
  0
POINT
  5
BE
330
1F
100
AcDbEntity
  8
0
  6
CONTINUOUS
 62
     7
100
AcDbPoint
 10
265.022674967
 20
77.0561755266
 30
0.0
  0
LINE
  5
BF
330
1F
100
AcDbEntity
  8
0
  6
CONTINUOUS
 62
     7
100
AcDbLine
 10
299.5368885294
 20
242.0561755266
 30
0.0
 11
299.5368885294
 21
12.0561755266
 31
0.0
  0
LINE
  5
C0
330
1F
100
AcDbEntity
  8
0
  6
CONTINUOUS
 62
     7
100
AcDbLine
 10
299.5368885294
 20
12.0561755266
 30
0.0
 11
298.8297817482
 21
12.0561755266
 31
0.0
  0
LINE
  5
C1
330
1F
100
AcDbEntity
  8
0
  6
CONTINUOUS
 62
     7
100
AcDbLine
 10
298.8297817482
 20
12.0561755266
 30
0.0
 11
298.8297817482
 21
242.0561755266
 31
0.0
  0
LINE
  5
C2
330
1F
100
AcDbEntity
  8
0
  6
CONTINUOUS
 62
     7
100
AcDbLine
 10
298.8297817482
 20
242.0561755266
 30
0.0
 11
299.5368885294
 21
242.0561755266
 31
0.0
  0
LINE
  5
C3
330
1F
100
AcDbEntity
  8
0
  6
CONTINUOUS
 62
     7
100
AcDbLine
 10
298.8297817482
 20
242.0561755266
 30
0.0
 11
298.8297817482
 21
251.7632823078
 31
0.0
  0
ARC
  5
C4
330
1F
100
AcDbEntity
  8
0
  6
CONTINUOUS
 62
     7
100
AcDbCircle
 10
299.5368885294
 20
251.0561755266
 30
0.0
 40
1.000000000000048
100
AcDbArc
 50
90.0
 51
135.0
  0
LINE
  5
C5
330
1F
100
AcDbEntity
  8
0
  6
CONTINUOUS
 62
     7
100
AcDbLine
 10
299.5368885294
 20
252.0561755266
 30
0.0
 11
299.5368885294
 21
242.0561755266
 31
0.0
  0
LINE
  5
C6
330
1F
100
AcDbEntity
  8
0
  6
CONTINUOUS
 62
     7
100
AcDbLine
 10
313.7084614046
 20
12.0561755266
 30
0.0
 11
313.7084614046
 21
242.0561755266
 31
0.0
  0
LINE
  5
C7
330
1F
100
AcDbEntity
  8
0
  6
CONTINUOUS
 62
     7
100
AcDbLine
 10
299.5368885294
 20
12.0561755266
 30
0.0
 11
313.7084614046
 21
12.0561755266
 31
0.0
  0
LINE
  5
C8
330
1F
100
AcDbEntity
  8
0
  6
CONTINUOUS
 62
     7
100
AcDbLine
 10
313.7084614046
 20
242.0561755266
 30
0.0
 11
299.5368885294
 21
242.0561755266
 31
0.0
  0
LINE
  5
C9
330
1F
100
AcDbEntity
  8
0
  6
CONTINUOUS
 62
     7
100
AcDbLine
 10
313.7084614046
 20
242.0561755266
 30
0.0
 11
313.7084614046
 21
252.0561755266
 31
0.0
  0
LINE
  5
CA
330
1F
100
AcDbEntity
  8
0
  6
CONTINUOUS
 62
     7
100
AcDbLine
 10
299.5368885294
 20
252.0561755266
 30
0.0
 11
313.7084614046
 21
252.0561755266
 31
0.0
  0
LINE
  5
CB
330
1F
100
AcDbEntity
  8
0
  6
CONTINUOUS
 62
     7
100
AcDbLine
 10
299.5368885294
 20
12.0561755266
 30
0.0
 11
299.5368885294
 21
2.0561755266
 31
0.0
  0
ARC
  5
CC
330
1F
100
AcDbEntity
  8
0
  6
CONTINUOUS
 62
     7
100
AcDbCircle
 10
299.5368885294
 20
3.0561755266
 30
0.0
 40
1.000000000000062
100
AcDbArc
 50
225.0
 51
270.0
  0
LINE
  5
CD
330
1F
100
AcDbEntity
  8
0
  6
CONTINUOUS
 62
     7
100
AcDbLine
 10
298.8297817482
 20
2.3490687454
 30
0.0
 11
298.8297817482
 21
12.0561755266
 31
0.0
  0
LINE
  5
CE
330
1F
100
AcDbEntity
  8
0
  6
CONTINUOUS
 62
     7
100
AcDbLine
 10
313.7084614046
 20
2.0561755266
 30
0.0
 11
313.7084614046
 21
12.0561755266
 31
0.0
  0
LINE
  5
CF
330
1F
100
AcDbEntity
  8
0
  6
CONTINUOUS
 62
     7
100
AcDbLine
 10
313.7084614046
 20
2.0561755266
 30
0.0
 11
299.5368885294
 21
2.0561755266
 31
0.0
  0
ARC
  5
D0
330
1F
100
AcDbEntity
  8
0
  6
CONTINUOUS
 62
     7
100
AcDbCircle
 10
313.7084614046
 20
251.0561755266
 30
0.0
 40
1.000000000000008
100
AcDbArc
 50
45.0
 51
90.0
  0
LINE
  5
D1
330
1F
100
AcDbEntity
  8
0
  6
CONTINUOUS
 62
     7
100
AcDbLine
 10
314.4155681858
 20
251.7632823078
 30
0.0
 11
314.4155681858
 21
242.0561755266
 31
0.0
  0
LINE
  5
D2
330
1F
100
AcDbEntity
  8
0
  6
CONTINUOUS
 62
     7
100
AcDbLine
 10
313.7084614046
 20
242.0561755266
 30
0.0
 11
314.4155681858
 21
242.0561755266
 31
0.0
  0
LINE
  5
D3
330
1F
100
AcDbEntity
  8
0
  6
CONTINUOUS
 62
     7
100
AcDbLine
 10
314.4155681858
 20
242.0561755266
 30
0.0
 11
314.4155681858
 21
12.0561755266
 31
0.0
  0
LINE
  5
D4
330
1F
100
AcDbEntity
  8
0
  6
CONTINUOUS
 62
     7
100
AcDbLine
 10
313.7084614046
 20
12.0561755266
 30
0.0
 11
314.4155681858
 21
12.0561755266
 31
0.0
  0
LINE
  5
D5
330
1F
100
AcDbEntity
  8
0
  6
CONTINUOUS
 62
     7
100
AcDbLine
 10
314.4155681858
 20
12.0561755266
 30
0.0
 11
314.4155681858
 21
2.3490687454
 31
0.0
  0
ARC
  5
D6
330
1F
100
AcDbEntity
  8
0
  6
CONTINUOUS
 62
     7
100
AcDbCircle
 10
313.7084614046
 20
3.0561755266
 30
0.0
 40
1.000000000000002
100
AcDbArc
 50
270.0
 51
315.0
  0
LINE
  5
D7
330
1F
100
AcDbEntity
  8
0
  6
CONTINUOUS
 62
     7
100
AcDbLine
 10
294.4155681858
 20
247.3490687454
 30
0.0
 11
294.4155681858
 21
242.0561755266
 31
0.0
  0
LINE
  5
D8
330
1F
100
AcDbEntity
  8
0
  6
CONTINUOUS
 62
     7
100
AcDbLine
 10
294.4155681858
 20
247.3490687454
 30
0.0
 11
298.8297817482
 21
251.7632823078
 31
0.0
  0
LINE
  5
D9
330
1F
100
AcDbEntity
  8
0
  6
CONTINUOUS
 62
     7
100
AcDbLine
 10
294.4155681858
 20
242.0561755266
 30
0.0
 11
298.8297817482
 21
242.0561755266
 31
0.0
  0
LINE
  5
DA
330
1F
100
AcDbEntity
  8
0
  6
CONTINUOUS
 62
     7
100
AcDbLine
 10
294.4155681858
 20
242.0561755266
 30
0.0
 11
294.4155681858
 21
12.0561755266
 31
0.0
  0
LINE
  5
DB
330
1F
100
AcDbEntity
  8
0
  6
CONTINUOUS
 62
     7
100
AcDbLine
 10
294.4155681858
 20
12.0561755266
 30
0.0
 11
298.8297817482
 21
12.0561755266
 31
0.0
  0
LINE
  5
DC
330
1F
100
AcDbEntity
  8
0
  6
CONTINUOUS
 62
     7
100
AcDbLine
 10
294.4155681858
 20
12.0561755266
 30
0.0
 11
294.4155681858
 21
6.7632823078
 31
0.0
  0
LINE
  5
DD
330
1F
100
AcDbEntity
  8
0
  6
CONTINUOUS
 62
     7
100
AcDbLine
 10
298.8297817482
 20
2.3490687454
 30
0.0
 11
294.4155681858
 21
6.7632823078
 31
0.0
  0
LINE
  5
DE
330
1F
100
AcDbEntity
  8
0
  6
CONTINUOUS
 62
     7
100
AcDbLine
 10
318.8297817482
 20
12.0561755266
 30
0.0
 11
318.8297817482
 21
242.0561755266
 31
0.0
  0
LINE
  5
DF
330
1F
100
AcDbEntity
  8
0
  6
CONTINUOUS
 62
     7
100
AcDbLine
 10
318.8297817482
 20
12.0561755266
 30
0.0
 11
314.4155681858
 21
12.0561755266
 31
0.0
  0
LINE
  5
E0
330
1F
100
AcDbEntity
  8
0
  6
CONTINUOUS
 62
     7
100
AcDbLine
 10
318.8297817482
 20
242.0561755266
 30
0.0
 11
314.4155681858
 21
242.0561755266
 31
0.0
  0
LINE
  5
E1
330
1F
100
AcDbEntity
  8
0
  6
CONTINUOUS
 62
     7
100
AcDbLine
 10
318.8297817482
 20
242.0561755266
 30
0.0
 11
318.8297817482
 21
247.3490687454
 31
0.0
  0
LINE
  5
E2
330
1F
100
AcDbEntity
  8
0
  6
CONTINUOUS
 62
     7
100
AcDbLine
 10
318.8297817482
 20
247.3490687454
 30
0.0
 11
314.4155681858
 21
251.7632823078
 31
0.0
  0
LINE
  5
E3
330
1F
100
AcDbEntity
  8
0
  6
CONTINUOUS
 62
     7
100
AcDbLine
 10
318.8297817482
 20
6.7632823078
 30
0.0
 11
318.8297817482
 21
12.0561755266
 31
0.0
  0
LINE
  5
E4
330
1F
100
AcDbEntity
  8
0
  6
CONTINUOUS
 62
     7
100
AcDbLine
 10
314.4155681858
 20
2.3490687454
 30
0.0
 11
318.8297817482
 21
6.7632823078
 31
0.0
  0
LINE
  5
E5
330
1F
100
AcDbEntity
  8
0
  6
CONTINUOUS
 62
     7
100
AcDbLine
 10
294.122674967
 20
12.0561755266
 30
0.0
 11
294.122674967
 21
242.0561755266
 31
0.0
  0
LINE
  5
E6
330
1F
100
AcDbEntity
  8
0
  6
CONTINUOUS
 62
     7
100
AcDbLine
 10
294.122674967
 20
242.0561755266
 30
0.0
 11
294.4155681858
 21
242.0561755266
 31
0.0
  0
LINE
  5
E7
330
1F
100
AcDbEntity
  8
0
  6
CONTINUOUS
 62
     7
100
AcDbLine
 10
294.122674967
 20
12.0561755266
 30
0.0
 11
294.4155681858
 21
12.0561755266
 31
0.0
  0
LINE
  5
E8
330
1F
100
AcDbEntity
  8
0
  6
CONTINUOUS
 62
     7
100
AcDbLine
 10
294.122674967
 20
242.0561755266
 30
0.0
 11
294.122674967
 21
246.6419619642
 31
0.0
  0
ARC
  5
E9
330
1F
100
AcDbEntity
  8
0
  6
CONTINUOUS
 62
     7
100
AcDbCircle
 10
295.122674967
 20
246.6419619642
 30
0.0
 40
1.0
100
AcDbArc
 50
135.0
 51
180.0
  0
LINE
  5
EA
330
1F
100
AcDbEntity
  8
0
  6
CONTINUOUS
 62
     7
100
AcDbLine
 10
294.122674967
 20
7.470389089
 30
0.0
 11
294.122674967
 21
12.0561755266
 31
0.0
  0
ARC
  5
EB
330
1F
100
AcDbEntity
  8
0
  6
CONTINUOUS
 62
     7
100
AcDbCircle
 10
295.122674967
 20
7.470389089
 30
0.0
 40
1.0
100
AcDbArc
 50
180.0
 51
225.0
  0
ARC
  5
EC
330
1F
100
AcDbEntity
  8
0
  6
CONTINUOUS
 62
     7
100
AcDbCircle
 10
318.122674967
 20
246.6419619642
 30
0.0
 40
1.000000000000028
100
AcDbArc
 50
360.0
 51
45.0
  0
LINE
  5
ED
330
1F
100
AcDbEntity
  8
0
  6
CONTINUOUS
 62
     7
100
AcDbLine
 10
319.122674967
 20
246.6419619642
 30
0.0
 11
319.122674967
 21
242.0561755266
 31
0.0
  0
LINE
  5
EE
330
1F
100
AcDbEntity
  8
0
  6
CONTINUOUS
 62
     7
100
AcDbLine
 10
318.8297817482
 20
242.0561755266
 30
0.0
 11
319.122674967
 21
242.0561755266
 31
0.0
  0
LINE
  5
EF
330
1F
100
AcDbEntity
  8
0
  6
CONTINUOUS
 62
     7
100
AcDbLine
 10
319.122674967
 20
242.0561755266
 30
0.0
 11
319.122674967
 21
12.0561755266
 31
0.0
  0
LINE
  5
F0
330
1F
100
AcDbEntity
  8
0
  6
CONTINUOUS
 62
     7
100
AcDbLine
 10
319.122674967
 20
12.0561755266
 30
0.0
 11
318.8297817482
 21
12.0561755266
 31
0.0
  0
LINE
  5
F1
330
1F
100
AcDbEntity
  8
0
  6
CONTINUOUS
 62
     7
100
AcDbLine
 10
319.122674967
 20
12.0561755266
 30
0.0
 11
319.122674967
 21
7.470389089
 31
0.0
  0
ARC
  5
F2
330
1F
100
AcDbEntity
  8
0
  6
CONTINUOUS
 62
     7
100
AcDbCircle
 10
318.122674967
 20
7.470389089
 30
0.0
 40
1.000000000000002
100
AcDbArc
 50
315.0
 51
0.0
  0
LINE
  5
F3
330
1F
100
AcDbEntity
  8
0
  6
CONTINUOUS
 62
     7
100
AcDbLine
 10
257.622674967
 20
93.0561755266
 30
0.0
 11
259.122674967
 21
93.0561755266
 31
0.0
  0
LINE
  5
F4
330
1F
100
AcDbEntity
  8
0
  6
CONTINUOUS
 62
     7
100
AcDbLine
 10
259.122674967
 20
93.0561755266
 30
0.0
 11
259.122674967
 21
88.0561755266
 31
0.0
  0
LINE
  5
F5
330
1F
100
AcDbEntity
  8
0
  6
CONTINUOUS
 62
     7
100
AcDbLine
 10
259.122674967
 20
88.0561755266
 30
0.0
 11
257.622674967
 21
88.0561755266
 31
0.0
  0
LINE
  5
F6
330
1F
100
AcDbEntity
  8
0
  6
CONTINUOUS
 62
     7
100
AcDbLine
 10
257.622674967
 20
88.0561755266
 30
0.0
 11
257.622674967
 21
93.0561755266
 31
0.0
  0
LINE
  5
F7
330
1F
100
AcDbEntity
  8
0
  6
CONTINUOUS
 62
     7
100
AcDbLine
 10
259.122674967
 20
66.0561755266
 30
0.0
 11
259.122674967
 21
88.0561755266
 31
0.0
  0
LINE
  5
F8
330
1F
100
AcDbEntity
  8
0
  6
CONTINUOUS
 62
     7
100
AcDbLine
 10
257.622674967
 20
66.0561755266
 30
0.0
 11
259.122674967
 21
66.0561755266
 31
0.0
  0
LINE
  5
F9
330
1F
100
AcDbEntity
  8
0
  6
CONTINUOUS
 62
     7
100
AcDbLine
 10
257.622674967
 20
66.0561755266
 30
0.0
 11
257.622674967
 21
88.0561755266
 31
0.0
  0
LINE
  5
FA
330
1F
100
AcDbEntity
  8
0
  6
CONTINUOUS
 62
     7
100
AcDbLine
 10
259.122674967
 20
61.0561755266
 30
0.0
 11
257.622674967
 21
61.0561755266
 31
0.0
  0
LINE
  5
FB
330
1F
100
AcDbEntity
  8
0
  6
CONTINUOUS
 62
     7
100
AcDbLine
 10
259.122674967
 20
66.0561755266
 30
0.0
 11
259.122674967
 21
61.0561755266
 31
0.0
  0
LINE
  5
FC
330
1F
100
AcDbEntity
  8
0
  6
CONTINUOUS
 62
     7
100
AcDbLine
 10
257.622674967
 20
61.0561755266
 30
0.0
 11
257.622674967
 21
66.0561755266
 31
0.0
  0
LINE
  5
FD
330
1F
100
AcDbEntity
  8
0
  6
CONTINUOUS
 62
     7
100
AcDbLine
 10
259.122674967
 20
188.0561755266
 30
0.0
 11
257.622674967
 21
188.0561755266
 31
0.0
  0
LINE
  5
FE
330
1F
100
AcDbEntity
  8
0
  6
CONTINUOUS
 62
     7
100
AcDbLine
 10
259.122674967
 20
166.0561755266
 30
0.0
 11
259.122674967
 21
188.0561755266
 31
0.0
  0
LINE
  5
FF
330
1F
100
AcDbEntity
  8
0
  6
CONTINUOUS
 62
     7
100
AcDbLine
 10
257.622674967
 20
166.0561755266
 30
0.0
 11
259.122674967
 21
166.0561755266
 31
0.0
  0
LINE
  5
100
330
1F
100
AcDbEntity
  8
0
  6
CONTINUOUS
 62
     7
100
AcDbLine
 10
257.622674967
 20
166.0561755266
 30
0.0
 11
257.622674967
 21
188.0561755266
 31
0.0
  0
LINE
  5
101
330
1F
100
AcDbEntity
  8
0
  6
CONTINUOUS
 62
     7
100
AcDbLine
 10
257.622674967
 20
193.0561755266
 30
0.0
 11
259.122674967
 21
193.0561755266
 31
0.0
  0
LINE
  5
102
330
1F
100
AcDbEntity
  8
0
  6
CONTINUOUS
 62
     7
100
AcDbLine
 10
259.122674967
 20
193.0561755266
 30
0.0
 11
259.122674967
 21
188.0561755266
 31
0.0
  0
LINE
  5
103
330
1F
100
AcDbEntity
  8
0
  6
CONTINUOUS
 62
     7
100
AcDbLine
 10
257.622674967
 20
188.0561755266
 30
0.0
 11
257.622674967
 21
193.0561755266
 31
0.0
  0
LINE
  5
104
330
1F
100
AcDbEntity
  8
0
  6
CONTINUOUS
 62
     7
100
AcDbLine
 10
259.122674967
 20
161.0561755266
 30
0.0
 11
257.622674967
 21
161.0561755266
 31
0.0
  0
LINE
  5
105
330
1F
100
AcDbEntity
  8
0
  6
CONTINUOUS
 62
     7
100
AcDbLine
 10
259.122674967
 20
166.0561755266
 30
0.0
 11
259.122674967
 21
161.0561755266
 31
0.0
  0
LINE
  5
106
330
1F
100
AcDbEntity
  8
0
  6
CONTINUOUS
 62
     7
100
AcDbLine
 10
257.622674967
 20
161.0561755266
 30
0.0
 11
257.622674967
 21
166.0561755266
 31
0.0
  0
LINE
  5
107
330
1F
100
AcDbEntity
  8
0
  6
CONTINUOUS
 62
     7
100
AcDbLine
 10
294.122674967
 20
161.0561755266
 30
0.0
 11
259.122674967
 21
161.0561755266
 31
0.0
  0
LINE
  5
108
330
1F
100
AcDbEntity
  8
0
  6
CONTINUOUS
 62
     7
100
AcDbLine
 10
259.122674967
 20
166.0561755266
 30
0.0
 11
294.122674967
 21
166.0561755266
 31
0.0
  0
LINE
  5
109
330
1F
100
AcDbEntity
  8
0
  6
CONTINUOUS
 62
     7
100
AcDbLine
 10
294.122674967
 20
188.0561755266
 30
0.0
 11
259.122674967
 21
188.0561755266
 31
0.0
  0
LINE
  5
10A
330
1F
100
AcDbEntity
  8
0
  6
CONTINUOUS
 62
     7
100
AcDbLine
 10
259.122674967
 20
193.0561755266
 30
0.0
 11
294.122674967
 21
193.0561755266
 31
0.0
  0
LINE
  5
10B
330
1F
100
AcDbEntity
  8
0
  6
CONTINUOUS
 62
     7
100
AcDbLine
 10
294.122674967
 20
88.0561755266
 30
0.0
 11
259.122674967
 21
88.0561755266
 31
0.0
  0
LINE
  5
10C
330
1F
100
AcDbEntity
  8
0
  6
CONTINUOUS
 62
     7
100
AcDbLine
 10
259.122674967
 20
93.0561755266
 30
0.0
 11
294.122674967
 21
93.0561755266
 31
0.0
  0
LINE
  5
10D
330
1F
100
AcDbEntity
  8
0
  6
CONTINUOUS
 62
     7
100
AcDbLine
 10
294.122674967
 20
61.0561755266
 30
0.0
 11
259.122674967
 21
61.0561755266
 31
0.0
  0
LINE
  5
10E
330
1F
100
AcDbEntity
  8
0
  6
CONTINUOUS
 62
     7
100
AcDbLine
 10
259.122674967
 20
66.0561755266
 30
0.0
 11
294.122674967
 21
66.0561755266
 31
0.0
  0
LINE
  5
10F
330
1F
100
AcDbEntity
  8
0
  6
CONTINUOUS
 62
     7
100
AcDbLine
 10
283.298074967
 20
61.0551755266
 30
0.0
 11
283.298074967
 21
61.0561755266
 31
0.0
  0
SPLINE
  5
110
330
1F
100
AcDbEntity
  8
0
  6
CONTINUOUS
 62
     7
100
AcDbSpline
210
0.0
220
0.0
230
1.0
 70
    24
 71
     3
 72
    12
 73
     8
 74
     0
 42
0.00000001
 43
0.00000001
 40
0.0
 40
0.0
 40
0.0
 40
0.0
 40
0.3143673319851774
 40
0.5871575300358852
 40
0.8110328976779899
 40
0.9077109548243034
 40
1.0
 40
1.0
 40
1.0
 40
1.0
 10
280.7704749669808
 20
61.05517552657975
 30
0.0
 10
280.8065261485143
 20
61.05517552657975
 30
0.0
 10
280.8738605072418
 20
61.05517552657975
 30
0.0
 10
281.403015002043
 20
61.05517552657977
 30
0.0
 10
282.0909459387256
 20
61.05517552657972
 30
0.0
 10
282.7700252667025
 20
61.05517552657977
 30
0.0
 10
283.1248051448717
 20
61.05517552657974
 30
0.0
 10
283.2980749669808
 20
61.05517552657975
 30
0.0
  0
LINE
  5
111
330
1F
100
AcDbEntity
  8
0
  6
CONTINUOUS
 62
     7
100
AcDbLine
 10
280.770474967
 20
61.0551755266
 30
0.0
 11
280.770474967
 21
61.0561755266
 31
0.0
  0
LINE
  5
112
330
1F
100
AcDbEntity
  8
0
  6
CONTINUOUS
 62
     7
100
AcDbLine
 10
285.825674967
 20
61.0551755266
 30
0.0
 11
285.825674967
 21
61.0561755266
 31
0.0
  0
SPLINE
  5
113
330
1F
100
AcDbEntity
  8
0
  6
CONTINUOUS
 62
     7
100
AcDbSpline
210
0.0
220
0.0
230
1.0
 70
    24
 71
     3
 72
    12
 73
     8
 74
     0
 42
0.00000001
 43
0.00000001
 40
0.0
 40
0.0
 40
0.0
 40
0.0
 40
0.0922890451756974
 40
0.1889671023220121
 40
0.4128424699641176
 40
0.6856326680148244
 40
0.9999999999999999
 40
0.9999999999999999
 40
0.9999999999999999
 40
0.9999999999999999
 10
283.2980749669808
 20
61.05517552657975
 30
0.0
 10
283.4713447890899
 20
61.05517552657975
 30
0.0
 10
283.8261246672591
 20
61.05517552657975
 30
0.0
 10
284.505203995236
 20
61.05517552657977
 30
0.0
 10
285.1931349319187
 20
61.05517552657974
 30
0.0
 10
285.7222894267198
 20
61.05517552657975
 30
0.0
 10
285.7896237854473
 20
61.05517552657975
 30
0.0
 10
285.8256749669808
 20
61.05517552657975
 30
0.0
  0
LINE
  5
114
330
1F
100
AcDbEntity
  8
0
  6
CONTINUOUS
 62
     7
100
AcDbLine
 10
283.298074967
 20
193.0571755266
 30
0.0
 11
283.298074967
 21
193.0561755266
 31
0.0
  0
LINE
  5
115
330
1F
100
AcDbEntity
  8
0
  6
CONTINUOUS
 62
     7
100
AcDbLine
 10
285.825674967
 20
193.0571755266
 30
0.0
 11
285.825674967
 21
193.0561755266
 31
0.0
  0
SPLINE
  5
116
330
1F
100
AcDbEntity
  8
0
  6
CONTINUOUS
 62
     7
100
AcDbSpline
210
0.0
220
0.0
230
1.0
 70
    24
 71
     3
 72
    12
 73
     8
 74
     0
 42
0.00000001
 43
0.00000001
 40
0.0
 40
0.0
 40
0.0
 40
0.0
 40
0.3143673319851782
 40
0.5871575300358861
 40
0.8110328976779899
 40
0.9077109548243034
 40
1.0
 40
1.0
 40
1.0
 40
1.0
 10
285.8256749669808
 20
193.0571755265798
 30
0.0
 10
285.7896237854473
 20
193.0571755265798
 30
0.0
 10
285.7222894267198
 20
193.0571755265798
 30
0.0
 10
285.1931349319187
 20
193.0571755265798
 30
0.0
 10
284.505203995236
 20
193.0571755265798
 30
0.0
 10
283.8261246672591
 20
193.0571755265798
 30
0.0
 10
283.4713447890899
 20
193.0571755265798
 30
0.0
 10
283.2980749669808
 20
193.0571755265798
 30
0.0
  0
LINE
  5
117
330
1F
100
AcDbEntity
  8
0
  6
CONTINUOUS
 62
     7
100
AcDbLine
 10
280.770474967
 20
193.0571755266
 30
0.0
 11
280.770474967
 21
193.0561755266
 31
0.0
  0
SPLINE
  5
118
330
1F
100
AcDbEntity
  8
0
  6
CONTINUOUS
 62
     7
100
AcDbSpline
210
0.0
220
0.0
230
1.0
 70
    24
 71
     3
 72
    12
 73
     8
 74
     0
 42
0.00000001
 43
0.00000001
 40
0.0
 40
0.0
 40
0.0
 40
0.0
 40
0.0922890451756973
 40
0.1889671023220117
 40
0.4128424699641164
 40
0.6856326680148237
 40
1.0
 40
1.0
 40
1.0
 40
1.0
 10
283.2980749669808
 20
193.0571755265798
 30
0.0
 10
283.1248051448717
 20
193.0571755265798
 30
0.0
 10
282.7700252667025
 20
193.0571755265798
 30
0.0
 10
282.0909459387256
 20
193.0571755265798
 30
0.0
 10
281.4030150020429
 20
193.0571755265799
 30
0.0
 10
280.8738605072418
 20
193.0571755265797
 30
0.0
 10
280.8065261485143
 20
193.0571755265798
 30
0.0
 10
280.7704749669808
 20
193.0571755265798
 30
0.0
  0
SPLINE
  5
119
330
1F
100
AcDbEntity
  8
0
  6
CONTINUOUS
 62
     7
100
AcDbSpline
210
0.0
220
0.0
230
1.0
 70
    24
 71
     3
 72
    11
 73
     7
 74
     0
 42
0.00000001
 43
0.00000001
 40
0.0
 40
0.0
 40
0.0
 40
0.0
 40
0.2832327603404977
 40
0.5580114153644168
 40
0.7754417085638458
 40
1.0
 40
1.0
 40
1.0
 40
1.0
 10
282.4734749669808
 20
61.05517552657975
 30
0.0
 10
282.4824812918321
 20
61.05517552657977
 30
0.0
 10
282.5002251152213
 20
61.05517552657977
 30
0.0
 10
282.6237270283282
 20
61.05517552657974
 30
0.0
 10
282.7742107620613
 20
61.05517552657977
 30
0.0
 10
282.8810127628259
 20
61.05517552657977
 30
0.0
 10
282.9352749669808
 20
61.05517552657975
 30
0.0
  0
LINE
  5
11A
330
1F
100
AcDbEntity
  8
0
  6
CONTINUOUS
 62
     7
100
AcDbLine
 10
283.131074967
 20
193.0571755266
 30
0.0
 11
283.475974967
 21
193.0571755266
 31
0.0
  0
LINE
  5
11B
330
1F
100
AcDbEntity
  8
0
  6
CONTINUOUS
 62
     7
100
AcDbLine
 10
126.5576018054
 20
-91.1598685776
 30
0.0
 11
126.5136320679
 21
-91.1598685776
 31
0.0
  0
LINE
  5
11C
330
1F
100
AcDbEntity
  8
0
  6
CONTINUOUS
 62
     7
100
AcDbLine
 10
126.5576018054
 20
-91.1598685776
 30
0.0
 11
126.5576018054
 21
-91.2478080526
 31
0.0
  0
LINE
  5
11D
330
1F
100
AcDbEntity
  8
0
  6
CONTINUOUS
 62
     7
100
AcDbLine
 10
126.5576018054
 20
-91.1598685776
 30
0.0
 11
126.6015715429
 21
-91.1598685776
 31
0.0
  0
LINE
  5
11E
330
1F
100
AcDbEntity
  8
0
  6
CONTINUOUS
 62
     7
100
AcDbLine
 10
126.5576018054
 20
-91.1598685776
 30
0.0
 11
126.5576018054
 21
-91.2478080526
 31
0.0
  0
POINT
  5
11F
330
1F
100
AcDbEntity
  8
0
  6
CONTINUOUS
 62
     7
100
AcDbPoint
 10
126.5576018054
 20
-91.1598685776
 30
0.0
  0
POINT
  5
120
330
1F
100
AcDbEntity
  8
0
  6
CONTINUOUS
 62
     7
100
AcDbPoint
 10
126.5576018054
 20
-91.1598685776
 30
0.0
  0
LINE
  5
121
330
1F
100
AcDbEntity
  8
0
  6
CONTINUOUS
 62
     7
100
AcDbLine
 10
76.5576018054
 20
-121.5702550152
 30
0.0
 11
86.5576018054
 21
-121.5702550152
 31
0.0
  0
LINE
  5
122
330
1F
100
AcDbEntity
  8
0
  6
CONTINUOUS
 62
     7
100
AcDbLine
 10
76.5576018054
 20
-121.5702550152
 30
0.0
 11
76.5576018054
 21
-107.3986821399
 31
0.0
  0
LINE
  5
123
330
1F
100
AcDbEntity
  8
0
  6
CONTINUOUS
 62
     7
100
AcDbLine
 10
86.5576018054
 20
-107.3986821399
 30
0.0
 11
76.5576018054
 21
-107.3986821399
 31
0.0
  0
LINE
  5
124
330
1F
100
AcDbEntity
  8
0
  6
CONTINUOUS
 62
     7
100
AcDbLine
 10
86.5576018054
 20
-107.3986821399
 30
0.0
 11
86.5576018054
 21
-121.5702550152
 31
0.0
  0
LINE
  5
125
330
1F
100
AcDbEntity
  8
0
  6
CONTINUOUS
 62
     7
100
AcDbLine
 10
86.5576018054
 20
-106.6915753588
 30
0.0
 11
166.5576018054
 21
-106.6915753588
 31
0.0
  0
LINE
  5
126
330
1F
100
AcDbEntity
  8
0
  6
CONTINUOUS
 62
     7
100
AcDbLine
 10
166.5576018054
 20
-106.6915753588
 30
0.0
 11
166.5576018054
 21
-107.3986821399
 31
0.0
  0
LINE
  5
127
330
1F
100
AcDbEntity
  8
0
  6
CONTINUOUS
 62
     7
100
AcDbLine
 10
166.5576018054
 20
-107.3986821399
 30
0.0
 11
86.5576018054
 21
-107.3986821399
 31
0.0
  0
LINE
  5
128
330
1F
100
AcDbEntity
  8
0
  6
CONTINUOUS
 62
     7
100
AcDbLine
 10
86.5576018054
 20
-106.6915753588
 30
0.0
 11
86.5576018054
 21
-107.3986821399
 31
0.0
  0
LINE
  5
129
330
1F
100
AcDbEntity
  8
0
  6
CONTINUOUS
 62
     7
100
AcDbLine
 10
166.5576018054
 20
-121.5702550152
 30
0.0
 11
176.5576018054
 21
-121.5702550152
 31
0.0
  0
LINE
  5
12A
330
1F
100
AcDbEntity
  8
0
  6
CONTINUOUS
 62
     7
100
AcDbLine
 10
166.5576018054
 20
-121.5702550152
 30
0.0
 11
166.5576018054
 21
-107.3986821399
 31
0.0
  0
LINE
  5
12B
330
1F
100
AcDbEntity
  8
0
  6
CONTINUOUS
 62
     7
100
AcDbLine
 10
176.5576018054
 20
-107.3986821399
 30
0.0
 11
166.5576018054
 21
-107.3986821399
 31
0.0
  0
LINE
  5
12C
330
1F
100
AcDbEntity
  8
0
  6
CONTINUOUS
 62
     7
100
AcDbLine
 10
176.5576018054
 20
-107.3986821399
 30
0.0
 11
176.5576018054
 21
-121.5702550152
 31
0.0
  0
LINE
  5
12D
330
1F
100
AcDbEntity
  8
0
  6
CONTINUOUS
 62
     7
100
AcDbLine
 10
86.5576018054
 20
-121.5702550152
 30
0.0
 11
166.5576018054
 21
-121.5702550152
 31
0.0
  0
LINE
  5
12E
330
1F
100
AcDbEntity
  8
0
  6
CONTINUOUS
 62
     7
100
AcDbLine
 10
76.8504950242
 20
-106.6915753588
 30
0.0
 11
86.5576018054
 21
-106.6915753588
 31
0.0
  0
ARC
  5
12F
330
1F
100
AcDbEntity
  8
0
  6
CONTINUOUS
 62
     7
100
AcDbCircle
 10
77.5576018054
 20
-107.3986821399
 30
0.0
 40
1.000000000000008
100
AcDbArc
 50
135.0
 51
180.0
  0
LINE
  5
130
330
1F
100
AcDbEntity
  8
0
  6
CONTINUOUS
 62
     7
100
AcDbLine
 10
166.5576018054
 20
-106.6915753588
 30
0.0
 11
176.2647085866
 21
-106.6915753588
 31
0.0
  0
ARC
  5
131
330
1F
100
AcDbEntity
  8
0
  6
CONTINUOUS
 62
     7
100
AcDbCircle
 10
175.5576018054
 20
-107.3986821399
 30
0.0
 40
1.0
100
AcDbArc
 50
0.0
 51
45.0
  0
LINE
  5
132
330
1F
100
AcDbEntity
  8
0
  6
CONTINUOUS
 62
     7
100
AcDbLine
 10
166.5576018054
 20
-122.2773617964
 30
0.0
 11
166.5576018054
 21
-121.5702550152
 31
0.0
  0
LINE
  5
133
330
1F
100
AcDbEntity
  8
0
  6
CONTINUOUS
 62
     7
100
AcDbLine
 10
166.5576018054
 20
-122.2773617964
 30
0.0
 11
86.5576018054
 21
-122.2773617964
 31
0.0
  0
LINE
  5
134
330
1F
100
AcDbEntity
  8
0
  6
CONTINUOUS
 62
     7
100
AcDbLine
 10
86.5576018054
 20
-121.5702550152
 30
0.0
 11
86.5576018054
 21
-122.2773617964
 31
0.0
  0
LINE
  5
135
330
1F
100
AcDbEntity
  8
0
  6
CONTINUOUS
 62
     7
100
AcDbLine
 10
86.5576018054
 20
-122.2773617964
 30
0.0
 11
76.8504950242
 21
-122.2773617964
 31
0.0
  0
ARC
  5
136
330
1F
100
AcDbEntity
  8
0
  6
CONTINUOUS
 62
     7
100
AcDbCircle
 10
77.5576018054
 20
-121.5702550152
 30
0.0
 40
1.000000000000008
100
AcDbArc
 50
180.0
 51
225.0
  0
LINE
  5
137
330
1F
100
AcDbEntity
  8
0
  6
CONTINUOUS
 62
     7
100
AcDbLine
 10
176.2647085866
 20
-122.2773617964
 30
0.0
 11
166.5576018054
 21
-122.2773617964
 31
0.0
  0
ARC
  5
138
330
1F
100
AcDbEntity
  8
0
  6
CONTINUOUS
 62
     7
100
AcDbCircle
 10
175.5576018054
 20
-121.5702550152
 30
0.0
 40
1.0
100
AcDbArc
 50
315.0
 51
0.0
  0
LINE
  5
139
330
1F
100
AcDbEntity
  8
0
  6
CONTINUOUS
 62
     7
100
AcDbLine
 10
86.5576018054
 20
-102.2773617964
 30
0.0
 11
81.2647085866
 21
-102.2773617964
 31
0.0
  0
LINE
  5
13A
330
1F
100
AcDbEntity
  8
0
  6
CONTINUOUS
 62
     7
100
AcDbLine
 10
86.5576018054
 20
-102.2773617964
 30
0.0
 11
86.5576018054
 21
-106.6915753588
 31
0.0
  0
LINE
  5
13B
330
1F
100
AcDbEntity
  8
0
  6
CONTINUOUS
 62
     7
100
AcDbLine
 10
81.2647085866
 20
-102.2773617964
 30
0.0
 11
76.8504950242
 21
-106.6915753588
 31
0.0
  0
LINE
  5
13C
330
1F
100
AcDbEntity
  8
0
  6
CONTINUOUS
 62
     7
100
AcDbLine
 10
166.5576018054
 20
-102.2773617964
 30
0.0
 11
86.5576018054
 21
-102.2773617964
 31
0.0
  0
LINE
  5
13D
330
1F
100
AcDbEntity
  8
0
  6
CONTINUOUS
 62
     7
100
AcDbLine
 10
166.5576018054
 20
-102.2773617964
 30
0.0
 11
166.5576018054
 21
-106.6915753588
 31
0.0
  0
LINE
  5
13E
330
1F
100
AcDbEntity
  8
0
  6
CONTINUOUS
 62
     7
100
AcDbLine
 10
171.8504950242
 20
-102.2773617964
 30
0.0
 11
166.5576018054
 21
-102.2773617964
 31
0.0
  0
LINE
  5
13F
330
1F
100
AcDbEntity
  8
0
  6
CONTINUOUS
 62
     7
100
AcDbLine
 10
176.2647085866
 20
-106.6915753588
 30
0.0
 11
171.8504950242
 21
-102.2773617964
 31
0.0
  0
LINE
  5
140
330
1F
100
AcDbEntity
  8
0
  6
CONTINUOUS
 62
     7
100
AcDbLine
 10
166.5576018054
 20
-126.6915753588
 30
0.0
 11
171.8504950242
 21
-126.6915753588
 31
0.0
  0
LINE
  5
141
330
1F
100
AcDbEntity
  8
0
  6
CONTINUOUS
 62
     7
100
AcDbLine
 10
166.5576018054
 20
-126.6915753588
 30
0.0
 11
166.5576018054
 21
-122.2773617964
 31
0.0
  0
LINE
  5
142
330
1F
100
AcDbEntity
  8
0
  6
CONTINUOUS
 62
     7
100
AcDbLine
 10
176.2647085866
 20
-122.2773617964
 30
0.0
 11
171.8504950242
 21
-126.6915753588
 31
0.0
  0
LINE
  5
143
330
1F
100
AcDbEntity
  8
0
  6
CONTINUOUS
 62
     7
100
AcDbLine
 10
86.5576018054
 20
-126.6915753588
 30
0.0
 11
166.5576018054
 21
-126.6915753588
 31
0.0
  0
LINE
  5
144
330
1F
100
AcDbEntity
  8
0
  6
CONTINUOUS
 62
     7
100
AcDbLine
 10
86.5576018054
 20
-126.6915753588
 30
0.0
 11
86.5576018054
 21
-122.2773617964
 31
0.0
  0
LINE
  5
145
330
1F
100
AcDbEntity
  8
0
  6
CONTINUOUS
 62
     7
100
AcDbLine
 10
81.2647085866
 20
-126.6915753588
 30
0.0
 11
86.5576018054
 21
-126.6915753588
 31
0.0
  0
LINE
  5
146
330
1F
100
AcDbEntity
  8
0
  6
CONTINUOUS
 62
     7
100
AcDbLine
 10
81.2647085866
 20
-126.6915753588
 30
0.0
 11
76.8504950242
 21
-122.2773617964
 31
0.0
  0
LINE
  5
147
330
1F
100
AcDbEntity
  8
0
  6
CONTINUOUS
 62
     7
100
AcDbLine
 10
81.9718153678
 20
-101.9844685776
 30
0.0
 11
86.5576018054
 21
-101.9844685776
 31
0.0
  0
LINE
  5
148
330
1F
100
AcDbEntity
  8
0
  6
CONTINUOUS
 62
     7
100
AcDbLine
 10
86.5576018054
 20
-101.9844685776
 30
0.0
 11
86.5576018054
 21
-102.2773617964
 31
0.0
  0
ARC
  5
149
330
1F
100
AcDbEntity
  8
0
  6
CONTINUOUS
 62
     7
100
AcDbCircle
 10
81.9718153678
 20
-102.9844685776
 30
0.0
 40
1.000000000000018
100
AcDbArc
 50
90.0
 51
135.0
  0
LINE
  5
14A
330
1F
100
AcDbEntity
  8
0
  6
CONTINUOUS
 62
     7
100
AcDbLine
 10
166.5576018054
 20
-102.2773617964
 30
0.0
 11
166.5576018054
 21
-101.9844685776
 31
0.0
  0
LINE
  5
14B
330
1F
100
AcDbEntity
  8
0
  6
CONTINUOUS
 62
     7
100
AcDbLine
 10
166.5576018054
 20
-101.9844685776
 30
0.0
 11
171.143388243
 21
-101.9844685776
 31
0.0
  0
ARC
  5
14C
330
1F
100
AcDbEntity
  8
0
  6
CONTINUOUS
 62
     7
100
AcDbCircle
 10
171.143388243
 20
-102.9844685776
 30
0.0
 40
1.000000000000018
100
AcDbArc
 50
45.0
 51
90.0
  0
LINE
  5
14D
330
1F
100
AcDbEntity
  8
0
  6
CONTINUOUS
 62
     7
100
AcDbLine
 10
86.5576018054
 20
-101.9844685776
 30
0.0
 11
166.5576018054
 21
-101.9844685776
 31
0.0
  0
LINE
  5
14E
330
1F
100
AcDbEntity
  8
0
  6
CONTINUOUS
 62
     7
100
AcDbLine
 10
166.5576018054
 20
-126.6915753588
 30
0.0
 11
166.5576018054
 21
-126.9844685776
 31
0.0
  0
LINE
  5
14F
330
1F
100
AcDbEntity
  8
0
  6
CONTINUOUS
 62
     7
100
AcDbLine
 10
166.5576018054
 20
-126.9844685776
 30
0.0
 11
86.5576018054
 21
-126.9844685776
 31
0.0
  0
LINE
  5
150
330
1F
100
AcDbEntity
  8
0
  6
CONTINUOUS
 62
     7
100
AcDbLine
 10
86.5576018054
 20
-126.6915753588
 30
0.0
 11
86.5576018054
 21
-126.9844685776
 31
0.0
  0
ARC
  5
151
330
1F
100
AcDbEntity
  8
0
  6
CONTINUOUS
 62
     7
100
AcDbCircle
 10
171.143388243
 20
-125.9844685776
 30
0.0
 40
1.0
100
AcDbArc
 50
270.0
 51
315.0
  0
LINE
  5
152
330
1F
100
AcDbEntity
  8
0
  6
CONTINUOUS
 62
     7
100
AcDbLine
 10
171.143388243
 20
-126.9844685776
 30
0.0
 11
166.5576018054
 21
-126.9844685776
 31
0.0
  0
LINE
  5
153
330
1F
100
AcDbEntity
  8
0
  6
CONTINUOUS
 62
     7
100
AcDbLine
 10
86.5576018054
 20
-126.9844685776
 30
0.0
 11
81.9718153678
 21
-126.9844685776
 31
0.0
  0
ARC
  5
154
330
1F
100
AcDbEntity
  8
0
  6
CONTINUOUS
 62
     7
100
AcDbCircle
 10
81.9718153678
 20
-125.9844685776
 30
0.0
 40
1.000000000000008
100
AcDbArc
 50
225.0
 51
270.0
  0
LINE
  5
155
330
1F
100
AcDbEntity
  8
0
  6
CONTINUOUS
 62
     7
100
AcDbLine
 10
115.5576018054
 20
-65.4844685776
 30
0.0
 11
115.5576018054
 21
-66.9844685776
 31
0.0
  0
LINE
  5
156
330
1F
100
AcDbEntity
  8
0
  6
CONTINUOUS
 62
     7
100
AcDbLine
 10
115.5576018054
 20
-65.4844685776
 30
0.0
 11
137.5576018054
 21
-65.4844685776
 31
0.0
  0
LINE
  5
157
330
1F
100
AcDbEntity
  8
0
  6
CONTINUOUS
 62
     7
100
AcDbLine
 10
137.5576018054
 20
-66.9844685776
 30
0.0
 11
137.5576018054
 21
-65.4844685776
 31
0.0
  0
LINE
  5
158
330
1F
100
AcDbEntity
  8
0
  6
CONTINUOUS
 62
     7
100
AcDbLine
 10
115.5576018054
 20
-66.9844685776
 30
0.0
 11
137.5576018054
 21
-66.9844685776
 31
0.0
  0
LINE
  5
159
330
1F
100
AcDbEntity
  8
0
  6
CONTINUOUS
 62
     7
100
AcDbLine
 10
142.5576018054
 20
-65.4844685776
 30
0.0
 11
142.5576018054
 21
-66.9844685776
 31
0.0
  0
LINE
  5
15A
330
1F
100
AcDbEntity
  8
0
  6
CONTINUOUS
 62
     7
100
AcDbLine
 10
137.5576018054
 20
-65.4844685776
 30
0.0
 11
142.5576018054
 21
-65.4844685776
 31
0.0
  0
LINE
  5
15B
330
1F
100
AcDbEntity
  8
0
  6
CONTINUOUS
 62
     7
100
AcDbLine
 10
142.5576018054
 20
-66.9844685776
 30
0.0
 11
137.5576018054
 21
-66.9844685776
 31
0.0
  0
LINE
  5
15C
330
1F
100
AcDbEntity
  8
0
  6
CONTINUOUS
 62
     7
100
AcDbLine
 10
110.5576018054
 20
-66.9844685776
 30
0.0
 11
110.5576018054
 21
-65.4844685776
 31
0.0
  0
LINE
  5
15D
330
1F
100
AcDbEntity
  8
0
  6
CONTINUOUS
 62
     7
100
AcDbLine
 10
110.5576018054
 20
-65.4844685776
 30
0.0
 11
115.5576018054
 21
-65.4844685776
 31
0.0
  0
LINE
  5
15E
330
1F
100
AcDbEntity
  8
0
  6
CONTINUOUS
 62
     7
100
AcDbLine
 10
115.5576018054
 20
-66.9844685776
 30
0.0
 11
110.5576018054
 21
-66.9844685776
 31
0.0
  0
LINE
  5
15F
330
1F
100
AcDbEntity
  8
0
  6
CONTINUOUS
 62
     7
100
AcDbLine
 10
137.5576018054
 20
-101.9844685776
 30
0.0
 11
137.5576018054
 21
-66.9844685776
 31
0.0
  0
LINE
  5
160
330
1F
100
AcDbEntity
  8
0
  6
CONTINUOUS
 62
     7
100
AcDbLine
 10
142.5576018054
 20
-66.9844685776
 30
0.0
 11
142.5576018054
 21
-101.9844685776
 31
0.0
  0
LINE
  5
161
330
1F
100
AcDbEntity
  8
0
  6
CONTINUOUS
 62
     7
100
AcDbLine
 10
115.5576018054
 20
-66.9844685776
 30
0.0
 11
115.5576018054
 21
-101.9844685776
 31
0.0
  0
LINE
  5
162
330
1F
100
AcDbEntity
  8
0
  6
CONTINUOUS
 62
     7
100
AcDbLine
 10
110.5576018054
 20
-101.9844685776
 30
0.0
 11
110.5576018054
 21
-66.9844685776
 31
0.0
  0
SPLINE
  5
163
330
1F
100
AcDbEntity
  8
0
  6
CONTINUOUS
 62
     7
100
AcDbSpline
210
0.0
220
0.0
230
1.0
 70
     8
 71
     3
 72
    12
 73
     8
 74
     0
 42
0.00000001
 43
0.00000001
 40
0.0
 40
0.0
 40
0.0
 40
0.0
 40
0.090469052482276
 40
0.1858192837529802
 40
0.4089514465726154
 40
0.6830777780257488
 40
1.0
 40
1.0
 40
1.0
 40
1.0
 10
130.8851018054163
 20
-91.15986857757255
 30
0.0
 10
130.86695323034
 20
-91.32185860886094
 30
0.0
 10
130.8296768896546
 20
-91.6545787022324
 30
0.0
 10
130.4366927317305
 20
-92.29097569500908
 30
0.0
 10
129.5658393071288
 20
-92.93174182308903
 30
0.0
 10
128.1797118548321
 20
-93.42412366683236
 30
0.0
 10
127.1237904263223
 20
-93.48677481905979
 30
0.0
 10
126.5576018054163
 20
-93.52036857757255
 30
0.0
  0
SPLINE
  5
164
330
1F
100
AcDbEntity
  8
0
  6
CONTINUOUS
 62
     7
100
AcDbSpline
210
0.0
220
0.0
230
1.0
 70
     8
 71
     3
 72
    12
 73
     8
 74
     0
 42
0.00000001
 43
0.00000001
 40
0.0
 40
0.0
 40
0.0
 40
0.0
 40
0.3169222219742528
 40
0.5910485534273862
 40
0.8141807162470205
 40
0.9095309475177245
 40
1.0
 40
1.0
 40
1.0
 40
1.0
 10
126.5576018054162
 20
-88.79936857757257
 30
0.0
 10
127.1237904263223
 20
-88.83296233608534
 30
0.0
 10
128.1797118548321
 20
-88.89561348831276
 30
0.0
 10
129.5658393071288
 20
-89.38799533205608
 30
0.0
 10
130.4366927317305
 20
-90.02876146013605
 30
0.0
 10
130.8296768896546
 20
-90.6651584529127
 30
0.0
 10
130.86695323034
 20
-90.99787854628417
 30
0.0
 10
130.8851018054163
 20
-91.15986857757255
 30
0.0
  0
SPLINE
  5
165
330
1F
100
AcDbEntity
  8
0
  6
CONTINUOUS
 62
     7
100
AcDbSpline
210
0.0
220
0.0
230
1.0
 70
     8
 71
     3
 72
    12
 73
     8
 74
     0
 42
0.00000001
 43
0.00000001
 40
0.0
 40
0.0
 40
0.0
 40
0.0
 40
0.0904690524822759
 40
0.1858192837529797
 40
0.4089514465726142
 40
0.683077778025748
 40
1.0
 40
1.0
 40
1.0
 40
1.0
 10
122.2301018054162
 20
-91.15986857757255
 30
0.0
 10
122.2482503804925
 20
-90.99787854628417
 30
0.0
 10
122.2855267211778
 20
-90.6651584529127
 30
0.0
 10
122.678510879102
 20
-90.02876146013605
 30
0.0
 10
123.5493643037037
 20
-89.38799533205606
 30
0.0
 10
124.9354917560004
 20
-88.89561348831276
 30
0.0
 10
125.9914131845102
 20
-88.83296233608534
 30
0.0
 10
126.5576018054162
 20
-88.79936857757257
 30
0.0
  0
SPLINE
  5
166
330
1F
100
AcDbEntity
  8
0
  6
CONTINUOUS
 62
     7
100
AcDbSpline
210
0.0
220
0.0
230
1.0
 70
     8
 71
     3
 72
    12
 73
     8
 74
     0
 42
0.00000001
 43
0.00000001
 40
0.0
 40
0.0
 40
0.0
 40
0.0
 40
0.3169222219742538
 40
0.5910485534273873
 40
0.8141807162470216
 40
0.9095309475177245
 40
0.9999999999999999
 40
0.9999999999999999
 40
0.9999999999999999
 40
0.9999999999999999
 10
126.5576018054163
 20
-93.52036857757255
 30
0.0
 10
125.9914131845102
 20
-93.48677481905979
 30
0.0
 10
124.9354917560004
 20
-93.42412366683236
 30
0.0
 10
123.5493643037037
 20
-92.93174182308904
 30
0.0
 10
122.678510879102
 20
-92.29097569500908
 30
0.0
 10
122.2855267211778
 20
-91.65457870223239
 30
0.0
 10
122.2482503804925
 20
-91.32185860886094
 30
0.0
 10
122.2301018054162
 20
-91.15986857757255
 30
0.0
  0
SPLINE
  5
167
330
1F
100
AcDbEntity
  8
0
  6
CONTINUOUS
 62
     7
100
AcDbSpline
210
0.0
220
0.0
230
1.0
 70
     8
 71
     3
 72
    12
 73
     8
 74
     0
 42
0.00000001
 43
0.00000001
 40
0.0
 40
0.0
 40
0.0
 40
0.0
 40
0.3143673319851782
 40
0.5871575300358861
 40
0.8110328976779899
 40
0.9077109548243034
 40
1.0
 40
1.0
 40
1.0
 40
1.0
 10
126.5576018054163
 20
-93.68746857757256
 30
0.0
 10
125.9685593332351
 20
-93.65141739603905
 30
0.0
 10
124.8683791050032
 20
-93.58408303731156
 30
0.0
 10
123.4242951622836
 20
-93.05492854251041
 30
0.0
 10
122.5205389078524
 20
-92.36699760582775
 30
0.0
 10
122.1148043764355
 20
-91.6879182778509
 30
0.0
 10
122.0763717797188
 20
-91.33313839968159
 30
0.0
 10
122.0576018054163
 20
-91.15986857757255
 30
0.0
  0
SPLINE
  5
168
330
1F
100
AcDbEntity
  8
0
  6
CONTINUOUS
 62
     7
100
AcDbSpline
210
0.0
220
0.0
230
1.0
 70
     8
 71
     3
 72
    12
 73
     8
 74
     0
 42
0.00000001
 43
0.00000001
 40
0.0
 40
0.0
 40
0.0
 40
0.0
 40
0.0922890451756973
 40
0.1889671023220117
 40
0.4128424699641164
 40
0.6856326680148237
 40
1.0
 40
1.0
 40
1.0
 40
1.0
 10
122.0576018054163
 20
-91.15986857757255
 30
0.0
 10
122.0763717797188
 20
-90.98659875546352
 30
0.0
 10
122.1148043764355
 20
-90.63181887729421
 30
0.0
 10
122.5205389078525
 20
-89.95273954931739
 30
0.0
 10
123.4242951622836
 20
-89.2648086126347
 30
0.0
 10
124.8683791050032
 20
-88.73565411783358
 30
0.0
 10
125.9685593332351
 20
-88.66831975910608
 30
0.0
 10
126.5576018054162
 20
-88.63226857757256
 30
0.0
  0
SPLINE
  5
169
330
1F
100
AcDbEntity
  8
0
  6
CONTINUOUS
 62
     7
100
AcDbSpline
210
0.0
220
0.0
230
1.0
 70
     8
 71
     3
 72
    12
 73
     8
 74
     0
 42
0.00000001
 43
0.00000001
 40
0.0
 40
0.0
 40
0.0
 40
0.0
 40
0.3143673319851774
 40
0.5871575300358851
 40
0.8110328976779894
 40
0.9077109548243034
 40
1.0
 40
1.0
 40
1.0
 40
1.0
 10
126.5576018054162
 20
-88.63226857757256
 30
0.0
 10
127.1466442775974
 20
-88.66831975910608
 30
0.0
 10
128.2468245058292
 20
-88.73565411783356
 30
0.0
 10
129.690908448549
 20
-89.26480861263474
 30
0.0
 10
130.59466470298
 20
-89.95273954931737
 30
0.0
 10
131.000399234397
 20
-90.63181887729421
 30
0.0
 10
131.0388318311137
 20
-90.98659875546352
 30
0.0
 10
131.0576018054163
 20
-91.15986857757255
 30
0.0
  0
SPLINE
  5
16A
330
1F
100
AcDbEntity
  8
0
  6
CONTINUOUS
 62
     7
100
AcDbSpline
210
0.0
220
0.0
230
1.0
 70
     8
 71
     3
 72
    12
 73
     8
 74
     0
 42
0.00000001
 43
0.00000001
 40
0.0
 40
0.0
 40
0.0
 40
0.0
 40
0.0922890451756974
 40
0.1889671023220122
 40
0.4128424699641173
 40
0.6856326680148244
 40
0.9999999999999999
 40
0.9999999999999999
 40
0.9999999999999999
 40
0.9999999999999999
 10
131.0576018054163
 20
-91.15986857757255
 30
0.0
 10
131.0388318311137
 20
-91.33313839968159
 30
0.0
 10
131.000399234397
 20
-91.68791827785088
 30
0.0
 10
130.59466470298
 20
-92.36699760582775
 30
0.0
 10
129.6909084485489
 20
-93.05492854251038
 30
0.0
 10
128.2468245058292
 20
-93.58408303731156
 30
0.0
 10
127.1466442775974
 20
-93.65141739603905
 30
0.0
 10
126.5576018054163
 20
-93.68746857757256
 30
0.0
  0
LINE
  5
16B
330
1F
100
AcDbEntity
  8
0
  6
CONTINUOUS
 62
     7
100
AcDbLine
 10
130.2492018054
 20
-90.7970685776
 30
0.0
 11
130.2492018054
 21
-91.0682685776
 31
0.0
  0
LINE
  5
16C
330
1F
100
AcDbEntity
  8
0
  6
CONTINUOUS
 62
     7
100
AcDbLine
 10
130.2492018054
 20
-91.0682685776
 30
0.0
 11
129.6241018054
 21
-91.0682685776
 31
0.0
  0
LINE
  5
16D
330
1F
100
AcDbEntity
  8
0
  6
CONTINUOUS
 62
     7
100
AcDbLine
 10
129.6241018054
 20
-90.7556685776
 30
0.0
 11
128.4924018054
 21
-90.7556685776
 31
0.0
  0
LINE
  5
16E
330
1F
100
AcDbEntity
  8
0
  6
CONTINUOUS
 62
     7
100
AcDbLine
 10
128.4924018054
 20
-90.7556685776
 30
0.0
 11
128.4924018054
 21
-91.5748685776
 31
0.0
  0
LINE
  5
16F
330
1F
100
AcDbEntity
  8
0
  6
CONTINUOUS
 62
     7
100
AcDbLine
 10
128.4924018054
 20
-91.5748685776
 30
0.0
 11
129.1822018054
 21
-91.5748685776
 31
0.0
  0
LINE
  5
170
330
1F
100
AcDbEntity
  8
0
  6
CONTINUOUS
 62
     7
100
AcDbLine
 10
129.1822018054
 20
-91.5748685776
 30
0.0
 11
129.1822018054
 21
-91.9844685776
 31
0.0
  0
LINE
  5
171
330
1F
100
AcDbEntity
  8
0
  6
CONTINUOUS
 62
     7
100
AcDbLine
 10
129.1822018054
 20
-91.9844685776
 30
0.0
 11
127.8672018054
 21
-91.9844685776
 31
0.0
  0
SPLINE
  5
172
330
1F
100
AcDbEntity
  8
0
  6
CONTINUOUS
 62
     7
100
AcDbSpline
210
0.0
220
0.0
230
1.0
 70
     8
 71
     3
 72
    11
 73
     7
 74
     0
 42
0.00000001
 43
0.00000001
 40
0.0
 40
0.0
 40
0.0
 40
0.0
 40
0.2833448308640375
 40
0.5580866109706034
 40
0.7754665892499427
 40
1.0
 40
1.0
 40
1.0
 40
1.0
 10
127.8672018054162
 20
-90.79646857757257
 30
0.0
 10
127.8761888432242
 20
-90.72789356184835
 30
0.0
 10
127.8938900501163
 20
-90.59282563770066
 30
0.0
 10
128.0172355651068
 20
-90.4430115813204
 30
0.0
 10
128.1675437272447
 20
-90.35181847757957
 30
0.0
 10
128.2742069125148
 20
-90.34084442473302
 30
0.0
 10
128.3284018054162
 20
-90.33526857757255
 30
0.0
  0
LINE
  5
173
330
1F
100
AcDbEntity
  8
0
  6
CONTINUOUS
 62
     7
100
AcDbLine
 10
127.8672018054
 20
-91.9844685776
 30
0.0
 11
127.8672018054
 21
-90.7964685776
 31
0.0
  0
SPLINE
  5
174
330
1F
100
AcDbEntity
  8
0
  6
CONTINUOUS
 62
     7
100
AcDbSpline
210
0.0
220
0.0
230
1.0
 70
     8
 71
     3
 72
    11
 73
     7
 74
     0
 42
0.00000001
 43
0.00000001
 40
0.0
 40
0.0
 40
0.0
 40
0.0
 40
0.2832327603404952
 40
0.5580114153644161
 40
0.7754417085638463
 40
1.0
 40
1.0
 40
1.0
 40
1.0
 10
129.7875018054163
 20
-90.33526857757255
 30
0.0
 10
129.8561254414801
 20
-90.34427490242388
 30
0.0
 10
129.9913243931883
 20
-90.36201872581304
 30
0.0
 10
130.1412801882216
 20
-90.48552063891994
 30
0.0
 10
130.23261648657
 20
-90.63600437265306
 30
0.0
 10
130.2436142451159
 20
-90.74280637341761
 30
0.0
 10
130.2492018054162
 20
-90.79706857757256
 30
0.0
  0
LINE
  5
175
330
1F
100
AcDbEntity
  8
0
  6
CONTINUOUS
 62
     7
100
AcDbLine
 10
129.6241018054
 20
-91.0682685776
 30
0.0
 11
129.6241018054
 21
-90.7556685776
 31
0.0
  0
LINE
  5
176
330
1F
100
AcDbEntity
  8
0
  6
CONTINUOUS
 62
     7
100
AcDbLine
 10
128.3284018054
 20
-90.3352685776
 30
0.0
 11
129.7875018054
 21
-90.3352685776
 31
0.0
  0
LINE
  5
177
330
1F
100
AcDbEntity
  8
0
  6
CONTINUOUS
 62
     7
100
AcDbLine
 10
125.8949018054
 20
-91.5748685776
 30
0.0
 11
127.0803018054
 21
-91.5748685776
 31
0.0
  0
LINE
  5
178
330
1F
100
AcDbEntity
  8
0
  6
CONTINUOUS
 62
     7
100
AcDbLine
 10
127.0803018054
 20
-91.5748685776
 30
0.0
 11
127.0803018054
 21
-90.3352685776
 31
0.0
  0
LINE
  5
179
330
1F
100
AcDbEntity
  8
0
  6
CONTINUOUS
 62
     7
100
AcDbLine
 10
127.6948018054
 20
-90.3352685776
 30
0.0
 11
127.6948018054
 21
-91.9844685776
 31
0.0
  0
LINE
  5
17A
330
1F
100
AcDbEntity
  8
0
  6
CONTINUOUS
 62
     7
100
AcDbLine
 10
127.6948018054
 20
-91.9844685776
 30
0.0
 11
125.7313018054
 21
-91.9844685776
 31
0.0
  0
SPLINE
  5
17B
330
1F
100
AcDbEntity
  8
0
  6
CONTINUOUS
 62
     7
100
AcDbSpline
210
0.0
220
0.0
230
1.0
 70
     8
 71
     3
 72
    11
 73
     7
 74
     0
 42
0.00000001
 43
0.00000001
 40
0.0
 40
0.0
 40
0.0
 40
0.0
 40
0.2832834002916863
 40
0.5580419236669933
 40
0.7754510728848735
 40
1.0
 40
1.0
 40
1.0
 40
1.0
 10
125.7313018054162
 20
-91.98446857757256
 30
0.0
 10
125.6626628159442
 20
-91.97546533782256
 30
0.0
 10
125.5274503972706
 20
-91.95772979375555
 30
0.0
 10
125.3774864242705
 20
-91.83421926814968
 30
0.0
 10
125.2861776747473
 20
-91.68372766335735
 30
0.0
 10
125.2751862833812
 20
-91.5769300402849
 30
0.0
 10
125.2696018054162
 20
-91.52266857757255
 30
0.0
  0
LINE
  5
17C
330
1F
100
AcDbEntity
  8
0
  6
CONTINUOUS
 62
     7
100
AcDbLine
 10
127.0803018054
 20
-90.3352685776
 30
0.0
 11
127.6948018054
 21
-90.3352685776
 31
0.0
  0
LINE
  5
17D
330
1F
100
AcDbEntity
  8
0
  6
CONTINUOUS
 62
     7
100
AcDbLine
 10
125.8949018054
 20
-90.3352685776
 30
0.0
 11
125.8949018054
 21
-91.5748685776
 31
0.0
  0
LINE
  5
17E
330
1F
100
AcDbEntity
  8
0
  6
CONTINUOUS
 62
     7
100
AcDbLine
 10
125.2696018054
 20
-90.3352685776
 30
0.0
 11
125.8949018054
 21
-90.3352685776
 31
0.0
  0
LINE
  5
17F
330
1F
100
AcDbEntity
  8
0
  6
CONTINUOUS
 62
     7
100
AcDbLine
 10
125.2696018054
 20
-91.5226685776
 30
0.0
 11
125.2696018054
 21
-90.3352685776
 31
0.0
  0
LINE
  5
180
330
1F
100
AcDbEntity
  8
0
  6
CONTINUOUS
 62
     7
100
AcDbLine
 10
122.8660018054
 20
-91.5748685776
 30
0.0
 11
122.8660018054
 21
-91.9844685776
 31
0.0
  0
LINE
  5
181
330
1F
100
AcDbEntity
  8
0
  6
CONTINUOUS
 62
     7
100
AcDbLine
 10
124.4936018054
 20
-91.5748685776
 30
0.0
 11
122.8660018054
 21
-91.5748685776
 31
0.0
  0
LINE
  5
182
330
1F
100
AcDbEntity
  8
0
  6
CONTINUOUS
 62
     7
100
AcDbLine
 10
125.1187018054
 20
-91.5226685776
 30
0.0
 11
125.1187018054
 21
-90.3352685776
 31
0.0
  0
SPLINE
  5
183
330
1F
100
AcDbEntity
  8
0
  6
CONTINUOUS
 62
     7
100
AcDbSpline
210
0.0
220
0.0
230
1.0
 70
     8
 71
     3
 72
    11
 73
     7
 74
     0
 42
0.00000001
 43
0.00000001
 40
0.0
 40
0.0
 40
0.0
 40
0.0
 40
0.2832831090848541
 40
0.5580598110863123
 40
0.7754688048580621
 40
1.0
 40
1.0
 40
1.0
 40
1.0
 10
124.6569018054162
 20
-91.98446857757256
 30
0.0
 10
124.7255463884374
 20
-91.97546424511238
 30
0.0
 10
124.8607742993306
 20
-91.95772596171132
 30
0.0
 10
125.0107685800593
 20
-91.83422390078196
 30
0.0
 10
125.1021162159631
 20
-91.68373424298149
 30
0.0
 10
125.1131141953386
 20
-91.5769308718222
 30
0.0
 10
125.1187018054162
 20
-91.52266857757256
 30
0.0
  0
LINE
  5
184
330
1F
100
AcDbEntity
  8
0
  6
CONTINUOUS
 62
     7
100
AcDbLine
 10
122.8660018054
 20
-91.9844685776
 30
0.0
 11
124.6569018054
 21
-91.9844685776
 31
0.0
  0
LINE
  5
185
330
1F
100
AcDbEntity
  8
0
  6
CONTINUOUS
 62
     7
100
AcDbLine
 10
125.1187018054
 20
-90.3352685776
 30
0.0
 11
124.4936018054
 21
-90.3352685776
 31
0.0
  0
LINE
  5
186
330
1F
100
AcDbEntity
  8
0
  6
CONTINUOUS
 62
     7
100
AcDbLine
 10
124.4936018054
 20
-90.3352685776
 30
0.0
 11
124.4936018054
 21
-91.5748685776
 31
0.0
  0
LINE
  5
187
330
1F
100
AcDbEntity
  8
0
  6
CONTINUOUS
 62
     7
100
AcDbLine
 10
124.2672018054
 20
-90.9928685776
 30
0.0
 11
123.2216018054
 21
-90.9928685776
 31
0.0
  0
LINE
  5
188
330
1F
100
AcDbEntity
  8
0
  6
CONTINUOUS
 62
     7
100
AcDbLine
 10
124.2672018054
 20
-91.3377685776
 30
0.0
 11
124.2672018054
 21
-90.9928685776
 31
0.0
  0
LINE
  5
189
330
1F
100
AcDbEntity
  8
0
  6
CONTINUOUS
 62
     7
100
AcDbLine
 10
123.2216018054
 20
-91.3377685776
 30
0.0
 11
124.2672018054
 21
-91.3377685776
 31
0.0
  0
LINE
  5
18A
330
1F
100
AcDbEntity
  8
0
  6
CONTINUOUS
 62
     7
100
AcDbLine
 10
123.2216018054
 20
-90.9928685776
 30
0.0
 11
123.2216018054
 21
-91.3377685776
 31
0.0
  0
ENDSEC
  0
SECTION
  2
OBJECTS
  0
DICTIONARY
  5
C
330
0
100
AcDbDictionary
  3
ACAD_GROUP
350
D
  3
ACAD_MLINESTYLE
350
17
  3
ACAD_SCALELIST
350
47
  3
DWGPROPS
350
18B
  0
DICTIONARY
  5
D
102
{ACAD_REACTORS
330
C
102
}
330
C
100
AcDbDictionary
  0
DICTIONARY
  5
17
102
{ACAD_REACTORS
330
C
102
}
330
C
100
AcDbDictionary
  3
STANDARD
350
18
  0
DICTIONARY
  5
47
102
{ACAD_REACTORS
330
C
102
}
330
C
100
AcDbDictionary
  0
XRECORD
  5
18B
102
{ACAD_REACTORS
330
C
102
}
330
C
100
AcDbXrecord
  1
DWGPROPS COOKIE
  2

  3

  4

  6

  7

  8
Pedro.Queiros
  9

300
=
301
=
302
=
303
=
304
=
305
=
306
=
307
=
308
=
309
=
 40
0.0
 41
2459716.699637535
 42
2459716.699638137
  1

 90
        0
  0
MLINESTYLE
  5
18
102
{ACAD_REACTORS
330
17
102
}
330
17
100
AcDbMlineStyle
  2
Standard
 70
     0
  3

 62
   256
 51
90.0
 52
90.0
 71
     2
 49
0.5
 62
   256
  6
BYLAYER
 49
-0.5
 62
   256
  6
BYLAYER
  0
ENDSEC
  0
EOF
