  0
SECTION
  2
HEADER
  9
$ACADVER
  1
AC1015
  9
$ACADMAINTVER
 70
     6
  9
$DWGCODEPAGE
  3
ANSI_1252
  9
$INSBASE
 10
0.0
 20
0.0
 30
0.0
  9
$EXTMIN
 10
0.0
 20
0.0
 30
0.0
  9
$EXTMAX
 10
279.4
 20
215.9
 30
0.0
  9
$LIMMIN
 10
0.0
 20
0.0
  9
$LIMMAX
 10
279.4
 20
215.9
  9
$ORTHOMODE
 70
     0
  9
$REGENMODE
 70
     1
  9
$FILLMODE
 70
     1
  9
$QTEXTMODE
 70
     0
  9
$MIRRTEXT
 70
     1
  9
$LTSCALE
 40
1.0
  9
$ATTMODE
 70
     1
  9
$TEXTSIZE
 40
3.5
  9
$TRACEWID
 40
1.0
  9
$TEXTSTYLE
  7
Standard
  9
$CLAYER
  8
0
  9
$CELTYPE
  6
ByLayer
  9
$CECOLOR
 62
   256
  9
$CELTSCALE
 40
1.0
  9
$DISPSILH
 70
     0
  9
$DIMSCALE
 40
1.0
  9
$DIMASZ
 40
3.302
  9
$DIMEXO
 40
1.0
  9
$DIMDLI
 40
3.75
  9
$DIMRND
 40
0.0
  9
$DIMDLE
 40
0.0
  9
$DIMEXE
 40
1.0
  9
$DIMTP
 40
0.0
  9
$DIMTM
 40
0.0
  9
$DIMTXT
 40
3.5
  9
$DIMCEN
 40
2.5
  9
$DIMTSZ
 40
0.0
  9
$DIMTOL
 70
     0
  9
$DIMLIM
 70
     0
  9
$DIMTIH
 70
     1
  9
$DIMTOH
 70
     1
  9
$DIMSE1
 70
     0
  9
$DIMSE2
 70
     0
  9
$DIMTAD
 70
     1
  9
$DIMZIN
 70
     0
  9
$DIMBLK
  1

  9
$DIMASO
 70
     1
  9
$DIMSHO
 70
     1
  9
$DIMPOST
  1

  9
$DIMAPOST
  1

  9
$DIMALT
 70
     0
  9
$DIMALTD
 70
     3
  9
$DIMALTF
 40
0.0393700787
  9
$DIMLFAC
 40
2.0
  9
$DIMTOFL
 70
     1
  9
$DIMTVP
 40
0.0
  9
$DIMTIX
 70
     0
  9
$DIMSOXD
 70
     0
  9
$DIMSAH
 70
     0
  9
$DIMBLK1
  1

  9
$DIMBLK2
  1

  9
$DIMSTYLE
  2
ISO-25
  9
$DIMCLRD
 70
     0
  9
$DIMCLRE
 70
     0
  9
$DIMCLRT
 70
     0
  9
$DIMTFAC
 40
1.0
  9
$DIMGAP
 40
1.524
  9
$DIMJUST
 70
     0
  9
$DIMSD1
 70
     0
  9
$DIMSD2
 70
     0
  9
$DIMTOLJ
 70
     0
  9
$DIMTZIN
 70
     0
  9
$DIMALTZ
 70
     0
  9
$DIMALTTZ
 70
     0
  9
$DIMUPT
 70
     0
  9
$DIMDEC
 70
     2
  9
$DIMTDEC
 70
     2
  9
$DIMALTU
 70
     2
  9
$DIMALTTD
 70
     3
  9
$DIMTXSTY
  7
Standard
  9
$DIMAUNIT
 70
     0
  9
$DIMADEC
 70
     2
  9
$DIMALTRND
 40
0.0
  9
$DIMAZIN
 70
     0
  9
$DIMDSEP
 70
    44
  9
$DIMATFIT
 70
     3
  9
$DIMFRAC
 70
     0
  9
$DIMLDRBLK
  1

  9
$DIMLUNIT
 70
     2
  9
$DIMLWD
 70
    -2
  9
$DIMLWE
 70
    -2
  9
$DIMTMOVE
 70
     0
  9
$LUNITS
 70
     2
  9
$LUPREC
 70
     2
  9
$SKETCHINC
 40
1.0
  9
$FILLETRAD
 40
10.0
  9
$AUNITS
 70
     0
  9
$AUPREC
 70
     2
  9
$MENU
  1
.
  9
$ELEVATION
 40
0.0
  9
$PELEVATION
 40
0.0
  9
$THICKNESS
 40
0.0
  9
$LIMCHECK
 70
     0
  9
$CHAMFERA
 40
0.0
  9
$CHAMFERB
 40
0.0
  9
$CHAMFERC
 40
0.0
  9
$CHAMFERD
 40
0.0
  9
$SKPOLY
 70
     0
  9
$TDCREATE
 40
2458206.726544988
  9
$TDUCREATE
 40
2458206.684878322
  9
$TDUPDATE
 40
2458206.726545336
  9
$TDUUPDATE
 40
2458206.684878669
  9
$TDINDWG
 40
0.0000000116
  9
$TDUSRTIMER
 40
0.0000000116
  9
$USRTIMER
 70
     1
  9
$ANGBASE
 50
0.0
  9
$ANGDIR
 70
     0
  9
$PDMODE
 70
     0
  9
$PDSIZE
 40
-1.0
  9
$PLINEWID
 40
0.0
  9
$SPLFRAME
 70
     0
  9
$SPLINETYPE
 70
     6
  9
$SPLINESEGS
 70
     8
  9
$HANDSEED
  5
2E7
  9
$SURFTAB1
 70
     6
  9
$SURFTAB2
 70
     6
  9
$SURFTYPE
 70
     6
  9
$SURFU
 70
     6
  9
$SURFV
 70
     6
  9
$UCSBASE
  2

  9
$UCSNAME
  2

  9
$UCSORG
 10
0.0
 20
0.0
 30
0.0
  9
$UCSXDIR
 10
1.0
 20
0.0
 30
0.0
  9
$UCSYDIR
 10
0.0
 20
1.0
 30
0.0
  9
$UCSORTHOREF
  2

  9
$UCSORTHOVIEW
 70
     0
  9
$UCSORGTOP
 10
0.0
 20
0.0
 30
0.0
  9
$UCSORGBOTTOM
 10
0.0
 20
0.0
 30
0.0
  9
$UCSORGLEFT
 10
0.0
 20
0.0
 30
0.0
  9
$UCSORGRIGHT
 10
0.0
 20
0.0
 30
0.0
  9
$UCSORGFRONT
 10
0.0
 20
0.0
 30
0.0
  9
$UCSORGBACK
 10
0.0
 20
0.0
 30
0.0
  9
$PUCSBASE
  2

  9
$PUCSNAME
  2

  9
$PUCSORG
 10
0.0
 20
0.0
 30
0.0
  9
$PUCSXDIR
 10
1.0
 20
0.0
 30
0.0
  9
$PUCSYDIR
 10
0.0
 20
1.0
 30
0.0
  9
$PUCSORTHOREF
  2

  9
$PUCSORTHOVIEW
 70
     0
  9
$PUCSORGTOP
 10
0.0
 20
0.0
 30
0.0
  9
$PUCSORGBOTTOM
 10
0.0
 20
0.0
 30
0.0
  9
$PUCSORGLEFT
 10
0.0
 20
0.0
 30
0.0
  9
$PUCSORGRIGHT
 10
0.0
 20
0.0
 30
0.0
  9
$PUCSORGFRONT
 10
0.0
 20
0.0
 30
0.0
  9
$PUCSORGBACK
 10
0.0
 20
0.0
 30
0.0
  9
$USERI1
 70
     0
  9
$USERI2
 70
     0
  9
$USERI3
 70
     0
  9
$USERI4
 70
     0
  9
$USERI5
 70
     0
  9
$USERR1
 40
0.0
  9
$USERR2
 40
0.0
  9
$USERR3
 40
0.0
  9
$USERR4
 40
0.0
  9
$USERR5
 40
0.0
  9
$WORLDVIEW
 70
     1
  9
$SHADEDGE
 70
     3
  9
$SHADEDIF
 70
    70
  9
$TILEMODE
 70
     1
  9
$MAXACTVP
 70
    64
  9
$PINSBASE
 10
0.0
 20
0.0
 30
0.0
  9
$PLIMCHECK
 70
     0
  9
$PEXTMIN
 10
1.0000000000E+20
 20
1.0000000000E+20
 30
1.0000000000E+20
  9
$PEXTMAX
 10
-1.0000000000E+20
 20
-1.0000000000E+20
 30
-1.0000000000E+20
  9
$PLIMMIN
 10
0.0
 20
0.0
  9
$PLIMMAX
 10
420.0
 20
297.0
  9
$UNITMODE
 70
     0
  9
$VISRETAIN
 70
     1
  9
$PLINEGEN
 70
     0
  9
$PSLTSCALE
 70
     1
  9
$TREEDEPTH
 70
  3020
  9
$CMLSTYLE
  2
Standard
  9
$CMLJUST
 70
     0
  9
$CMLSCALE
 40
20.0
  9
$PROXYGRAPHICS
 70
     1
  9
$MEASUREMENT
 70
     1
  9
$CELWEIGHT
370
    -1
  9
$ENDCAPS
280
     0
  9
$JOINSTYLE
280
     0
  9
$LWDISPLAY
290
     1
  9
$INSUNITS
 70
     4
  9
$HYPERLINKBASE
  1

  9
$STYLESHEET
  1

  9
$XEDIT
290
     1
  9
$CEPSNTYPE
380
     0
  9
$PSTYLEMODE
290
     1
  9
$FINGERPRINTGUID
  2
{DEC3D355-0931-4251-A92F-417F2EF870C7}
  9
$VERSIONGUID
  2
{FAEB1C32-E019-11D5-929B-00C0DF256EC4}
  9
$EXTNAMES
290
     1
  9
$PSVPSCALE
 40
0.0
  9
$OLESTARTUP
290
     0
  0
ENDSEC
  0
SECTION
  2
CLASSES
  0
CLASS
  1
ACDBDICTIONARYWDFLT
  2
AcDbDictionaryWithDefault
  3
ObjectDBX Classes
 90
        0
280
     0
281
     0
  0
CLASS
  1
VISUALSTYLE
  2
AcDbVisualStyle
  3
ObjectDBX Classes
 90
     4095
280
     0
281
     0
  0
CLASS
  1
MATERIAL
  2
AcDbMaterial
  3
ObjectDBX Classes
 90
     1153
280
     0
281
     0
  0
CLASS
  1
SCALE
  2
AcDbScale
  3
ObjectDBX Classes
 90
     1153
280
     0
281
     0
  0
CLASS
  1
TABLESTYLE
  2
AcDbTableStyle
  3
ObjectDBX Classes
 90
     4095
280
     0
281
     0
  0
CLASS
  1
MLEADERSTYLE
  2
AcDbMLeaderStyle
  3
ACDB_MLEADERSTYLE_CLASS
 90
     4095
280
     0
281
     0
  0
CLASS
  1
SUN
  2
AcDbSun
  3
SCENEOE
 90
     1153
280
     0
281
     0
  0
CLASS
  1
ACDBPLACEHOLDER
  2
AcDbPlaceHolder
  3
ObjectDBX Classes
 90
        0
280
     0
281
     0
  0
CLASS
  1
LAYOUT
  2
AcDbLayout
  3
ObjectDBX Classes
 90
        0
280
     0
281
     0
  0
ENDSEC
  0
SECTION
  2
TABLES
  0
TABLE
  2
VPORT
  5
8
330
0
100
AcDbSymbolTable
 70
     1
  0
VPORT
  5
29
330
8
100
AcDbSymbolTableRecord
100
AcDbViewportTableRecord
  2
*Active
 70
     0
 10
0.0
 20
0.0
 11
1.0
 21
1.0
 12
139.7
 22
107.95
 13
0.0
 23
0.0
 14
10.0
 24
10.0
 15
10.0
 25
10.0
 16
0.0
 26
0.0
 36
1.0
 17
0.0
 27
0.0
 37
0.0
 40
215.9
 41
1.2941176471
 42
50.0
 43
0.0
 44
0.0
 50
0.0
 51
0.0
 71
     0
 72
  2000
 73
     1
 74
     3
 75
     0
 76
     0
 77
     0
 78
     0
281
     0
 65
     1
110
0.0
120
0.0
130
0.0
111
1.0
121
0.0
131
0.0
112
0.0
122
1.0
132
0.0
 79
     0
146
0.0
  0
ENDTAB
  0
TABLE
  2
LTYPE
  5
5
330
0
100
AcDbSymbolTable
 70
     6
  0
LTYPE
  5
14
330
5
100
AcDbSymbolTableRecord
100
AcDbLinetypeTableRecord
  2
ByBlock
 70
     0
  3

 72
    65
 73
     0
 40
0.0
  0
LTYPE
  5
15
330
5
100
AcDbSymbolTableRecord
100
AcDbLinetypeTableRecord
  2
ByLayer
 70
     0
  3

 72
    65
 73
     0
 40
0.0
  0
LTYPE
  5
16
330
5
100
AcDbSymbolTableRecord
100
AcDbLinetypeTableRecord
  2
Continuous
 70
     0
  3
Solid line
 72
    65
 73
     0
 40
0.0
  0
LTYPE
  5
6E
330
5
100
AcDbSymbolTableRecord
100
AcDbLinetypeTableRecord
  2
HIDDEN
 70
     0
  3
Hidden __ __ __ __ __ __ __ __ __ __ __ __ __ __
 72
    65
 73
     2
 40
1.905
 49
1.27
 74
     0
 49
-0.635
 74
     0
  0
LTYPE
  5
6F
330
5
100
AcDbSymbolTableRecord
100
AcDbLinetypeTableRecord
  2
PHANTOM
 70
     0
  3
Phantom ______  __  __  ______  __  __  ______
 72
    65
 73
     6
 40
12.7
 49
6.35
 74
     0
 49
-1.27
 74
     0
 49
1.27
 74
     0
 49
-1.27
 74
     0
 49
1.27
 74
     0
 49
-1.27
 74
     0
  0
LTYPE
  5
70
330
5
100
AcDbSymbolTableRecord
100
AcDbLinetypeTableRecord
  2
CENTER
 70
     0
  3
Center ____ _ ____ _ ____ _ ____ _ ____ _ ____
 72
    65
 73
     4
 40
10.16
 49
6.35
 74
     0
 49
-1.27
 74
     0
 49
1.27
 74
     0
 49
-1.27
 74
     0
  0
LTYPE
  5
71
330
5
100
AcDbSymbolTableRecord
100
AcDbLinetypeTableRecord
  2
CENTERX2
 70
     0
  3
Center (2x) ________  __  ________  __  _____
 72
    65
 73
     4
 40
20.32
 49
12.7
 74
     0
 49
-2.54
 74
     0
 49
2.54
 74
     0
 49
-2.54
 74
     0
  0
LTYPE
  5
72
330
5
100
AcDbSymbolTableRecord
100
AcDbLinetypeTableRecord
  2
DOT2
 70
     0
  3
Dot (.5x) ........................................
 72
    65
 73
     2
 40
0.635
 49
0.0
 74
     0
 49
-0.635
 74
     0
  0
ENDTAB
  0
TABLE
  2
LAYER
  5
2
330
0
100
AcDbSymbolTable
 70
     1
  0
LAYER
  5
10
330
2
100
AcDbSymbolTableRecord
100
AcDbLayerTableRecord
  2
0
 70
     0
 62
     7
  6
Continuous
370
    -3
390
F
  0
ENDTAB
  0
TABLE
  2
STYLE
  5
3
330
0
100
AcDbSymbolTable
 70
     1
  0
STYLE
  5
11
330
3
100
AcDbSymbolTableRecord
100
AcDbTextStyleTableRecord
  2
Standard
 70
     0
 40
0.0
 41
1.0
 50
0.0
 71
     0
 42
3.5
  3
txt
  4

  0
ENDTAB
  0
TABLE
  2
VIEW
  5
6
330
0
100
AcDbSymbolTable
 70
     0
  0
ENDTAB
  0
TABLE
  2
UCS
  5
7
330
0
100
AcDbSymbolTable
 70
     0
  0
ENDTAB
  0
TABLE
  2
APPID
  5
9
330
0
100
AcDbSymbolTable
 70
     1
  0
APPID
  5
12
330
9
100
AcDbSymbolTableRecord
100
AcDbRegAppTableRecord
  2
ACAD
 70
     0
  0
ENDTAB
  0
TABLE
  2
DIMSTYLE
  5
A
330
0
100
AcDbSymbolTable
 70
     1
100
AcDbDimStyleTable
  0
DIMSTYLE
105
27
330
A
100
AcDbSymbolTableRecord
100
AcDbDimStyleTableRecord
  2
ISO-25
 70
     0
 41
2.5
 42
0.625
 43
3.75
 44
1.25
 73
     0
 74
     0
 77
     1
 78
     8
140
2.5
141
2.5
143
0.0393700787
147
0.625
171
     3
172
     1
178
     0
271
     2
272
     2
274
     3
278
    44
283
     0
284
     8
340
11
  0
ENDTAB
  0
TABLE
  2
BLOCK_RECORD
  5
1
330
0
100
AcDbSymbolTable
 70
     1
  0
BLOCK_RECORD
  5
1F
330
1
100
AcDbSymbolTableRecord
100
AcDbBlockTableRecord
  2
*Model_Space
340
22
  0
BLOCK_RECORD
  5
1B
330
1
100
AcDbSymbolTableRecord
100
AcDbBlockTableRecord
  2
*Paper_Space
340
1E
  0
BLOCK_RECORD
  5
23
330
1
100
AcDbSymbolTableRecord
100
AcDbBlockTableRecord
  2
*Paper_Space0
340
26
  0
ENDTAB
  0
ENDSEC
  0
SECTION
  2
BLOCKS
  0
BLOCK
  5
20
330
1F
100
AcDbEntity
  8
0
100
AcDbBlockBegin
  2
*Model_Space
 70
     0
 10
0.0
 20
0.0
 30
0.0
  3
*Model_Space
  1

  0
ENDBLK
  5
21
330
1F
100
AcDbEntity
  8
0
100
AcDbBlockEnd
  0
BLOCK
  5
1C
330
1B
100
AcDbEntity
 67
     1
  8
0
100
AcDbBlockBegin
  2
*Paper_Space
 70
     0
 10
0.0
 20
0.0
 30
0.0
  3
*Paper_Space
  1

  0
ENDBLK
  5
1D
330
1B
100
AcDbEntity
 67
     1
  8
0
100
AcDbBlockEnd
  0
BLOCK
  5
24
330
23
100
AcDbEntity
  8
0
100
AcDbBlockBegin
  2
*Paper_Space0
 70
     0
 10
0.0
 20
0.0
 30
0.0
  3
*Paper_Space0
  1

  0
ENDBLK
  5
25
330
23
100
AcDbEntity
  8
0
100
AcDbBlockEnd
  0
ENDSEC
  0
SECTION
  2
ENTITIES
  0
ARC
  5
73
330
1F
100
AcDbEntity
  8
0
  6
Continuous
 62
     7
370
    15
100
AcDbCircle
 10
79.6169118412
 20
148.2009637357
 30
0.0
 40
0.8000000000000114
100
AcDbArc
 50
270.0
 51
0.0
  0
LINE
  5
74
330
1F
100
AcDbEntity
  8
0
  6
Continuous
 62
     7
370
    15
100
AcDbLine
 10
78.1608239301
 20
147.4009637357
 30
0.0
 11
79.6169118412
 21
147.4009637357
 31
0.0
  0
ARC
  5
75
330
1F
100
AcDbEntity
  8
0
  6
Continuous
 62
     7
370
    15
100
AcDbCircle
 10
79.6169118412
 20
159.6200173349
 30
0.0
 40
0.8000000000000114
100
AcDbArc
 50
0.0
 51
90.0
  0
ARC
  5
76
330
1F
100
AcDbEntity
  8
0
  6
Continuous
 62
     7
370
    15
100
AcDbCircle
 10
79.6169118412
 20
148.2200173349
 30
0.0
 40
0.8000000000000114
100
AcDbArc
 50
270.0
 51
0.0
  0
LINE
  5
77
330
1F
100
AcDbEntity
  8
0
  6
Continuous
 62
     7
370
    15
100
AcDbLine
 10
79.6169118412
 20
160.4200173349
 30
0.0
 11
78.1687202988
 21
160.4200173349
 31
0.0
  0
LINE
  5
78
330
1F
100
AcDbEntity
  8
0
  6
Continuous
 62
     7
370
    15
100
AcDbLine
 10
78.1608239301
 20
147.4200173349
 30
0.0
 11
79.6169118412
 21
147.4200173349
 31
0.0
  0
LINE
  5
79
330
1F
100
AcDbEntity
  8
0
  6
Continuous
 62
     7
370
    15
100
AcDbLine
 10
41.4169118412
 20
136.4009637357
 30
0.0
 11
43.4169118412
 21
136.4009637357
 31
0.0
  0
LINE
  5
7A
330
1F
100
AcDbEntity
  8
0
  6
Continuous
 62
     7
370
    15
100
AcDbLine
 10
43.4169118412
 20
145.4009637357
 30
0.0
 11
44.4169118412
 21
146.4009637357
 31
0.0
  0
LINE
  5
7B
330
1F
100
AcDbEntity
  8
0
  6
Continuous
 62
     7
370
    15
100
AcDbLine
 10
44.4169118412
 20
146.4009637357
 30
0.0
 11
46.1055232821
 21
146.4009637357
 31
0.0
  0
LINE
  5
7C
330
1F
100
AcDbEntity
  8
0
  6
Continuous
 62
     7
370
    15
100
AcDbLine
 10
41.4169118412
 20
136.4200173349
 30
0.0
 11
43.4169118412
 21
136.4200173349
 31
0.0
  0
LINE
  5
7D
330
1F
100
AcDbEntity
  8
0
  6
Continuous
 62
     7
370
    15
100
AcDbLine
 10
43.4169118412
 20
171.4200173349
 30
0.0
 11
41.4169118412
 21
171.4200173349
 31
0.0
  0
LINE
  5
7E
330
1F
100
AcDbEntity
  8
0
  6
Continuous
 62
     7
370
    15
100
AcDbLine
 10
43.4169118412
 20
145.4200173349
 30
0.0
 11
44.4169118412
 21
146.4200173349
 31
0.0
  0
LINE
  5
7F
330
1F
100
AcDbEntity
  8
0
  6
Continuous
 62
     7
370
    15
100
AcDbLine
 10
44.4169118412
 20
161.4200173349
 30
0.0
 11
43.4169118412
 21
162.4200173349
 31
0.0
  0
LINE
  5
80
330
1F
100
AcDbEntity
  8
0
  6
Continuous
 62
     7
370
    15
100
AcDbLine
 10
44.4169118412
 20
146.4200173349
 30
0.0
 11
46.1055232821
 21
146.4200173349
 31
0.0
  0
LINE
  5
81
330
1F
100
AcDbEntity
  8
0
  6
Continuous
 62
     7
370
    15
100
AcDbLine
 10
46.101098595
 20
161.4200173349
 30
0.0
 11
44.4169118412
 21
161.4200173349
 31
0.0
  0
LINE
  5
82
330
1F
100
AcDbEntity
  8
0
  6
Continuous
 62
     7
370
    15
100
AcDbLine
 10
41.4169118412
 20
171.4200173349
 30
0.0
 11
40.4169118412
 21
171.4200173349
 31
0.0
  0
LINE
  5
83
330
1F
100
AcDbEntity
  8
0
  6
Continuous
 62
     7
370
    15
100
AcDbLine
 10
40.4169118412
 20
136.4200173349
 30
0.0
 11
41.4169118412
 21
136.4200173349
 31
0.0
  0
LINE
  5
84
330
1F
100
AcDbEntity
  8
0
  6
Continuous
 62
     7
370
    15
100
AcDbLine
 10
40.4169118412
 20
163.9200173349
 30
0.0
 11
36.4169118412
 21
163.9200173349
 31
0.0
  0
LINE
  5
85
330
1F
100
AcDbEntity
  8
0
  6
Continuous
 62
     7
370
    15
100
AcDbLine
 10
36.4169118412
 20
143.9200173349
 30
0.0
 11
40.4169118412
 21
143.9200173349
 31
0.0
  0
LINE
  5
86
330
1F
100
AcDbEntity
  8
0
  6
Continuous
 62
     7
370
    15
100
AcDbLine
 10
40.4169118412
 20
136.4009637357
 30
0.0
 11
41.4169118412
 21
136.4009637357
 31
0.0
  0
LINE
  5
87
330
1F
100
AcDbEntity
  8
0
  6
Continuous
 62
     7
370
    15
100
AcDbLine
 10
36.4169118412
 20
143.9009637357
 30
0.0
 11
40.4169118412
 21
143.9009637357
 31
0.0
  0
LINE
  5
88
330
1F
100
AcDbEntity
  8
0
  6
Continuous
 62
     7
370
    15
100
AcDbLine
 10
29.4169118412
 20
136.4200173349
 30
0.0
 11
30.4169118412
 21
136.4200173349
 31
0.0
  0
LINE
  5
89
330
1F
100
AcDbEntity
  8
0
  6
Continuous
 62
     7
370
    15
100
AcDbLine
 10
30.4169118412
 20
171.4200173349
 30
0.0
 11
29.4169118412
 21
171.4200173349
 31
0.0
  0
LINE
  5
8A
330
1F
100
AcDbEntity
  8
0
  6
Continuous
 62
     7
370
    15
100
AcDbLine
 10
30.4169118412
 20
143.9200173349
 30
0.0
 11
34.4169118412
 21
143.9200173349
 31
0.0
  0
LINE
  5
8B
330
1F
100
AcDbEntity
  8
0
  6
Continuous
 62
     7
370
    15
100
AcDbLine
 10
34.4169118412
 20
163.9200173349
 30
0.0
 11
30.4169118412
 21
163.9200173349
 31
0.0
  0
LINE
  5
8C
330
1F
100
AcDbEntity
  8
0
  6
Continuous
 62
     7
370
    15
100
AcDbLine
 10
29.4169118412
 20
136.4009637357
 30
0.0
 11
30.4169118412
 21
136.4009637357
 31
0.0
  0
LINE
  5
8D
330
1F
100
AcDbEntity
  8
0
  6
Continuous
 62
     7
370
    15
100
AcDbLine
 10
30.4169118412
 20
143.9009637357
 30
0.0
 11
34.4169118412
 21
143.9009637357
 31
0.0
  0
LINE
  5
8E
330
1F
100
AcDbEntity
  8
0
  6
Continuous
 62
     7
370
    15
100
AcDbLine
 10
28.6169118412
 20
136.4200173349
 30
0.0
 11
29.4169118412
 21
136.4200173349
 31
0.0
  0
LINE
  5
8F
330
1F
100
AcDbEntity
  8
0
  6
Continuous
 62
     7
370
    15
100
AcDbLine
 10
29.4169118412
 20
171.4200173349
 30
0.0
 11
28.6169118412
 21
171.4200173349
 31
0.0
  0
LINE
  5
90
330
1F
100
AcDbEntity
  8
0
  6
Continuous
 62
     7
370
    15
100
AcDbLine
 10
28.6169118412
 20
171.4200173349
 30
0.0
 11
26.6169118412
 21
169.4200173349
 31
0.0
  0
LINE
  5
91
330
1F
100
AcDbEntity
  8
0
  6
Continuous
 62
     7
370
    15
100
AcDbLine
 10
26.6169118412
 20
138.4200173349
 30
0.0
 11
28.6169118412
 21
136.4200173349
 31
0.0
  0
LINE
  5
92
330
1F
100
AcDbEntity
  8
0
  6
Continuous
 62
     7
370
    15
100
AcDbLine
 10
34.4169118412
 20
145.9200173349
 30
0.0
 11
36.4169118412
 21
145.9200173349
 31
0.0
  0
LINE
  5
93
330
1F
100
AcDbEntity
  8
0
  6
Continuous
 62
     7
370
    15
100
AcDbLine
 10
36.4169118412
 20
161.9200173349
 30
0.0
 11
34.4169118412
 21
161.9200173349
 31
0.0
  0
LINE
  5
94
330
1F
100
AcDbEntity
  8
0
  6
Continuous
 62
     7
370
    15
100
AcDbLine
 10
28.6169118412
 20
136.4009637357
 30
0.0
 11
29.4169118412
 21
136.4009637357
 31
0.0
  0
LINE
  5
95
330
1F
100
AcDbEntity
  8
0
  6
Continuous
 62
     7
370
    15
100
AcDbLine
 10
26.6169118412
 20
138.4009637357
 30
0.0
 11
28.6169118412
 21
136.4009637357
 31
0.0
  0
LINE
  5
96
330
1F
100
AcDbEntity
  8
0
  6
Continuous
 62
     7
370
    15
100
AcDbLine
 10
34.4169118412
 20
145.9009637357
 30
0.0
 11
36.4169118412
 21
145.9009637357
 31
0.0
  0
LINE
  5
97
330
1F
100
AcDbEntity
  8
0
  6
Continuous
 62
     7
370
    15
100
AcDbLine
 10
44.4169118412
 20
153.929353597
 30
0.0
 11
44.4169118412
 21
153.9228753732
 31
0.0
  0
LINE
  5
98
330
1F
100
AcDbEntity
  8
0
  6
Continuous
 62
     7
370
    15
100
AcDbLine
 10
79.4169118412
 20
153.9228753764
 30
0.0
 11
79.4169118412
 21
153.9293536001
 31
0.0
  0
LINE
  5
99
330
1F
100
AcDbEntity
  8
0
  6
Continuous
 62
     7
370
    15
100
AcDbLine
 10
43.9169118412
 20
89.8693865638
 30
0.0
 11
43.9169118412
 21
88.9104952548
 31
0.0
  0
LINE
  5
9A
330
1F
100
AcDbEntity
  8
0
  6
Continuous
 62
     7
370
    15
100
AcDbLine
 10
43.9169118412
 20
93.9104948918
 30
0.0
 11
43.9169118412
 21
92.969538775
 31
0.0
  0
LINE
  5
9B
330
1F
100
AcDbEntity
  8
0
  6
Continuous
 62
     7
370
    15
100
AcDbLine
 10
79.9169118412
 20
88.9104952548
 30
0.0
 11
79.9169118412
 21
93.9104948918
 31
0.0
  0
LINE
  5
9C
330
1F
100
AcDbEntity
  8
0
  6
Continuous
 62
     7
370
    15
100
AcDbLine
 10
79.9169105343
 20
93.9104975056
 30
0.0
 11
71.9169111151
 21
101.9104957631
 31
0.0
  0
LINE
  5
9D
330
1F
100
AcDbEntity
  8
0
  6
Continuous
 62
     7
370
    15
100
AcDbLine
 10
51.9169125673
 20
101.9104957631
 30
0.0
 11
43.9169131482
 21
93.9104975056
 31
0.0
  0
LINE
  5
9E
330
1F
100
AcDbEntity
  8
0
  6
Continuous
 62
     7
370
    15
100
AcDbLine
 10
51.9169118412
 20
176.9104888653
 30
0.0
 11
51.9169118412
 21
168.2907591721
 31
0.0
  0
LINE
  5
9F
330
1F
100
AcDbEntity
  8
0
  6
Continuous
 62
     7
370
    15
100
AcDbLine
 10
51.9169118412
 20
139.5490849617
 30
0.0
 11
51.9169118412
 21
101.9104943109
 31
0.0
  0
LINE
  5
A0
330
1F
100
AcDbEntity
  8
0
  6
Continuous
 62
     7
370
    15
100
AcDbLine
 10
71.9169118412
 20
101.9104943109
 30
0.0
 11
71.9169118412
 21
139.5490849617
 31
0.0
  0
LINE
  5
A1
330
1F
100
AcDbEntity
  8
0
  6
Continuous
 62
     7
370
    15
100
AcDbLine
 10
71.9169118412
 20
168.2907591721
 30
0.0
 11
71.9169118412
 21
176.9104888653
 31
0.0
  0
LINE
  5
A2
330
1F
100
AcDbEntity
  8
0
  6
Continuous
 62
     7
370
    15
100
AcDbLine
 10
71.9169111151
 20
176.9104903175
 30
0.0
 11
69.9169112603
 21
178.9104898818
 31
0.0
  0
LINE
  5
A3
330
1F
100
AcDbEntity
  8
0
  6
Continuous
 62
     7
370
    15
100
AcDbLine
 10
53.9169124221
 20
178.9104898818
 30
0.0
 11
51.9169125673
 21
176.9104903175
 31
0.0
  0
LINE
  5
A4
330
1F
100
AcDbEntity
  8
0
  6
Continuous
 62
     7
370
    15
100
AcDbLine
 10
43.9169118412
 20
88.9104952548
 30
0.0
 11
43.9169118412
 21
83.9104956178
 31
0.0
  0
LINE
  5
A5
330
1F
100
AcDbEntity
  8
0
  6
Continuous
 62
     7
370
    15
100
AcDbLine
 10
79.9169118412
 20
83.9104956178
 30
0.0
 11
79.9169118412
 21
88.9104952548
 31
0.0
  0
LINE
  5
A6
330
1F
100
AcDbEntity
  8
0
  6
Continuous
 62
     7
370
    15
100
AcDbLine
 10
80.4169118412
 20
148.2200173349
 30
0.0
 11
80.4169118412
 21
148.2009637357
 31
0.0
  0
LINE
  5
A7
330
1F
100
AcDbEntity
  8
0
  6
Continuous
 62
     7
370
    15
100
AcDbLine
 10
80.4169118412
 20
159.6200173349
 30
0.0
 11
80.4169118412
 21
148.2200173349
 31
0.0
  0
LINE
  5
A8
330
1F
100
AcDbEntity
  8
0
  6
Continuous
 62
     7
370
    15
100
AcDbLine
 10
43.4169118412
 20
136.4009637357
 30
0.0
 11
43.4169118412
 21
136.4200173349
 31
0.0
  0
LINE
  5
A9
330
1F
100
AcDbEntity
  8
0
  6
Continuous
 62
     7
370
    15
100
AcDbLine
 10
41.4169118412
 20
136.4009637357
 30
0.0
 11
41.4169118412
 21
136.4200173349
 31
0.0
  0
LINE
  5
AA
330
1F
100
AcDbEntity
  8
0
  6
Continuous
 62
     7
370
    15
100
AcDbLine
 10
44.4169118412
 20
146.4200173349
 30
0.0
 11
44.4169118412
 21
146.4009637357
 31
0.0
  0
LINE
  5
AB
330
1F
100
AcDbEntity
  8
0
  6
Continuous
 62
     7
370
    15
100
AcDbLine
 10
41.4169118412
 20
158.1891363507
 30
0.0
 11
41.4169118412
 21
171.4200173349
 31
0.0
  0
LINE
  5
AC
330
1F
100
AcDbEntity
  8
0
  6
Continuous
 62
     7
370
    15
100
AcDbLine
 10
41.4169118412
 20
136.4200173349
 30
0.0
 11
41.4169118412
 21
158.1891363507
 31
0.0
  0
LINE
  5
AD
330
1F
100
AcDbEntity
  8
0
  6
Continuous
 62
     7
370
    15
100
AcDbLine
 10
43.4169118412
 20
158.1891363507
 30
0.0
 11
43.4169118412
 21
171.4200173349
 31
0.0
  0
LINE
  5
AE
330
1F
100
AcDbEntity
  8
0
  6
Continuous
 62
     7
370
    15
100
AcDbLine
 10
43.4169118412
 20
136.4200173349
 30
0.0
 11
43.4169118412
 21
158.1891363507
 31
0.0
  0
LINE
  5
AF
330
1F
100
AcDbEntity
  8
0
  6
Continuous
 62
     7
370
    15
100
AcDbLine
 10
44.4169118412
 20
155.7496397702
 30
0.0
 11
44.4169118412
 21
146.4200173349
 31
0.0
  0
LINE
  5
B0
330
1F
100
AcDbEntity
  8
0
  6
Continuous
 62
     7
370
    15
100
AcDbLine
 10
44.4169118412
 20
161.4200173349
 30
0.0
 11
44.4169118412
 21
155.7496397702
 31
0.0
  0
LINE
  5
B1
330
1F
100
AcDbEntity
  8
0
  6
Continuous
 62
     7
370
    15
100
AcDbLine
 10
40.4169118412
 20
151.7208408115
 30
0.0
 11
40.4169118412
 21
136.4200173349
 31
0.0
  0
LINE
  5
B2
330
1F
100
AcDbEntity
  8
0
  6
Continuous
 62
     7
370
    15
100
AcDbLine
 10
40.4169118412
 20
171.4200173349
 30
0.0
 11
40.4169118412
 21
151.7208408115
 31
0.0
  0
LINE
  5
B3
330
1F
100
AcDbEntity
  8
0
  6
Continuous
 62
     7
370
    15
100
AcDbLine
 10
41.4169118412
 20
151.7208408115
 30
0.0
 11
41.4169118412
 21
136.4200173349
 31
0.0
  0
LINE
  5
B4
330
1F
100
AcDbEntity
  8
0
  6
Continuous
 62
     7
370
    15
100
AcDbLine
 10
41.4169118412
 20
171.4200173349
 30
0.0
 11
41.4169118412
 21
151.7208408115
 31
0.0
  0
LINE
  5
B5
330
1F
100
AcDbEntity
  8
0
  6
Continuous
 62
     7
370
    15
100
AcDbLine
 10
36.4169118412
 20
152.6633450358
 30
0.0
 11
36.4169118412
 21
143.9200173349
 31
0.0
  0
LINE
  5
B6
330
1F
100
AcDbEntity
  8
0
  6
Continuous
 62
     7
370
    15
100
AcDbLine
 10
36.4169118412
 20
163.9200173349
 30
0.0
 11
36.4169118412
 21
152.6633450358
 31
0.0
  0
LINE
  5
B7
330
1F
100
AcDbEntity
  8
0
  6
Continuous
 62
     7
370
    15
100
AcDbLine
 10
40.4169118412
 20
136.4200173349
 30
0.0
 11
40.4169118412
 21
136.4009637357
 31
0.0
  0
LINE
  5
B8
330
1F
100
AcDbEntity
  8
0
  6
Continuous
 62
     7
370
    15
100
AcDbLine
 10
36.4169118412
 20
143.9200173349
 30
0.0
 11
36.4169118412
 21
143.9009637357
 31
0.0
  0
LINE
  5
B9
330
1F
100
AcDbEntity
  8
0
  6
Continuous
 62
     7
370
    15
100
AcDbLine
 10
30.4169118412
 20
163.9549404875
 30
0.0
 11
30.4169118412
 21
171.4200173349
 31
0.0
  0
LINE
  5
BA
330
1F
100
AcDbEntity
  8
0
  6
Continuous
 62
     7
370
    15
100
AcDbLine
 10
30.4169118412
 20
136.4200173349
 30
0.0
 11
30.4169118412
 21
163.9549404875
 31
0.0
  0
LINE
  5
BB
330
1F
100
AcDbEntity
  8
0
  6
Continuous
 62
     7
370
    15
100
AcDbLine
 10
29.4169118412
 20
163.9549404875
 30
0.0
 11
29.4169118412
 21
171.4200173349
 31
0.0
  0
LINE
  5
BC
330
1F
100
AcDbEntity
  8
0
  6
Continuous
 62
     7
370
    15
100
AcDbLine
 10
29.4169118412
 20
136.4200173349
 30
0.0
 11
29.4169118412
 21
163.9549404875
 31
0.0
  0
LINE
  5
BD
330
1F
100
AcDbEntity
  8
0
  6
Continuous
 62
     7
370
    15
100
AcDbLine
 10
34.4169118412
 20
159.6542591364
 30
0.0
 11
34.4169118412
 21
163.9200173349
 31
0.0
  0
LINE
  5
BE
330
1F
100
AcDbEntity
  8
0
  6
Continuous
 62
     7
370
    15
100
AcDbLine
 10
34.4169118412
 20
143.9200173349
 30
0.0
 11
34.4169118412
 21
159.6542591364
 31
0.0
  0
LINE
  5
BF
330
1F
100
AcDbEntity
  8
0
  6
Continuous
 62
     7
370
    15
100
AcDbLine
 10
30.4169118412
 20
136.4009637357
 30
0.0
 11
30.4169118412
 21
136.4200173349
 31
0.0
  0
LINE
  5
C0
330
1F
100
AcDbEntity
  8
0
  6
Continuous
 62
     7
370
    15
100
AcDbLine
 10
29.4169118412
 20
136.4009637357
 30
0.0
 11
29.4169118412
 21
136.4200173349
 31
0.0
  0
LINE
  5
C1
330
1F
100
AcDbEntity
  8
0
  6
Continuous
 62
     7
370
    15
100
AcDbLine
 10
34.4169118412
 20
143.9009637357
 30
0.0
 11
34.4169118412
 21
143.9200173349
 31
0.0
  0
LINE
  5
C2
330
1F
100
AcDbEntity
  8
0
  6
Continuous
 62
     7
370
    15
100
AcDbLine
 10
29.4169118412
 20
152.1571045515
 30
0.0
 11
29.4169118412
 21
171.4200173349
 31
0.0
  0
LINE
  5
C3
330
1F
100
AcDbEntity
  8
0
  6
Continuous
 62
     7
370
    15
100
AcDbLine
 10
29.4169118412
 20
136.4200173349
 30
0.0
 11
29.4169118412
 21
152.1571045515
 31
0.0
  0
LINE
  5
C4
330
1F
100
AcDbEntity
  8
0
  6
Continuous
 62
     7
370
    15
100
AcDbLine
 10
28.6169118412
 20
171.4200173349
 30
0.0
 11
28.6169118412
 21
136.4200173349
 31
0.0
  0
LINE
  5
C5
330
1F
100
AcDbEntity
  8
0
  6
Continuous
 62
     7
370
    15
100
AcDbLine
 10
26.6169118412
 20
138.4200173349
 30
0.0
 11
26.6169118412
 21
169.4200173349
 31
0.0
  0
LINE
  5
C6
330
1F
100
AcDbEntity
  8
0
  6
Continuous
 62
     7
370
    15
100
AcDbLine
 10
28.6169118412
 20
136.4200173349
 30
0.0
 11
28.6169118412
 21
136.4009637357
 31
0.0
  0
LINE
  5
C7
330
1F
100
AcDbEntity
  8
0
  6
Continuous
 62
     7
370
    15
100
AcDbLine
 10
26.6169118412
 20
138.4009637357
 30
0.0
 11
26.6169118412
 21
138.4200173349
 31
0.0
  0
CIRCLE
  5
C8
330
1F
100
AcDbEntity
  8
0
  6
Continuous
 62
     7
370
    15
100
AcDbCircle
 10
61.9169119114
 20
153.9293544615
 30
0.0
 40
17.4999995923217
  0
CIRCLE
  5
C9
330
1F
100
AcDbEntity
  8
0
  6
Continuous
 62
     7
370
    15
100
AcDbCircle
 10
61.9169117712
 20
153.9295449732
 30
0.0
 40
16.99999960432399
  0
SPLINE
  5
CA
330
1F
100
AcDbEntity
  8
0
  6
Continuous
 62
     7
370
    15
100
AcDbSpline
210
0.0
220
0.0
230
1.0
 70
     8
 71
     3
 72
    11
 73
     7
 74
     0
 42
0.000000001
 43
0.00000001
 40
0.0
 40
0.0
 40
0.0
 40
0.0
 40
0.164025560601686
 40
0.5059819169968275
 40
0.8201948193946723
 40
1.0
 40
1.0
 40
1.0
 40
1.0
 10
78.16841458977052
 20
147.4200173349095
 30
0.0
 10
78.1251422724239
 20
147.3101485748839
 30
0.0
 10
77.99165691804605
 20
146.9712281919149
 30
0.0
 10
77.83836789314708
 20
146.6380163357367
 30
0.0
 10
77.7335372990852
 20
146.4119218209687
 30
0.0
 10
77.73906462557825
 20
146.4236801216637
 30
0.0
 10
77.74107637772364
 20
146.4279597289348
 30
0.0
  0
SPLINE
  5
CB
330
1F
100
AcDbEntity
  8
0
  6
Continuous
 62
     7
370
    15
100
AcDbSpline
210
0.0
220
0.0
230
1.0
 70
     8
 71
     3
 72
    17
 73
    13
 74
     0
 42
0.000000001
 43
0.00000001
 40
0.0
 40
0.0
 40
0.0
 40
0.0
 40
0.0839582414558363
 40
0.1804597922102016
 40
0.2796072378742831
 40
0.3792606454888228
 40
0.4814215027296189
 40
0.588481692376286
 40
0.6985246129230597
 40
0.8071406425132748
 40
0.9194556100118286
 40
0.9999999999999999
 40
0.9999999999999999
 40
0.9999999999999999
 40
0.9999999999999999
 10
44.42405431629766
 20
153.9230219194698
 30
0.0
 10
44.42669715844642
 20
153.5887592030354
 30
0.0
 10
44.43237768172494
 20
152.8702951272593
 30
0.0
 10
44.53753111374672
 20
151.7837537725549
 30
0.0
 10
44.70555105771103
 20
150.6944155483963
 30
0.0
 10
44.93118847355763
 20
149.6715552665437
 30
0.0
 10
45.19498774373817
 20
148.7340226063054
 30
0.0
 10
45.47697215884364
 20
147.9050791718037
 30
0.0
 10
45.74468450314682
 20
147.2249536036408
 30
0.0
 10
45.95961651946104
 20
146.7321364731609
 30
0.0
 10
46.08879595486643
 20
146.4555127765402
 30
0.0
 10
46.09567196349703
 20
146.4408957830389
 30
0.0
 10
46.09854361011001
 20
146.4347912473795
 30
0.0
  0
SPLINE
  5
CC
330
1F
100
AcDbEntity
  8
0
  6
Continuous
 62
     7
370
    15
100
AcDbSpline
210
0.0
220
0.0
230
1.0
 70
     8
 71
     3
 72
    17
 73
    13
 74
     0
 42
0.000000001
 43
0.00000001
 40
0.0
 40
0.0
 40
0.0
 40
0.0
 40
0.0994537180952934
 40
0.2019427533331809
 40
0.3013586144543067
 40
0.4034163180388124
 40
0.5076394645771624
 40
0.6145867824575402
 40
0.7239979861833569
 40
0.8368969440395203
 40
0.9406362328763834
 40
1.0
 40
1.0
 40
1.0
 40
1.0
 10
79.41691184121198
 20
153.9228753747971
 30
0.0
 10
79.4090869304198
 20
153.5273241491633
 30
0.0
 10
79.3931982933711
 20
152.7241495155887
 30
0.0
 10
79.26851627405875
 20
151.5610777435108
 30
0.0
 10
79.08184460851909
 20
150.4570022719805
 30
0.0
 10
78.84338489430635
 20
149.4413882434476
 30
0.0
 10
78.5710609546168
 20
148.5218188021857
 30
0.0
 10
78.29017262603655
 20
147.7276289830077
 30
0.0
 10
78.02890737776228
 20
147.0823434139679
 30
0.0
 10
77.83687113449328
 20
146.6510366531443
 30
0.0
 10
77.73372473528923
 20
146.4317309564953
 30
0.0
 10
77.73911464166034
 20
146.4429353306602
 30
0.0
 10
77.74107637772192
 20
146.4470133281861
 30
0.0
  0
ARC
  5
CD
330
1F
100
AcDbEntity
  8
0
  6
Continuous
 62
     7
370
    15
100
AcDbCircle
 10
61.9169130397
 20
153.884006594
 30
0.0
 40
17.49999892038487
100
AcDbArc
 50
304.8499022588
 51
338.3231795533
  0
ARC
  5
CE
330
1F
100
AcDbEntity
  8
0
  6
Continuous
 62
     7
370
    15
100
AcDbCircle
 10
61.916910773
 20
153.8840067144
 30
0.0
 40
17.49999909360192
100
AcDbArc
 50
205.2465134189
 51
235.1500976162
  0
SPLINE
  5
CF
330
1F
100
AcDbEntity
  8
0
  6
Continuous
 62
     7
370
    15
100
AcDbSpline
210
0.0
220
0.0
230
1.0
 70
     8
 71
     3
 72
    18
 73
    14
 74
     0
 42
0.000000001
 43
0.00000001
 40
0.0
 40
0.0
 40
0.0
 40
0.0
 40
0.0963365877836846
 40
0.1927049025065962
 40
0.2886918087687738
 40
0.3847284816789993
 40
0.4877166413914712
 40
0.5907207856574402
 40
0.7049452496081359
 40
0.819053642898757
 40
0.9078649363718867
 40
0.9966318812821624
 40
1.0
 40
1.0
 40
1.0
 40
1.0
 10
61.91691184121276
 20
136.4143025257729
 30
0.0
 10
62.43346451247273
 20
136.4280935871435
 30
0.0
 10
63.46673997348645
 20
136.455680251754
 30
0.0
 10
64.96708997196995
 20
136.6618230406884
 30
0.0
 10
66.37454337539565
 20
136.9725457121341
 30
0.0
 10
67.69457260528696
 20
137.3764389698282
 30
0.0
 10
68.89275353107608
 20
137.8483159487934
 30
0.0
 10
69.98125858619296
 20
138.3676480131684
 30
0.0
 10
70.88175636983702
 20
138.8732079970841
 30
0.0
 10
71.50862659680342
 20
139.2715575194731
 30
0.0
 10
71.82434884988933
 20
139.484142734093
 30
0.0
 10
71.94839573278594
 20
139.5711945991002
 30
0.0
 10
71.91441004441016
 20
139.5473512137628
 30
0.0
 10
71.91316765276632
 20
139.5464795873777
 30
0.0
  0
SPLINE
  5
D0
330
1F
100
AcDbEntity
  8
0
  6
Continuous
 62
     7
370
    15
100
AcDbSpline
210
0.0
220
0.0
230
1.0
 70
     8
 71
     3
 72
    18
 73
    14
 74
     0
 42
0.000000001
 43
0.00000001
 40
0.0
 40
0.0
 40
0.0
 40
0.0
 40
0.0729180473945345
 40
0.1624893863827649
 40
0.2505159711011465
 40
0.3385933677898535
 40
0.4402621064314531
 40
0.5419426526488075
 40
0.6563290578375591
 40
0.770628975136283
 40
0.8644996275271722
 40
0.9583330581482092
 40
1.0
 40
1.0
 40
1.0
 40
1.0
 10
51.93272663503841
 20
139.5380340550505
 30
0.0
 10
51.94013536523357
 20
139.5327723316869
 30
0.0
 10
51.95664485864847
 20
139.5210471932443
 30
0.0
 10
52.22323705689306
 20
139.3395203257744
 30
0.0
 10
52.67350359885042
 20
139.0478809153373
 30
0.0
 10
53.32380455653896
 20
138.6593229479475
 30
0.0
 10
54.18801047204043
 20
138.1996395377966
 30
0.0
 10
55.32086635805553
 20
137.684826979796
 30
0.0
 10
56.69660622541045
 20
137.1868027972144
 30
0.0
 10
58.21277271337151
 20
136.7852187234886
 30
0.0
 10
59.74947485792658
 20
136.5302467753933
 30
0.0
 10
60.96777376646372
 20
136.4252312565993
 30
0.0
 10
61.69368962259614
 20
136.4168727898963
 30
0.0
 10
61.91691184121276
 20
136.4143025257729
 30
0.0
  0
LWPOLYLINE
  5
D1
330
1F
100
AcDbEntity
  8
0
  6
Continuous
 62
     7
370
    15
100
AcDbPolyline
 90
       33
 70
   128
 43
0.0
 10
46.5999934006
 20
93.9140978263
 10
47.4330742511
 20
93.9145675236
 10
48.3650943989
 20
93.9150094007
 10
49.3896872011
 20
93.9154204391
 10
50.4998536501
 20
93.915797831
 10
51.6880101832
 20
93.9161389985
 10
52.9460404867
 20
93.916441611
 10
54.2653509378
 20
93.9167036013
 10
55.6369293085
 20
93.9169231799
 10
57.0514063277
 20
93.9170988468
 10
58.4991196832
 20
93.9172294019
 10
59.9701800246
 20
93.9173139536
 10
61.4545385184
 20
93.9173519241
 10
62.9420554907
 20
93.9173430541
 10
64.4225696925
 20
93.9172874043
 10
65.8859677104
 20
93.9171853547
 10
67.3222530522
 20
93.9170376024
 10
68.7216144325
 20
93.9168451568
 10
70.0744927943
 20
93.9166093325
 10
71.3716466065
 20
93.9163317403
 10
72.6042149933
 20
93.9160142765
 10
73.7637782628
 20
93.9156591097
 10
74.842415422
 20
93.9152686661
 10
75.8327582855
 20
93.9148456128
 10
76.7280418073
 20
93.9143928396
 10
77.5221502931
 20
93.9139134395
 10
78.2096591768
 20
93.9134106873
 10
78.7858720756
 20
93.9128880172
 10
79.2468528711
 20
93.9123489996
 10
79.589452597
 20
93.9117973166
 10
79.8113309498
 20
93.9112367367
 10
79.9109722754
 20
93.9106710893
 10
79.9169118412
 20
93.9104948918
  0
LWPOLYLINE
  5
D2
330
1F
100
AcDbEntity
  8
0
  6
Continuous
 62
     7
370
    15
100
AcDbPolyline
 90
        8
 70
   128
 43
0.0
 10
43.9169118412
 20
93.9104948918
 10
43.9461277599
 20
93.9108855453
 10
44.0921627902
 20
93.9114497278
 10
44.3599589306
 20
93.9120073878
 10
44.7476868618
 20
93.9125547159
 10
45.2526980091
 20
93.9130879733
 10
45.8715426341
 20
93.9136035173
 10
46.5999934006
 20
93.9140978263
  0
LWPOLYLINE
  5
D3
330
1F
100
AcDbEntity
  8
0
  6
Continuous
 62
     7
370
    15
100
AcDbPolyline
 90
       33
 70
   128
 43
0.0
 10
46.5999934006
 20
88.9140981893
 10
47.4330742511
 20
88.9145678866
 10
48.3650943989
 20
88.9150097637
 10
49.3896872011
 20
88.9154208021
 10
50.4998536501
 20
88.915798194
 10
51.6880101832
 20
88.9161393615
 10
52.9460404867
 20
88.916441974
 10
54.2653509378
 20
88.9167039644
 10
55.6369293085
 20
88.916923543
 10
57.0514063277
 20
88.9170992098
 10
58.4991196832
 20
88.917229765
 10
59.9701800246
 20
88.9173143166
 10
61.4545385184
 20
88.9173522871
 10
62.9420554907
 20
88.9173434172
 10
64.4225696925
 20
88.9172877673
 10
65.8859677104
 20
88.9171857177
 10
67.3222530522
 20
88.9170379654
 10
68.7216144325
 20
88.9168455198
 10
70.0744927943
 20
88.9166096955
 10
71.3716466065
 20
88.9163321033
 10
72.6042149933
 20
88.9160146395
 10
73.7637782628
 20
88.9156594728
 10
74.842415422
 20
88.9152690292
 10
75.8327582855
 20
88.9148459758
 10
76.7280418073
 20
88.9143932027
 10
77.5221502931
 20
88.9139138026
 10
78.2096591768
 20
88.9134110503
 10
78.7858720756
 20
88.9128883802
 10
79.2468528711
 20
88.9123493626
 10
79.589452597
 20
88.9117976796
 10
79.8113309498
 20
88.9112370998
 10
79.9109722754
 20
88.9106714523
 10
79.9169118412
 20
88.9104952548
  0
LWPOLYLINE
  5
D4
330
1F
100
AcDbEntity
  8
0
  6
Continuous
 62
     7
370
    15
100
AcDbPolyline
 90
        8
 70
   128
 43
0.0
 10
43.9169118412
 20
88.9104952548
 10
43.9461277599
 20
88.9108859083
 10
44.0921627902
 20
88.9114500908
 10
44.3599589306
 20
88.9120077508
 10
44.7476868618
 20
88.9125550789
 10
45.2526980091
 20
88.9130883363
 10
45.8715426341
 20
88.9136038804
 10
46.5999934006
 20
88.9140981893
  0
SPLINE
  5
D5
330
1F
100
AcDbEntity
  8
0
  6
Continuous
 62
     7
370
    15
100
AcDbSpline
210
0.0
220
0.0
230
1.0
 70
    11
 71
     3
 72
    26
 73
    22
 74
     0
 42
0.000000001
 43
0.00000001
 40
0.0
 40
0.0
 40
0.0
 40
0.0
 40
0.0535349050213503
 40
0.1070643508680935
 40
0.1607353715194061
 40
0.2144994531573064
 40
0.2681101719941478
 40
0.321561377446427
 40
0.3750937214647122
 40
0.428822212768416
 40
0.4825572764288799
 40
0.5360968494153943
 40
0.5895445725940212
 40
0.6431467159463689
 40
0.6969089759678443
 40
0.7505876998189356
 40
0.8040705239150647
 40
0.8575496056818867
 40
0.9112220990586128
 40
0.9649859940786326
 40
1.0
 40
1.0
 40
1.0
 40
1.0
 10
69.92778893350804
 20
91.41663761619101
 30
0.0
 10
69.94414932953963
 20
91.23152999546456
 30
0.0
 10
69.97686845326588
 20
90.86133363019762
 30
0.0
 10
70.23031206754577
 20
90.36830117094017
 30
0.0
 10
70.59955169609907
 20
89.99241216787857
 30
0.0
 10
71.05425396336028
 20
89.77656151558664
 30
0.0
 10
71.53496465731034
 20
89.74570336336276
 30
0.0
 10
71.98764068428491
 20
89.90233989170542
 30
0.0
 10
72.36469011905483
 20
90.22852772660461
 30
0.0
 10
72.62860643232192
 20
90.68888563358188
 30
0.0
 10
72.75309466961696
 20
91.231738449818
 30
0.0
 10
72.72648975595398
 20
91.7945323846153
 30
0.0
 10
72.55213675057023
 20
92.3140365196401
 30
0.0
 10
72.24606152592126
 20
92.73335554879165
 30
0.0
 10
71.83708807385928
 20
93.00520597415523
 30
0.0
 10
71.36780704885238
 20
93.0978351368211
 30
0.0
 10
70.89087804948174
 20
93.00133920823812
 30
0.0
 10
70.45993374694251
 20
92.7273682196721
 30
0.0
 10
70.12943148076793
 20
92.3060336276481
 30
0.0
 10
69.95284848205402
 20
91.84330544165061
 30
0.0
 10
69.9348769185259
 20
91.53731876688742
 30
0.0
 10
69.92778893350804
 20
91.41663761619101
 30
0.0
  0
SPLINE
  5
D6
330
1F
100
AcDbEntity
  8
0
  6
Continuous
 62
     7
370
    15
100
AcDbSpline
210
0.0
220
0.0
230
1.0
 70
     8
 71
     3
 72
    11
 73
     7
 74
     0
 42
0.000000001
 43
0.00000001
 40
0.0
 40
0.0
 40
0.0
 40
0.0
 40
0.2495806130661261
 40
0.4991357753699014
 40
0.7493509617552595
 40
1.0
 40
1.0
 40
1.0
 40
1.0
 10
43.95191076040476
 20
91.41006753561787
 30
0.0
 10
43.95070843803376
 20
91.22478706429763
 30
0.0
 10
43.94830391589756
 20
90.85424501546936
 30
0.0
 10
43.93301108058225
 20
90.36411463975537
 30
0.0
 10
43.91774457650302
 20
89.97799621418467
 30
0.0
 10
43.91769160277996
 20
89.8603169358076
 30
0.0
 10
43.91766509297534
 20
89.80142632933969
 30
0.0
  0
LWPOLYLINE
  5
D7
330
1F
100
AcDbEntity
  8
0
  6
Continuous
 62
     7
370
    15
100
AcDbPolyline
 90
       17
 70
   128
 43
0.0
 10
43.9266189287
 20
89.7816247401
 10
43.9312053847
 20
89.7714816996
 10
43.9601223935
 20
89.9252022428
 10
43.9969549698
 20
90.2453548199
 10
44.0300441421
 20
90.6978760374
 10
44.047806432
 20
91.2312371423
 10
44.0439002856
 20
91.7830307843
 10
44.0198892086
 20
92.2919852841
 10
43.9841423542
 20
92.7033028752
 10
43.9486787041
 20
92.9701009634
 10
43.9245037636
 20
93.0606799361
 10
43.9169243617
 20
92.9658379076
 10
43.9239586671
 20
92.6971083281
 10
43.9380306569
 20
92.2829492481
 10
43.9494762863
 20
91.769394337
 10
43.9519107604
 20
91.4100675356
 10
43.9519107604
 20
91.4100675356
  0
LWPOLYLINE
  5
D8
330
1F
100
AcDbEntity
  8
0
  6
Continuous
 62
     7
370
    15
100
AcDbPolyline
 90
       25
 70
   128
 43
0.0
 10
53.4075127075
 20
101.9124959412
 10
54.0491260369
 20
101.9128464219
 10
54.7896813378
 20
101.9131673234
 10
55.6198656976
 20
101.9134546102
 10
56.5292390663
 20
101.9137046695
 10
57.5063655461
 20
101.9139143567
 10
58.5389572046
 20
101.9140810349
 10
59.6140286027
 20
101.9142026079
 10
60.7180600936
 20
101.9142775469
 10
61.8371678408
 20
101.9143049096
 10
62.9572784151
 20
101.9142843517
 10
64.0643057761
 20
101.9142161319
 10
65.1443284125
 20
101.9141011081
 10
66.1837644128
 20
101.9139407266
 10
67.1695422664
 20
101.9137370045
 10
68.0892652447
 20
101.9134925037
 10
68.9313672977
 20
101.9132102988
 10
69.6852585035
 20
101.9128939388
 10
70.3414582427
 20
101.9125474021
 10
70.8917144228
 20
101.9121750465
 10
71.3291072532
 20
101.9117815548
 10
71.6481362652
 20
101.9113718752
 10
71.8447894839
 20
101.9109511597
 10
71.9165938809
 20
101.9105246991
 10
71.9169111151
 20
101.9104957631
  0
ARC
  5
D9
330
1F
100
AcDbEntity
  8
0
  6
Continuous
 62
     7
370
    15
100
AcDbCircle
 10
53.2748655474
 20
-354.6580933244
 30
0.0
 40
456.5706085345636
100
AcDbArc
 50
89.9833538944
 51
90.1704119534
  0
SPLINE
  5
DA
330
1F
100
AcDbEntity
  8
0
  6
Continuous
 62
     7
370
    15
100
AcDbSpline
210
0.0
220
0.0
230
1.0
 70
     8
 71
     3
 72
    10
 73
     6
 74
     0
 42
0.000000001
 43
0.00000001
 40
0.0
 40
0.0
 40
0.0
 40
0.0
 40
0.3090870010384859
 40
0.831584592800551
 40
1.0
 40
1.0
 40
1.0
 40
1.0
 10
70.0143946902643
 20
91.91384239991606
 30
0.0
 10
70.04201261730164
 20
91.8109431477666
 30
0.0
 10
70.11631740052505
 20
91.53409736515297
 30
0.0
 10
70.10683976128875
 20
91.16124244194928
 30
0.0
 10
70.02802316145754
 20
90.9394979076766
 30
0.0
 10
70.00881100337888
 20
90.88544595599828
 30
0.0
  0
ARC
  5
DB
330
1F
100
AcDbEntity
  8
0
  6
Continuous
 62
     7
370
    15
100
AcDbCircle
 10
53.1803275853
 20
-208.9255604204
 30
0.0
 40
385.8381178003511
100
AcDbArc
 50
89.9662637028
 51
90.1876137062
  0
LWPOLYLINE
  5
DC
330
1F
100
AcDbEntity
  8
0
  6
Continuous
 62
     7
370
    15
100
AcDbPolyline
 90
       25
 70
   128
 43
0.0
 10
71.9169118412
 20
176.9104888653
 10
71.9165938809
 20
176.9105192535
 10
71.8447894839
 20
176.9109457141
 10
71.6481362652
 20
176.9113664296
 10
71.3291072532
 20
176.9117761092
 10
70.8917144228
 20
176.9121696009
 10
70.3414582427
 20
176.9125419565
 10
69.6852585035
 20
176.9128884932
 10
68.9313672977
 20
176.9132048532
 10
68.0892652447
 20
176.9134870581
 10
67.1695422664
 20
176.9137315589
 10
66.1837644128
 20
176.913935281
 10
65.1443284125
 20
176.9140956625
 10
64.0643057761
 20
176.9142106863
 10
62.9572784151
 20
176.9142789061
 10
61.8371678408
 20
176.914299464
 10
60.7180600936
 20
176.9142721013
 10
59.6140286027
 20
176.9141971623
 10
58.5389572046
 20
176.9140755893
 10
57.5063655461
 20
176.9139089111
 10
56.5292390663
 20
176.9136992239
 10
55.6198656976
 20
176.9134491646
 10
54.7896813378
 20
176.9131618778
 10
54.0491260369
 20
176.9128409763
 10
53.4075127075
 20
176.9124904956
  0
LWPOLYLINE
  5
DD
330
1F
100
AcDbEntity
  8
0
  6
Continuous
 62
     7
370
    15
100
AcDbPolyline
 90
       22
 70
   128
 43
0.0
 10
55.1093925343
 20
178.9120900243
 10
55.689735182
 20
178.9124025314
 10
56.3682841256
 20
178.9126848565
 10
57.1343382429
 20
178.9129325472
 10
57.9758164028
 20
178.9131416973
 10
58.8794479921
 20
178.9133090084
 10
59.8309822007
 20
178.9134318419
 10
60.8154127659
 20
178.9135082605
 10
61.8172146295
 20
178.9135370592
 10
62.8205887776
 20
178.9135177838
 10
63.8097114007
 20
178.9134507382
 10
64.768983444
 20
178.9133369799
 10
65.6832766143
 20
178.9131783027
 10
66.5381719623
 20
178.9129772093
 10
67.3201872776
 20
178.9127368709
 10
68.0169897114
 20
178.9124610778
 10
68.6175902733
 20
178.9121541794
 10
69.1125171335
 20
178.9118210158
 10
69.4939649997
 20
178.911466841
 10
69.7559182114
 20
178.9110972408
 10
69.8942456098
 20
178.9107180437
 10
69.9169112603
 20
178.9104898818
  0
ARC
  5
DE
330
1F
100
AcDbEntity
  8
0
  6
Continuous
 62
     7
370
    15
100
AcDbCircle
 10
54.9487967494
 20
-145.7454981386
 30
0.0
 40
324.6576278832208
100
AcDbArc
 50
89.9716579551
 51
90.1821078927
  0
LWPOLYLINE
  5
DF
330
1F
100
AcDbEntity
  8
0
  6
Continuous
 62
     7
370
    15
100
AcDbPolyline
 90
       20
 70
   128
 43
0.0
 10
61.9169118412
 20
88.9173545505
 10
63.4033400597
 20
88.9173311226
 10
64.8796144663
 20
88.9172609987
 10
66.3356506097
 20
88.9171446579
 10
67.7615022869
 20
88.916982895
 10
69.147429485
 20
88.9167768149
 10
70.4839649159
 20
88.9165278253
 10
71.7619786874
 20
88.9162376272
 10
72.9727406696
 20
88.9159082029
 10
74.1079801305
 20
88.9155418027
 10
75.1599422333
 20
88.9151409294
 10
76.1214410103
 20
88.9147083214
 10
76.9859084499
 20
88.914246934
 10
77.7474393629
 20
88.9137599187
 10
78.400831721
 20
88.9132506025
 10
78.9416221918
 20
88.9127224645
 10
79.3661166281
 20
88.9121791124
 10
79.6714153025
 20
88.9116242578
 10
79.8554327153
 20
88.911061691
 10
79.9169118412
 20
88.9104952548
  0
LWPOLYLINE
  5
E0
330
1F
100
AcDbEntity
  8
0
  6
Continuous
 62
     7
370
    15
100
AcDbPolyline
 90
       20
 70
   128
 43
0.0
 10
43.9169118412
 20
88.9104952548
 10
43.9783909671
 20
88.911061691
 10
44.16240838
 20
88.9116242578
 10
44.4677070543
 20
88.9121791124
 10
44.8922014906
 20
88.9127224645
 10
45.4329919614
 20
88.9132506025
 10
46.0863843195
 20
88.9137599187
 10
46.8479152325
 20
88.914246934
 10
47.7123826721
 20
88.9147083214
 10
48.6738814491
 20
88.9151409294
 10
49.7258435519
 20
88.9155418027
 10
50.8610830128
 20
88.9159082029
 10
52.071844995
 20
88.9162376272
 10
53.3498587665
 20
88.9165278253
 10
54.6863941975
 20
88.9167768149
 10
56.0723213955
 20
88.916982895
 10
57.4981730727
 20
88.9171446579
 10
58.9542092162
 20
88.9172609987
 10
60.4304836227
 20
88.9173311226
 10
61.9169118412
 20
88.9173545505
  0
LWPOLYLINE
  5
E1
330
1F
100
AcDbEntity
  8
0
  6
Continuous
 62
     7
370
    15
100
AcDbPolyline
 90
       77
 70
   128
 43
0.0
 10
61.9169118412
 20
83.9173549136
 10
63.4033400597
 20
83.9173314856
 10
64.8796144663
 20
83.9172613617
 10
66.3356506097
 20
83.9171450209
 10
67.7615022869
 20
83.916983258
 10
69.147429485
 20
83.9167771779
 10
70.4839649159
 20
83.9165281884
 10
71.7619786874
 20
83.9162379903
 10
72.9727406696
 20
83.915908566
 10
74.1079801305
 20
83.9155421657
 10
75.1599422333
 20
83.9151412924
 10
76.1214410103
 20
83.9147086845
 10
76.9859084499
 20
83.914247297
 10
77.7474393629
 20
83.9137602818
 10
78.400831721
 20
83.9132509656
 10
78.9416221918
 20
83.9127228275
 10
79.3661166281
 20
83.9121794754
 10
79.6714153025
 20
83.9116246208
 10
79.8554327153
 20
83.911062054
 10
79.9169118412
 20
83.9104956178
 10
79.8554327153
 20
83.9099291817
 10
79.6714153025
 20
83.9093666149
 10
79.3661166281
 20
83.9088117603
 10
78.9416221918
 20
83.9082684082
 10
78.400831721
 20
83.9077402701
 10
77.7474393629
 20
83.9072309539
 10
76.9859084499
 20
83.9067439387
 10
76.1214410103
 20
83.9062825512
 10
75.1599422333
 20
83.9058499432
 10
74.1079801305
 20
83.90544907
 10
72.9727406696
 20
83.9050826697
 10
71.7619786874
 20
83.9047532454
 10
70.4839649159
 20
83.9044630473
 10
69.147429485
 20
83.9042140578
 10
67.7615022869
 20
83.9040079777
 10
66.3356506097
 20
83.9038462147
 10
64.8796144663
 20
83.903729874
 10
63.4033400597
 20
83.9036597501
 10
61.9169118412
 20
83.9036363221
 10
60.4304836227
 20
83.9036597501
 10
58.9542092162
 20
83.903729874
 10
57.4981730727
 20
83.9038462147
 10
56.0723213955
 20
83.9040079777
 10
54.6863941975
 20
83.9042140578
 10
53.3498587665
 20
83.9044630473
 10
52.071844995
 20
83.9047532454
 10
50.8610830128
 20
83.9050826697
 10
49.7258435519
 20
83.90544907
 10
48.6738814491
 20
83.9058499432
 10
47.7123826721
 20
83.9062825512
 10
46.8479152325
 20
83.9067439387
 10
46.0863843195
 20
83.9072309539
 10
45.4329919614
 20
83.9077402701
 10
44.8922014906
 20
83.9082684082
 10
44.4677070543
 20
83.9088117603
 10
44.16240838
 20
83.9093666149
 10
43.9783909671
 20
83.9099291817
 10
43.9169118412
 20
83.9104956178
 10
43.9783909671
 20
83.911062054
 10
44.16240838
 20
83.9116246208
 10
44.4677070543
 20
83.9121794754
 10
44.8922014906
 20
83.9127228275
 10
45.4329919614
 20
83.9132509656
 10
46.0863843195
 20
83.9137602818
 10
46.8479152325
 20
83.914247297
 10
47.7123826721
 20
83.9147086845
 10
48.6738814491
 20
83.9151412924
 10
49.7258435519
 20
83.9155421657
 10
50.8610830128
 20
83.915908566
 10
52.071844995
 20
83.9162379903
 10
53.3498587665
 20
83.9165281884
 10
54.6863941975
 20
83.9167771779
 10
56.0723213955
 20
83.916983258
 10
57.4981730727
 20
83.9171450209
 10
58.9542092162
 20
83.9172613617
 10
60.4304836227
 20
83.9173314856
 10
61.9169118412
 20
83.9173549136
  0
LWPOLYLINE
  5
E2
330
1F
100
AcDbEntity
  8
0
  6
Continuous
 62
     7
370
    15
100
AcDbPolyline
 90
       60
 70
   128
 43
0.0
 10
61.9169118412
 20
83.9146874097
 10
63.0861401833
 20
83.9146636623
 10
64.2421207011
 20
83.9145926894
 10
65.3717556735
 20
83.914475295
 10
66.4622458847
 20
83.9143128092
 10
67.5012356449
 20
83.9141070732
 10
68.4769527851
 20
83.9138604179
 10
69.3783420402
 20
83.9135756381
 10
70.1951903096
 20
83.9132559605
 10
70.9182423762
 20
83.912905007
 10
71.5393057711
 20
83.9125267542
 10
72.0513435978
 20
83.9121254878
 10
72.4485542632
 20
83.9117057544
 10
72.7264372117
 20
83.9112723096
 10
72.8818439186
 20
83.9108300646
 10
72.9130135636
 20
83.9103840302
 10
72.8195929823
 20
83.9099392601
 10
72.6026406671
 20
83.9095007937
 10
72.2646147746
 20
83.9090735991
 10
71.8093452731
 20
83.9086625166
 10
71.241990548
 20
83.9082722038
 10
70.568978955
 20
83.9079070832
 10
69.7979359845
 20
83.9075712917
 10
68.9375978613
 20
83.907268634
 10
67.9977125602
 20
83.9070025394
 10
66.9889293572
 20
83.9067760227
 10
65.922678169
 20
83.9065916505
 10
64.8110400477
 20
83.9064515118
 10
63.6666102974
 20
83.9063571944
 10
62.5023557645
 20
83.906309767
 10
61.3314679179
 20
83.906309767
 10
60.167213385
 20
83.9063571944
 10
59.0227836347
 20
83.9064515118
 10
57.9111455134
 20
83.9065916505
 10
56.8448943253
 20
83.9067760227
 10
55.8361111222
 20
83.9070025394
 10
54.8962258211
 20
83.907268634
 10
54.0358876979
 20
83.9075712917
 10
53.2648447274
 20
83.9079070832
 10
52.5918331344
 20
83.9082722038
 10
52.0244784093
 20
83.9086625166
 10
51.5692089078
 20
83.9090735991
 10
51.2311830153
 20
83.9095007937
 10
51.0142307002
 20
83.9099392601
 10
50.9208101189
 20
83.9103840302
 10
50.9519797639
 20
83.9108300646
 10
51.1073864707
 20
83.9112723096
 10
51.3852694192
 20
83.9117057544
 10
51.7824800846
 20
83.9121254878
 10
52.2945179114
 20
83.9125267542
 10
52.9155813062
 20
83.912905007
 10
53.6386333728
 20
83.9132559605
 10
54.4554816422
 20
83.9135756381
 10
55.3568708973
 20
83.9138604179
 10
56.3325880375
 20
83.9141070732
 10
57.3715777978
 20
83.9143128092
 10
58.462068009
 20
83.914475295
 10
59.5917029813
 20
83.9145926894
 10
60.7476834991
 20
83.9146636623
 10
61.9169118412
 20
83.9146874097
  0
LINE
  5
E3
330
1F
100
AcDbEntity
  8
0
  6
Continuous
 62
     8
370
    15
100
AcDbLine
 10
79.6169118412
 20
147.4009637357
 30
0.0
 11
79.6169118412
 21
147.4200173349
 31
0.0
  0
LINE
  5
E4
330
1F
100
AcDbEntity
  8
0
  6
Continuous
 62
     8
370
    15
100
AcDbLine
 10
79.6169118412
 20
147.4200173349
 30
0.0
 11
79.6169118412
 21
160.4200173349
 31
0.0
  0
LINE
  5
E5
330
1F
100
AcDbEntity
  8
0
  6
Continuous
 62
     7
370
    15
100
AcDbLine
 10
260.2267302298
 20
136.4293548692
 30
0.0
 11
260.7265396575
 21
136.9295453689
 31
0.0
  0
LINE
  5
E6
330
1F
100
AcDbEntity
  8
0
  6
Continuous
 62
     7
370
    15
100
AcDbLine
 10
260.71358321
 20
170.9295429002
 30
0.0
 11
260.2133927104
 21
171.4293523279
 31
0.0
  0
LINE
  5
E7
330
1F
100
AcDbEntity
  8
0
  6
Continuous
 62
     7
370
    15
100
AcDbLine
 10
200.7133970305
 20
171.4066785448
 30
0.0
 11
141.2134013507
 21
171.3840047617
 31
0.0
  0
LINE
  5
E8
330
1F
100
AcDbEntity
  8
0
  6
Continuous
 62
     7
370
    15
100
AcDbLine
 10
260.2133927104
 20
171.4293523279
 30
0.0
 11
220.7133955784
 21
171.4142999845
 31
0.0
  0
LINE
  5
E9
330
1F
100
AcDbEntity
  8
0
  6
Continuous
 62
     7
370
    15
100
AcDbLine
 10
220.7267330978
 20
136.4143025258
 30
0.0
 11
260.2267302298
 21
136.4293548692
 31
0.0
  0
LINE
  5
EA
330
1F
100
AcDbEntity
  8
0
  6
Continuous
 62
     7
370
    15
100
AcDbLine
 10
141.2267388702
 20
136.384007303
 30
0.0
 11
200.72673455
 21
136.4066810861
 31
0.0
  0
LINE
  5
EB
330
1F
100
AcDbEntity
  8
0
  6
Continuous
 62
     7
370
    15
100
AcDbLine
 10
141.2134013507
 20
171.3840047617
 30
0.0
 11
140.713591923
 21
170.883814262
 31
0.0
  0
LINE
  5
EC
330
1F
100
AcDbEntity
  8
0
  6
Continuous
 62
     7
370
    15
100
AcDbLine
 10
140.7265483705
 20
136.8838167307
 30
0.0
 11
141.2267388702
 21
136.384007303
 31
0.0
  0
LINE
  5
ED
330
1F
100
AcDbEntity
  8
0
  6
Continuous
 62
     7
370
    15
100
AcDbLine
 10
140.7172121069
 20
161.3838149518
 30
0.0
 11
123.7172133412
 21
161.377336728
 31
0.0
  0
LINE
  5
EE
330
1F
100
AcDbEntity
  8
0
  6
Continuous
 62
     7
370
    15
100
AcDbLine
 10
123.722929421
 20
146.3773378171
 30
0.0
 11
140.7229281866
 21
146.3838160409
 31
0.0
  0
ARC
  5
EF
330
1F
100
AcDbEntity
  8
0
  6
Continuous
 62
     7
370
    15
100
AcDbCircle
 10
123.721786205
 20
149.3773375993
 30
0.0
 40
3.000000000000027
100
AcDbArc
 50
180.021833817
 51
270.021833817
  0
ARC
  5
F0
330
1F
100
AcDbEntity
  8
0
  6
Continuous
 62
     7
370
    15
100
AcDbCircle
 10
123.7183565571
 20
158.3773369459
 30
0.0
 40
3.000000000000027
100
AcDbArc
 50
90.021833817
 51
180.021833817
  0
LINE
  5
F1
330
1F
100
AcDbEntity
  8
0
  6
Continuous
 62
     7
370
    15
100
AcDbLine
 10
228.7429280763
 20
93.9173541875
 30
0.0
 11
220.7398800813
 21
101.9143050307
 31
0.0
  0
LINE
  5
F2
330
1F
100
AcDbEntity
  8
0
  6
Continuous
 62
     7
370
    15
100
AcDbLine
 10
200.7398815335
 20
101.906683591
 30
0.0
 11
192.7429306902
 21
93.903635596
 31
0.0
  0
LINE
  5
F3
330
1F
100
AcDbEntity
  8
0
  6
Continuous
 62
     7
370
    15
100
AcDbLine
 10
192.7429306902
 20
93.903635596
 30
0.0
 11
192.7448360502
 21
88.9036359591
 31
0.0
  0
LINE
  5
F4
330
1F
100
AcDbEntity
  8
0
  6
Continuous
 62
     7
370
    15
100
AcDbLine
 10
228.7448334363
 20
88.9173545505
 30
0.0
 11
228.7429280763
 21
93.9173541875
 31
0.0
  0
LINE
  5
F5
330
1F
100
AcDbEntity
  8
0
  6
Continuous
 62
     7
370
    15
100
AcDbLine
 10
200.7113011346
 20
176.9066781455
 30
0.0
 11
200.7133970305
 21
171.4066785448
 31
0.0
  0
LINE
  5
F6
330
1F
100
AcDbEntity
  8
0
  6
Continuous
 62
     7
370
    15
100
AcDbLine
 10
200.72673455
 20
136.4066810861
 30
0.0
 11
200.7398815335
 21
101.906683591
 31
0.0
  0
LINE
  5
F7
330
1F
100
AcDbEntity
  8
0
  6
Continuous
 62
     7
370
    15
100
AcDbLine
 10
220.7398800813
 20
101.9143050307
 30
0.0
 11
220.7267330978
 21
136.4143025258
 31
0.0
  0
LINE
  5
F8
330
1F
100
AcDbEntity
  8
0
  6
Continuous
 62
     7
370
    15
100
AcDbLine
 10
220.7133956514
 20
171.4141083805
 30
0.0
 11
220.7112996825
 21
176.9142995852
 31
0.0
  0
LINE
  5
F9
330
1F
100
AcDbEntity
  8
0
  6
Continuous
 62
     7
370
    15
100
AcDbLine
 10
220.7112996825
 20
176.9142995852
 30
0.0
 11
218.7105376837
 21
178.913537296
 31
0.0
  0
LINE
  5
FA
330
1F
100
AcDbEntity
  8
0
  6
Continuous
 62
     7
370
    15
100
AcDbLine
 10
202.7105388454
 20
178.9074401442
 30
0.0
 11
200.7113011346
 21
176.9066781455
 31
0.0
  0
LINE
  5
FB
330
1F
100
AcDbEntity
  8
0
  6
Continuous
 62
     7
370
    15
100
AcDbLine
 10
192.7448360502
 20
88.9036359591
 30
0.0
 11
192.7467414101
 21
83.9036363221
 31
0.0
  0
LINE
  5
FC
330
1F
100
AcDbEntity
  8
0
  6
Continuous
 62
     7
370
    15
100
AcDbLine
 10
228.7467387962
 20
83.9173549136
 30
0.0
 11
228.7448334363
 21
88.9173545505
 31
0.0
  0
CIRCLE
  5
FD
330
1F
100
AcDbEntity
  8
0
  6
Continuous
 62
     7
370
    15
100
AcDbCircle
 10
235.720063249
 20
153.9200173349
 30
0.0
 40
15.5
  0
CIRCLE
  5
FE
330
1F
100
AcDbEntity
  8
0
  6
Continuous
 62
     7
370
    15
100
AcDbCircle
 10
235.720063249
 20
153.9200173349
 30
0.0
 40
17.5
  0
CIRCLE
  5
FF
330
1F
100
AcDbEntity
  8
0
  6
Continuous
 62
     7
370
    15
100
AcDbCircle
 10
185.7200668794
 20
153.9009637357
 30
0.0
 40
15.49999999999999
  0
CIRCLE
  5
100
330
1F
100
AcDbEntity
  8
0
  6
Continuous
 62
     7
370
    15
100
AcDbCircle
 10
185.7200668794
 20
153.9009637357
 30
0.0
 40
17.50000000000002
  0
LINE
  5
101
330
1F
100
AcDbEntity
  8
0
  6
Continuous
 62
     7
370
    15
100
AcDbLine
 10
260.2267302298
 20
136.4293548692
 30
0.0
 11
260.2133927104
 21
171.4293523279
 31
0.0
  0
LINE
  5
102
330
1F
100
AcDbEntity
  8
0
  6
Continuous
 62
     7
370
    15
100
AcDbLine
 10
260.71358321
 20
170.9295429002
 30
0.0
 11
260.7265396575
 21
136.9295453689
 31
0.0
  0
LINE
  5
103
330
1F
100
AcDbEntity
  8
0
  6
Continuous
 62
     7
370
    15
100
AcDbLine
 10
141.2134013507
 20
171.3840047617
 30
0.0
 11
141.2267388702
 21
136.384007303
 31
0.0
  0
LWPOLYLINE
  5
104
330
1F
100
AcDbEntity
  8
0
  6
Continuous
 62
     7
370
    15
100
AcDbPolyline
 90
       23
 70
   128
 43
0.0
 10
200.7270664839
 20
136.4068702337
 10
200.8356958814
 20
136.4687703806
 10
201.1714605958
 20
136.6571712531
 10
201.6955517659
 20
136.9421283196
 10
202.4168575394
 20
137.3152094899
 10
203.3823627311
 20
137.7775311376
 10
204.5495048435
 20
138.2748601488
 10
205.9932721131
 20
138.7876074834
 10
207.6540687403
 20
139.2231138376
 10
209.0123282948
 20
139.4466018645
 10
210.4582307358
 20
139.5464956193
 10
211.8739021438
 20
139.5036844527
 10
213.2977741573
 20
139.3215453507
 10
214.5950611372
 20
139.0384425571
 10
215.8298206601
 20
138.6710362801
 10
217.0944365621
 20
138.2028474762
 10
218.2277270613
 20
137.7108096128
 10
219.2591017265
 20
137.2087595451
 10
220.062361789
 20
136.7849337847
 10
220.4866696163
 20
136.5502434091
 10
220.7043197435
 20
136.4270891621
 10
220.7267330978
 20
136.4143025258
 10
220.7267330978
 20
136.4143025258
  0
LWPOLYLINE
  5
105
330
1F
100
AcDbEntity
  8
0
  6
Continuous
 62
     7
370
    15
100
AcDbPolyline
 90
       23
 70
   128
 43
0.0
 10
220.7130636444
 20
171.4141108369
 10
220.604434247
 20
171.3522106899
 10
220.2686695326
 20
171.1638098175
 10
219.7445783625
 20
170.8788527509
 10
219.023272589
 20
170.5057715807
 10
218.0577673973
 20
170.043449933
 10
216.8906252848
 20
169.5461209218
 10
215.4468580153
 20
169.0333735872
 10
213.7860613881
 20
168.597867233
 10
212.4278018336
 20
168.374379206
 10
210.9818993926
 20
168.2744854512
 10
209.5662279846
 20
168.3172966179
 10
208.1423559711
 20
168.4994357199
 10
206.8450689911
 20
168.7825385134
 10
205.6103094683
 20
169.1499447905
 10
204.3456935663
 20
169.6181335943
 10
203.2124030671
 20
170.1101714577
 10
202.1810284018
 20
170.6122215255
 10
201.3777683393
 20
171.0360472859
 10
200.9534605121
 20
171.2707376615
 10
200.7358103849
 20
171.3938919084
 10
200.7133970305
 20
171.4066785448
 10
200.7133970305
 20
171.4066785448
  0
LINE
  5
106
330
1F
100
AcDbEntity
  8
0
  6
Continuous
 62
     7
370
    15
100
AcDbLine
 10
140.7265483705
 20
136.8838167307
 30
0.0
 11
140.713591923
 21
170.883814262
 31
0.0
  0
LINE
  5
107
330
1F
100
AcDbEntity
  8
0
  6
Continuous
 62
     7
370
    15
100
AcDbLine
 10
120.7217864228
 20
149.3761943834
 30
0.0
 11
120.718356775
 21
158.3761937299
 31
0.0
  0
LINE
  5
108
330
1F
100
AcDbEntity
  8
0
  6
Continuous
 62
     7
370
    15
100
AcDbLine
 10
215.9925108512
 20
101.9124959412
 30
0.0
 11
220.7398800813
 21
101.9143050307
 31
0.0
  0
LINE
  5
109
330
1F
100
AcDbEntity
  8
0
  6
Continuous
 62
     7
370
    15
100
AcDbLine
 10
200.7398815335
 20
101.906683591
 30
0.0
 11
215.9925108512
 21
101.9124959412
 31
0.0
  0
LINE
  5
10A
330
1F
100
AcDbEntity
  8
0
  6
Continuous
 62
     7
370
    15
100
AcDbLine
 10
220.1976634621
 20
93.9140978263
 30
0.0
 11
228.7429280763
 21
93.9173541875
 31
0.0
  0
LINE
  5
10B
330
1F
100
AcDbEntity
  8
0
  6
Continuous
 62
     7
370
    15
100
AcDbLine
 10
192.7429306902
 20
93.903635596
 30
0.0
 11
220.1976634621
 21
93.9140978263
 31
0.0
  0
LINE
  5
10C
330
1F
100
AcDbEntity
  8
0
  6
Continuous
 62
     7
370
    15
100
AcDbLine
 10
220.199568822
 20
88.9140981893
 30
0.0
 11
228.7448334363
 21
88.9173545505
 31
0.0
  0
LINE
  5
10D
330
1F
100
AcDbEntity
  8
0
  6
Continuous
 62
     7
370
    15
100
AcDbLine
 10
192.7448360502
 20
88.9036359591
 30
0.0
 11
220.199568822
 21
88.9140981893
 31
0.0
  0
SPLINE
  5
10E
330
1F
100
AcDbEntity
  8
0
  6
Continuous
 62
     7
370
    15
100
AcDbSpline
210
0.0
220
0.0
230
1.0
 70
    11
 71
     3
 72
    26
 73
    22
 74
     0
 42
0.000000001
 43
0.00000001
 40
0.0
 40
0.0
 40
0.0
 40
0.0
 40
0.0535349050213489
 40
0.107064350868091
 40
0.1607353715194034
 40
0.2144994531573045
 40
0.2681101719941475
 40
0.3215613774464258
 40
0.3750937214647108
 40
0.4288222127684162
 40
0.4825572764288797
 40
0.5360968494153925
 40
0.5895445725940197
 40
0.643146715946366
 40
0.6969089759678424
 40
0.7505876998189336
 40
0.8040705239150633
 40
0.8575496056818862
 40
0.9112220990586121
 40
0.9649859940786324
 40
0.9999999999999999
 40
0.9999999999999999
 40
0.9999999999999999
 40
0.9999999999999999
 10
209.6219480260806
 20
91.41006753561787
 30
0.0
 10
209.6402257158949
 20
91.22496993114821
 30
0.0
 10
209.6767792316722
 20
90.85479359737344
 30
0.0
 10
209.9606397760141
 20
90.36191815535639
 30
0.0
 10
210.3788997223376
 20
89.98626343858895
 30
0.0
 10
210.9018494619351
 20
89.77071041695085
 30
0.0
 10
211.4648209003158
 20
89.74017856292724
 30
0.0
 10
212.0049585307061
 20
89.89713387106727
 30
0.0
 10
212.462700946285
 20
90.22359628036827
 30
0.0
 10
212.7875329174457
 20
90.68415154677234
 30
0.0
 10
212.9419779858189
 20
91.22709899687261
 30
0.0
 10
212.9086386077755
 20
91.78987262293658
 30
0.0
 10
212.6923527380975
 20
92.30924480205263
 30
0.0
 10
212.3168852289805
 20
92.72833679404374
 30
0.0
 10
211.8229771764079
 20
92.99989263140245
 30
0.0
 10
211.2665692521297
 20
93.09219548229862
 30
0.0
 10
210.7117142893383
 20
92.99537998286583
 30
0.0
 10
210.2190952981929
 20
92.72113014374462
 30
0.0
 10
209.8466740952303
 20
92.29958775365316
 30
0.0
 10
209.6497028135594
 20
91.8367507364694
 30
0.0
 10
209.6297983477838
 20
91.53075303517744
 30
0.0
 10
209.6219480260806
 20
91.41006753561787
 30
0.0
  0
SPLINE
  5
10F
330
1F
100
AcDbEntity
  8
0
  6
Continuous
 62
     7
370
    15
100
AcDbSpline
210
0.0
220
0.0
230
1.0
 70
     8
 71
     3
 72
    27
 73
    23
 74
     0
 42
0.000000001
 43
0.00000001
 40
0.0
 40
0.0
 40
0.0
 40
0.0
 40
0.0356740811629184
 40
0.0881564043894661
 40
0.1421531944101131
 40
0.1947892272127457
 40
0.2489307513868121
 40
0.3019296644192533
 40
0.3564633936565739
 40
0.409473366592767
 40
0.464041505491024
 40
0.5166857306057901
 40
0.5708677931985742
 40
0.6233421433035887
 40
0.6773226838199371
 40
0.730085665195681
 40
0.7843608472933096
 40
0.8374220918871276
 40
0.8920297299307255
 40
0.9449353677283306
 40
0.999396698731732
 40
0.9999999999999999
 40
0.9999999999999999
 40
0.9999999999999999
 40
0.9999999999999999
 10
211.1255654692981
 20
93.05521678244125
 30
0.0
 10
211.1872870080743
 20
93.0553909642653
 30
0.0
 10
211.3398108784735
 20
93.0558213956266
 30
0.0
 10
211.5814444894954
 20
93.00338080213723
 30
0.0
 10
211.8391399888663
 20
92.90720520940881
 30
0.0
 10
212.0790449275744
 20
92.76620067187146
 30
0.0
 10
212.2907475215692
 20
92.58867938026195
 30
0.0
 10
212.4718155343732
 20
92.3755752427213
 30
0.0
 10
212.6137072336672
 20
92.13650680689398
 30
0.0
 10
212.7145229992871
 20
91.87427412342089
 30
0.0
 10
212.7693549453629
 20
91.60166854395659
 30
0.0
 10
212.7779186538582
 20
91.32170102721469
 30
0.0
 10
212.7402317445102
 20
91.04776521735735
 30
0.0
 10
212.656929737716
 20
90.78204154934366
 30
0.0
 10
212.5318674264588
 20
90.53621123761339
 30
0.0
 10
212.3659542896075
 20
90.3124841969484
 30
0.0
 10
212.1661191008999
 20
90.12068875802183
 30
0.0
 10
211.9343441895052
 20
89.96381771788661
 30
0.0
 10
211.6811683571497
 20
89.84764240178289
 30
0.0
 10
211.4100025900848
 20
89.78065502041372
 30
0.0
 10
211.2228468157357
 20
89.75309921369846
 30
0.0
 10
211.1280444223507
 20
89.76081150345833
 30
0.0
 10
211.1270057446767
 20
89.76089600114771
 30
0.0
  0
LINE
  5
110
330
1F
100
AcDbEntity
  8
0
  6
Continuous
 62
     7
370
    15
100
AcDbLine
 10
215.9639304523
 20
176.9124904956
 30
0.0
 11
200.7113011346
 21
176.9066781455
 31
0.0
  0
LINE
  5
111
330
1F
100
AcDbEntity
  8
0
  6
Continuous
 62
     7
370
    15
100
AcDbLine
 10
220.7112996825
 20
176.9142995852
 30
0.0
 11
215.9639304523
 21
176.9124904956
 31
0.0
  0
LINE
  5
112
330
1F
100
AcDbEntity
  8
0
  6
Continuous
 62
     7
370
    15
100
AcDbLine
 10
214.9126422996
 20
178.9120900243
 30
0.0
 11
218.7105376837
 21
178.913537296
 31
0.0
  0
LINE
  5
113
330
1F
100
AcDbEntity
  8
0
  6
Continuous
 62
     7
370
    15
100
AcDbLine
 10
202.7105388454
 20
178.9074401442
 30
0.0
 11
214.9126422996
 21
178.9120900243
 31
0.0
  0
LINE
  5
114
330
1F
100
AcDbEntity
  8
0
  6
Continuous
 62
     7
370
    15
100
AcDbLine
 10
192.7448360502
 20
88.9036359591
 30
0.0
 11
228.7448334363
 21
88.9173545505
 31
0.0
  0
LINE
  5
115
330
1F
100
AcDbEntity
  8
0
  6
Continuous
 62
     7
370
    15
100
AcDbLine
 10
192.7467414101
 20
83.9036363221
 30
0.0
 11
228.7467387962
 21
83.9173549136
 31
0.0
  0
LINE
  5
116
330
1F
100
AcDbEntity
  8
0
  6
Continuous
 62
     7
370
    15
100
AcDbLine
 10
210.2072515525
 20
92.6602906692
 30
0.0
 11
212.1944548419
 21
92.6610479367
 31
0.0
  0
LINE
  5
117
330
1F
100
AcDbEntity
  8
0
  6
Continuous
 62
     7
370
    15
100
AcDbLine
 10
209.7156396473
 20
91.9101032752
 30
0.0
 11
212.6974876042
 21
91.911239574
 31
0.0
  0
LINE
  5
118
330
1F
100
AcDbEntity
  8
0
  6
Continuous
 62
     8
370
    15
100
AcDbLine
 10
123.7172133412
 20
161.377336728
 30
0.0
 11
123.722929421
 21
146.3773378171
 31
0.0
  0
LINE
  5
119
330
1F
100
AcDbEntity
  8
0
  6
Continuous
 62
     7
370
    15
100
AcDbLine
 10
-26.1655639217
 20
136.384007303
 30
0.0
 11
-25.6653734221
 21
136.8838167307
 31
0.0
  0
LINE
  5
11A
330
1F
100
AcDbEntity
  8
0
  6
Continuous
 62
     7
370
    15
100
AcDbLine
 10
-25.6524169746
 20
170.883814262
 30
0.0
 11
-26.1522264023
 21
171.3840047617
 31
0.0
  0
LINE
  5
11B
330
1F
100
AcDbEntity
  8
0
  6
Continuous
 62
     7
370
    15
100
AcDbLine
 10
-85.6655596016
 20
136.4066810861
 30
0.0
 11
-26.1655639217
 21
136.384007303
 31
0.0
  0
LINE
  5
11C
330
1F
100
AcDbEntity
  8
0
  6
Continuous
 62
     7
370
    15
100
AcDbLine
 10
-145.1655552814
 20
136.4293548692
 30
0.0
 11
-105.6655581494
 21
136.4143025258
 31
0.0
  0
LINE
  5
11D
330
1F
100
AcDbEntity
  8
0
  6
Continuous
 62
     7
370
    15
100
AcDbLine
 10
-105.6522206299
 20
171.4142999845
 30
0.0
 11
-145.1522177619
 21
171.4293523279
 31
0.0
  0
LINE
  5
11E
330
1F
100
AcDbEntity
  8
0
  6
Continuous
 62
     7
370
    15
100
AcDbLine
 10
-26.1522264023
 20
171.3840047617
 30
0.0
 11
-85.6522220821
 21
171.4066785448
 31
0.0
  0
LINE
  5
11F
330
1F
100
AcDbEntity
  8
0
  6
Continuous
 62
     7
370
    15
100
AcDbLine
 10
-145.1522177619
 20
171.4293523279
 30
0.0
 11
-145.6524082616
 21
170.9295429002
 31
0.0
  0
LINE
  5
120
330
1F
100
AcDbEntity
  8
0
  6
Continuous
 62
     7
370
    15
100
AcDbLine
 10
-145.6653647091
 20
136.9295453689
 30
0.0
 11
-145.1655552814
 21
136.4293548692
 31
0.0
  0
ARC
  5
121
330
1F
100
AcDbEntity
  8
0
  6
Continuous
 62
     7
370
    15
100
AcDbCircle
 10
-8.6571816087
 20
158.3773369459
 30
0.0
 40
3.000000000000038
100
AcDbArc
 50
359.978166183
 51
89.978166183
  0
ARC
  5
122
330
1F
100
AcDbEntity
  8
0
  6
Continuous
 62
     7
370
    15
100
AcDbCircle
 10
-8.6606112566
 20
149.3773375993
 30
0.0
 40
3.000000000000039
100
AcDbArc
 50
269.978166183
 51
359.978166183
  0
LINE
  5
123
330
1F
100
AcDbEntity
  8
0
  6
Continuous
 62
     7
370
    15
100
AcDbLine
 10
-25.6617532382
 20
146.3838160409
 30
0.0
 11
-8.6617544725
 21
146.3773378171
 31
0.0
  0
LINE
  5
124
330
1F
100
AcDbEntity
  8
0
  6
Continuous
 62
     7
370
    15
100
AcDbLine
 10
-8.6560383928
 20
161.377336728
 30
0.0
 11
-25.6560371584
 21
161.3838149518
 31
0.0
  0
LINE
  5
125
330
1F
100
AcDbEntity
  8
0
  6
Continuous
 62
     7
370
    15
100
AcDbLine
 10
-77.6817557418
 20
93.903635596
 30
0.0
 11
-85.6787065851
 21
101.906683591
 31
0.0
  0
LINE
  5
126
330
1F
100
AcDbEntity
  8
0
  6
Continuous
 62
     7
370
    15
100
AcDbLine
 10
-105.6787051329
 20
101.9143050307
 30
0.0
 11
-113.6817531279
 21
93.9173541875
 31
0.0
  0
LINE
  5
127
330
1F
100
AcDbEntity
  8
0
  6
Continuous
 62
     7
370
    15
100
AcDbLine
 10
-113.6817531279
 20
93.9173541875
 30
0.0
 11
-113.6836584878
 21
88.9173545505
 31
0.0
  0
LINE
  5
128
330
1F
100
AcDbEntity
  8
0
  6
Continuous
 62
     7
370
    15
100
AcDbLine
 10
-77.6836611017
 20
88.9036359591
 30
0.0
 11
-77.6817557418
 21
93.903635596
 31
0.0
  0
LINE
  5
129
330
1F
100
AcDbEntity
  8
0
  6
Continuous
 62
     7
370
    15
100
AcDbLine
 10
-105.650124734
 20
176.9142995852
 30
0.0
 11
-105.6522206299
 21
171.4142999845
 31
0.0
  0
LINE
  5
12A
330
1F
100
AcDbEntity
  8
0
  6
Continuous
 62
     7
370
    15
100
AcDbLine
 10
-105.6655581494
 20
136.4143025258
 30
0.0
 11
-105.6787051329
 21
101.9143050307
 31
0.0
  0
LINE
  5
12B
330
1F
100
AcDbEntity
  8
0
  6
Continuous
 62
     7
370
    15
100
AcDbLine
 10
-85.6787065851
 20
101.906683591
 30
0.0
 11
-85.6655596016
 21
136.4066810861
 31
0.0
  0
LINE
  5
12C
330
1F
100
AcDbEntity
  8
0
  6
Continuous
 62
     7
370
    15
100
AcDbLine
 10
-85.6522220821
 20
171.4066785448
 30
0.0
 11
-85.6501261862
 21
176.9066781455
 31
0.0
  0
LINE
  5
12D
330
1F
100
AcDbEntity
  8
0
  6
Continuous
 62
     7
370
    15
100
AcDbLine
 10
-85.6501261862
 20
176.9066781455
 30
0.0
 11
-87.649363897
 21
178.9074401442
 31
0.0
  0
LINE
  5
12E
330
1F
100
AcDbEntity
  8
0
  6
Continuous
 62
     7
370
    15
100
AcDbLine
 10
-103.6493627353
 20
178.913537296
 30
0.0
 11
-105.650124734
 21
176.9142995852
 31
0.0
  0
LINE
  5
12F
330
1F
100
AcDbEntity
  8
0
  6
Continuous
 62
     7
370
    15
100
AcDbLine
 10
-113.6836584878
 20
88.9173545505
 30
0.0
 11
-113.6855638478
 21
83.9173549136
 31
0.0
  0
LINE
  5
130
330
1F
100
AcDbEntity
  8
0
  6
Continuous
 62
     7
370
    15
100
AcDbLine
 10
-77.6855664616
 20
83.9036363221
 30
0.0
 11
-77.6836611017
 21
88.9036359591
 31
0.0
  0
CIRCLE
  5
131
330
1F
100
AcDbEntity
  8
0
  6
Continuous
 62
     7
370
    15
100
AcDbCircle
 10
-70.658891931
 20
153.9009637357
 30
0.0
 40
5.700000000000011
  0
CIRCLE
  5
132
330
1F
100
AcDbEntity
  8
0
  6
Continuous
 62
     7
370
    15
100
AcDbCircle
 10
-70.658891931
 20
153.9009637357
 30
0.0
 40
6.499999999999995
  0
LINE
  5
133
330
1F
100
AcDbEntity
  8
0
  6
Continuous
 62
     7
370
    15
100
AcDbLine
 10
-67.2041547992
 20
154.2816534835
 30
0.0
 11
-69.2612103577
 21
157.0831987291
 31
0.0
  0
LINE
  5
134
330
1F
100
AcDbEntity
  8
0
  6
Continuous
 62
     7
370
    15
100
AcDbLine
 10
-69.2612103577
 20
157.0831987291
 30
0.0
 11
-72.7159474894
 21
156.7025089812
 31
0.0
  0
LINE
  5
135
330
1F
100
AcDbEntity
  8
0
  6
Continuous
 62
     7
370
    15
100
AcDbLine
 10
-74.1136290627
 20
153.5202739878
 30
0.0
 11
-72.7159474894
 21
156.7025089812
 31
0.0
  0
LINE
  5
136
330
1F
100
AcDbEntity
  8
0
  6
Continuous
 62
     7
370
    15
100
AcDbLine
 10
-72.0565735042
 20
150.7187287423
 30
0.0
 11
-74.1136290627
 21
153.5202739878
 31
0.0
  0
LINE
  5
137
330
1F
100
AcDbEntity
  8
0
  6
Continuous
 62
     7
370
    15
100
AcDbLine
 10
-72.0565735042
 20
150.7187287423
 30
0.0
 11
-68.6018363725
 21
151.0994184901
 31
0.0
  0
LINE
  5
138
330
1F
100
AcDbEntity
  8
0
  6
Continuous
 62
     7
370
    15
100
AcDbLine
 10
-67.2041547992
 20
154.2816534835
 30
0.0
 11
-68.6018363725
 21
151.0994184901
 31
0.0
  0
ARC
  5
139
330
1F
100
AcDbEntity
  8
0
  6
Continuous
 62
     7
370
    15
100
AcDbCircle
 10
-70.658891931
 20
153.9009637357
 30
0.0
 40
3.009999999999995
100
AcDbArc
 50
336.2882552612
 51
36.2882552612
  0
ARC
  5
13A
330
1F
100
AcDbEntity
  8
0
  6
Continuous
 62
     7
370
    15
100
AcDbCircle
 10
-70.658891931
 20
153.9009637357
 30
0.0
 40
3.009999999999988
100
AcDbArc
 50
216.2882552612
 51
276.2882552612
  0
ARC
  5
13B
330
1F
100
AcDbEntity
  8
0
  6
Continuous
 62
     7
370
    15
100
AcDbCircle
 10
-70.658891931
 20
153.9009637357
 30
0.0
 40
3.010000000000021
100
AcDbArc
 50
156.2882552612
 51
216.2882552612
  0
ARC
  5
13C
330
1F
100
AcDbEntity
  8
0
  6
Continuous
 62
     7
370
    15
100
AcDbCircle
 10
-70.658891931
 20
153.9009637357
 30
0.0
 40
3.010000000000021
100
AcDbArc
 50
96.2882552612
 51
156.2882552612
  0
ARC
  5
13D
330
1F
100
AcDbEntity
  8
0
  6
Continuous
 62
     7
370
    15
100
AcDbCircle
 10
-70.658891931
 20
153.9009637357
 30
0.0
 40
3.010000000000018
100
AcDbArc
 50
36.2882552612
 51
96.2882552612
  0
ARC
  5
13E
330
1F
100
AcDbEntity
  8
0
  6
Continuous
 62
     7
370
    15
100
AcDbCircle
 10
-70.658891931
 20
153.9009637357
 30
0.0
 40
3.009999999999995
100
AcDbArc
 50
276.2882552612
 51
336.2882552612
  0
CIRCLE
  5
13F
330
1F
100
AcDbEntity
  8
0
  6
Continuous
 62
     7
370
    15
100
AcDbCircle
 10
-120.6588883006
 20
153.9200173349
 30
0.0
 40
5.700000000000011
  0
CIRCLE
  5
140
330
1F
100
AcDbEntity
  8
0
  6
Continuous
 62
     7
370
    15
100
AcDbCircle
 10
-120.6588883006
 20
153.9200173349
 30
0.0
 40
6.500000000000052
  0
LINE
  5
141
330
1F
100
AcDbEntity
  8
0
  6
Continuous
 62
     7
370
    15
100
AcDbLine
 10
-117.2041511688
 20
154.3007070828
 30
0.0
 11
-119.2612067273
 21
157.1022523283
 31
0.0
  0
LINE
  5
142
330
1F
100
AcDbEntity
  8
0
  6
Continuous
 62
     7
370
    15
100
AcDbLine
 10
-119.2612067273
 20
157.1022523283
 30
0.0
 11
-122.715943859
 21
156.7215625804
 31
0.0
  0
LINE
  5
143
330
1F
100
AcDbEntity
  8
0
  6
Continuous
 62
     7
370
    15
100
AcDbLine
 10
-124.1136254323
 20
153.539327587
 30
0.0
 11
-122.715943859
 21
156.7215625804
 31
0.0
  0
LINE
  5
144
330
1F
100
AcDbEntity
  8
0
  6
Continuous
 62
     7
370
    15
100
AcDbLine
 10
-122.0565698738
 20
150.7377823415
 30
0.0
 11
-124.1136254323
 21
153.539327587
 31
0.0
  0
LINE
  5
145
330
1F
100
AcDbEntity
  8
0
  6
Continuous
 62
     7
370
    15
100
AcDbLine
 10
-122.0565698738
 20
150.7377823415
 30
0.0
 11
-118.6018327421
 21
151.1184720894
 31
0.0
  0
LINE
  5
146
330
1F
100
AcDbEntity
  8
0
  6
Continuous
 62
     7
370
    15
100
AcDbLine
 10
-117.2041511688
 20
154.3007070828
 30
0.0
 11
-118.6018327421
 21
151.1184720894
 31
0.0
  0
ARC
  5
147
330
1F
100
AcDbEntity
  8
0
  6
Continuous
 62
     7
370
    15
100
AcDbCircle
 10
-120.6588883006
 20
153.9200173349
 30
0.0
 40
3.010000000000006
100
AcDbArc
 50
336.2882552612
 51
36.2882552612
  0
ARC
  5
148
330
1F
100
AcDbEntity
  8
0
  6
Continuous
 62
     7
370
    15
100
AcDbCircle
 10
-120.6588883006
 20
153.9200173349
 30
0.0
 40
3.010000000000016
100
AcDbArc
 50
216.2882552612
 51
276.2882552612
  0
ARC
  5
149
330
1F
100
AcDbEntity
  8
0
  6
Continuous
 62
     7
370
    15
100
AcDbCircle
 10
-120.6588883006
 20
153.9200173349
 30
0.0
 40
3.01000000000001
100
AcDbArc
 50
156.2882552612
 51
216.2882552612
  0
ARC
  5
14A
330
1F
100
AcDbEntity
  8
0
  6
Continuous
 62
     7
370
    15
100
AcDbCircle
 10
-120.6588883006
 20
153.9200173349
 30
0.0
 40
3.01000000000001
100
AcDbArc
 50
96.2882552612
 51
156.2882552612
  0
ARC
  5
14B
330
1F
100
AcDbEntity
  8
0
  6
Continuous
 62
     7
370
    15
100
AcDbCircle
 10
-120.6588883006
 20
153.9200173349
 30
0.0
 40
3.009999999999961
100
AcDbArc
 50
36.2882552612
 51
96.2882552612
  0
ARC
  5
14C
330
1F
100
AcDbEntity
  8
0
  6
Continuous
 62
     7
370
    15
100
AcDbCircle
 10
-120.6588883006
 20
153.9200173349
 30
0.0
 40
3.010000000000016
100
AcDbArc
 50
276.2882552612
 51
336.2882552612
  0
LINE
  5
14D
330
1F
100
AcDbEntity
  8
0
  6
Continuous
 62
     7
370
    15
100
AcDbLine
 10
-25.6524169746
 20
170.883814262
 30
0.0
 11
-25.6653734221
 21
136.8838167307
 31
0.0
  0
LINE
  5
14E
330
1F
100
AcDbEntity
  8
0
  6
Continuous
 62
     7
370
    15
100
AcDbLine
 10
-26.1655639217
 20
136.384007303
 30
0.0
 11
-26.1522264023
 21
171.3840047617
 31
0.0
  0
SPLINE
  5
14F
330
1F
100
AcDbEntity
  8
0
  6
Continuous
 62
     7
370
    15
100
AcDbSpline
210
0.0
220
0.0
230
1.0
 70
    11
 71
     3
 72
    46
 73
    42
 74
     0
 42
0.000000001
 43
0.00000001
 40
0.0
 40
0.0
 40
0.0
 40
0.0
 40
0.0248689440820701
 40
0.0504968857535326
 40
0.0753563634929496
 40
0.100876448334379
 40
0.1269380139848069
 40
0.1536807735219224
 40
0.1810396411391413
 40
0.2092706406796389
 40
0.2352112150755175
 40
0.2620442463372791
 40
0.2859286838921301
 40
0.3104811899707582
 40
0.3349361972947816
 40
0.359990535329645
 40
0.3866143717129115
 40
0.4139688759103351
 40
0.4411970326593138
 40
0.4693255126109898
 40
0.4947502955754882
 40
0.5209986779410051
 40
0.5451288067518697
 40
0.5699205392830093
 40
0.5948387871596806
 40
0.620384020633944
 40
0.6471543279139328
 40
0.6746704644605489
 40
0.7018298081648565
 40
0.7299140680751124
 40
0.7548962896264478
 40
0.7806878767055333
 40
0.8044463506782169
 40
0.828820035712413
 40
0.8540712080682099
 40
0.8799516947849093
 40
0.9071420381933573
 40
0.9351408652041998
 40
0.9618453709237884
 40
0.989453221397756
 40
1.0
 40
1.0
 40
1.0
 40
1.0
 10
-78.15889138639025
 20
153.9038217755458
 30
0.0
 10
-78.14087553217199
 20
153.5082707281801
 30
0.0
 10
-78.10429398173666
 20
152.7050964565827
 30
0.0
 10
-77.80946346815128
 20
151.542021934159
 30
0.0
 10
-77.34725750591855
 20
150.4379567653017
 30
0.0
 10
-76.71480084296051
 20
149.4223032267863
 30
0.0
 10
-75.91399037827067
 20
148.5028864599907
 30
0.0
 10
-74.95200022344301
 20
147.7081054729275
 30
0.0
 10
-73.83572488384473
 20
147.0651111868293
 30
0.0
 10
-72.62515481647912
 20
146.6251918111975
 30
0.0
 10
-71.35613730209386
 20
146.3979573609651
 30
0.0
 10
-70.13085502097582
 20
146.3868234963737
 30
0.0
 10
-68.9467449626167
 20
146.5687827674796
 30
0.0
 10
-67.84766123166439
 20
146.9157885574199
 30
0.0
 10
-66.80696187728158
 20
147.4309980134036
 30
0.0
 10
-65.83712365570318
 20
148.1143852615031
 30
0.0
 10
-64.95781492823974
 20
148.9738539755488
 30
0.0
 10
-64.21148907280116
 20
149.9986992298412
 30
0.0
 10
-63.63496430761565
 20
151.1647346819566
 30
0.0
 10
-63.27460422746223
 20
152.3953687606789
 30
0.0
 10
-63.1288512654404
 20
153.6595517325256
 30
0.0
 10
-63.18919730257389
 20
154.8688164915376
 30
0.0
 10
-63.43836552009144
 20
156.0372836596969
 30
0.0
 10
-63.85424763320975
 20
157.1265457279918
 30
0.0
 10
-64.44075665526591
 20
158.1494480772547
 30
0.0
 10
-65.19519547451964
 20
159.0868863026502
 30
0.0
 10
-66.11992535407012
 20
159.9161843799995
 30
0.0
 10
-67.1961948425796
 20
160.5949494214313
 30
0.0
 10
-68.4008007351887
 20
161.0928624847084
 30
0.0
 10
-69.64685153796631
 20
161.3683958154853
 30
0.0
 10
-70.90410006816981
 20
161.4297154483765
 30
0.0
 10
-72.0854270939021
 20
161.2955472533234
 30
0.0
 10
-73.21348093022416
 20
160.9830187837404
 30
0.0
 10
-74.26541239220519
 20
160.5111574430714
 30
0.0
 10
-75.25313930125682
 20
159.8689639381359
 30
0.0
 10
-76.15688113846491
 20
159.0519466558397
 30
0.0
 10
-76.94292642435968
 20
158.0623114841545
 30
0.0
 10
-77.5593406392382
 20
156.9334516468323
 30
0.0
 10
-77.97663381540946
 20
155.7000600162903
 30
0.0
 10
-78.14266903185937
 20
154.677520948569
 30
0.0
 10
-78.15537827270832
 20
154.071374096343
 30
0.0
 10
-78.15889138639025
 20
153.9038217755458
 30
0.0
  0
SPLINE
  5
150
330
1F
100
AcDbEntity
  8
0
  6
Continuous
 62
     7
370
    15
100
AcDbSpline
210
0.0
220
0.0
230
1.0
 70
    11
 71
     3
 72
    46
 73
    42
 74
     0
 42
0.000000001
 43
0.00000001
 40
0.0
 40
0.0
 40
0.0
 40
0.0
 40
0.0248689440820702
 40
0.0504968857535342
 40
0.0753563634929499
 40
0.1008764483343804
 40
0.1269380139848081
 40
0.1536807735219239
 40
0.1810396411391421
 40
0.2092706406796392
 40
0.2352112150755176
 40
0.2620442463372795
 40
0.2859286838921313
 40
0.3104811899707587
 40
0.3349361972947816
 40
0.3599905353296456
 40
0.3866143717129116
 40
0.4139688759103344
 40
0.4411970326593153
 40
0.4693255126109911
 40
0.494750295575488
 40
0.5209986779410058
 40
0.5451288067518701
 40
0.5699205392830105
 40
0.5948387871596816
 40
0.6203840206339449
 40
0.647154327913933
 40
0.6746704644605493
 40
0.7018298081648576
 40
0.7299140680751115
 40
0.7548962896264482
 40
0.7806878767055344
 40
0.804446350678218
 40
0.8288200357124133
 40
0.854071208068211
 40
0.8799516947849102
 40
0.9071420381933588
 40
0.9351408652042007
 40
0.9618453709237904
 40
0.989453221397756
 40
1.0
 40
1.0
 40
1.0
 40
1.0
 10
-128.1588877559938
 20
153.9228753747971
 30
0.0
 10
-128.1408719017755
 20
153.5273243274315
 30
0.0
 10
-128.1042903513401
 20
152.7241500558339
 30
0.0
 10
-127.8094598377549
 20
151.5610755334103
 30
0.0
 10
-127.3472538755221
 20
150.457010364553
 30
0.0
 10
-126.714797212564
 20
149.4413568260377
 30
0.0
 10
-125.9139867478742
 20
148.5219400592419
 30
0.0
 10
-124.9519965930465
 20
147.7271590721789
 30
0.0
 10
-123.8357212534483
 20
147.0841647860805
 30
0.0
 10
-122.6251511860827
 20
146.6442454104489
 30
0.0
 10
-121.3561336716974
 20
146.4170109602164
 30
0.0
 10
-120.1308513905794
 20
146.405877095625
 30
0.0
 10
-118.9467413322203
 20
146.5878363667309
 30
0.0
 10
-117.847657601268
 20
146.9348421566712
 30
0.0
 10
-116.8069582468851
 20
147.4500516126549
 30
0.0
 10
-115.8371200253068
 20
148.1334388607544
 30
0.0
 10
-114.9578112978433
 20
148.9929075748001
 30
0.0
 10
-114.2114854424047
 20
150.0177528290924
 30
0.0
 10
-113.6349606772192
 20
151.1837882812079
 30
0.0
 10
-113.2746005970658
 20
152.4144223599303
 30
0.0
 10
-113.1288476350438
 20
153.6786053317769
 30
0.0
 10
-113.1891936721775
 20
154.8878700907888
 30
0.0
 10
-113.4383618896949
 20
156.0563372589482
 30
0.0
 10
-113.8542440028133
 20
157.1455993272431
 30
0.0
 10
-114.4407530248695
 20
158.168501676506
 30
0.0
 10
-115.1951918441232
 20
159.1059399019015
 30
0.0
 10
-116.1199217236736
 20
159.9352379792509
 30
0.0
 10
-117.1961912121831
 20
160.6140030206825
 30
0.0
 10
-118.4007971047922
 20
161.1119160839597
 30
0.0
 10
-119.6468479075698
 20
161.3874494147366
 30
0.0
 10
-120.9040964377733
 20
161.4487690476278
 30
0.0
 10
-122.0854234635056
 20
161.3146008525746
 30
0.0
 10
-123.2134772998277
 20
161.0020723829917
 30
0.0
 10
-124.2654087618087
 20
160.5302110423226
 30
0.0
 10
-125.2531356708603
 20
159.8880175373872
 30
0.0
 10
-126.1568775080685
 20
159.071000255091
 30
0.0
 10
-126.9429227939632
 20
158.0813650834058
 30
0.0
 10
-127.5593370088417
 20
156.9525052460835
 30
0.0
 10
-127.976630185013
 20
155.7191136155416
 30
0.0
 10
-128.1426654014629
 20
154.6965745478203
 30
0.0
 10
-128.1553746423119
 20
154.0904276955943
 30
0.0
 10
-128.1588877559938
 20
153.9228753747971
 30
0.0
  0
LINE
  5
151
330
1F
100
AcDbEntity
  8
0
  6
Continuous
 62
     7
370
    15
100
AcDbLine
 10
-145.1522177619
 20
171.4293523279
 30
0.0
 11
-145.1655552814
 21
136.4293548692
 31
0.0
  0
SPLINE
  5
152
330
1F
100
AcDbEntity
  8
0
  6
Continuous
 62
     7
370
    15
100
AcDbSpline
210
0.0
220
0.0
230
1.0
 70
     8
 71
     3
 72
    40
 73
    36
 74
     0
 42
0.000000001
 43
0.00000001
 40
0.0
 40
0.0
 40
0.0
 40
0.0
 40
0.0236332154018995
 40
0.0717810319130208
 40
0.0963480208146438
 40
0.1199781413020506
 40
0.1679612238353209
 40
0.1923430659550457
 40
0.217720498691355
 40
0.269187698092927
 40
0.2953176556331506
 40
0.3233111762111984
 40
0.3515071225796491
 40
0.3803900279375924
 40
0.4095399203515009
 40
0.4313649742575815
 40
0.4757204814043301
 40
0.4983214363534854
 40
0.5201497805300546
 40
0.5645732586029515
 40
0.5872072426284705
 40
0.6090599186096922
 40
0.6533414359529087
 40
0.6757872669556051
 40
0.7011375389825313
 40
0.7525372172066566
 40
0.7786296259195921
 40
0.8067169447323831
 40
0.8350129042277521
 40
0.8640110065470925
 40
0.8932750219983191
 40
0.9193328678343974
 40
0.9725702132872346
 40
0.9998602026584416
 40
1.0
 40
1.0
 40
1.0
 40
1.0
 10
-105.6655581494096
 20
136.4143025257728
 30
0.0
 10
-105.659745447879
 20
136.4176205896049
 30
0.0
 10
-105.6420905622877
 20
136.4276985261773
 30
0.0
 10
-105.4768571862213
 20
136.5218533977192
 30
0.0
 10
-105.2053782310831
 20
136.6732580962728
 30
0.0
 10
-104.8609155019155
 20
136.8621055040453
 30
0.0
 10
-104.4147218437044
 20
137.0996507042708
 30
0.0
 10
-103.8674304533145
 20
137.3764476935891
 30
0.0
 10
-103.2379275728114
 20
137.6821795268522
 30
0.0
 10
-102.5035620287788
 20
138.0138660007157
 30
0.0
 10
-101.6662522988392
 20
138.3518627293211
 30
0.0
 10
-100.9692422595055
 20
138.6079594073753
 30
0.0
 10
-100.204715507129
 20
138.8565443994777
 30
0.0
 10
-99.38773554772162
 20
139.0832492931287
 30
0.0
 10
-98.59555716245663
 20
139.2607346706286
 30
0.0
 10
-97.61970459086523
 20
139.4296390552162
 30
0.0
 10
-96.67838411941251
 20
139.5276036150829
 30
0.0
 10
-95.72689964655495
 20
139.5548889821453
 30
0.0
 10
-94.77418452929248
 20
139.5348741301153
 30
0.0
 10
-93.82918127363926
 20
139.4443570680821
 30
0.0
 10
-92.91532559767667
 20
139.2923018392578
 30
0.0
 10
-92.02722003677542
 20
139.1049670712903
 30
0.0
 10
-91.1821986899126
 20
138.8726819935886
 30
0.0
 10
-90.358627417037
 20
138.6019662364946
 30
0.0
 10
-89.5150377644803
 20
138.294147119128
 30
0.0
 10
-88.71653378825454
 20
137.9597197712882
 30
0.0
 10
-87.9878021629472
 20
137.6251845597026
 30
0.0
 10
-87.47025574791267
 20
137.37425412076
 30
0.0
 10
-86.99442164769437
 20
137.1326511266168
 30
0.0
 10
-86.57793104633045
 20
136.9130113183252
 30
0.0
 10
-86.24293647753105
 20
136.730947826285
 30
0.0
 10
-85.90088564475859
 20
136.5409392979642
 30
0.0
 10
-85.71399534183128
 20
136.4343775694338
 30
0.0
 10
-85.65489176356628
 20
136.4005853171439
 30
0.0
 10
-85.66566966916722
 20
136.4067439807685
 30
0.0
 10
-85.66572459932641
 20
136.4067753687195
 30
0.0
  0
SPLINE
  5
153
330
1F
100
AcDbEntity
  8
0
  6
Continuous
 62
     7
370
    15
100
AcDbSpline
210
0.0
220
0.0
230
1.0
 70
     8
 71
     3
 72
    40
 73
    36
 74
     0
 42
0.000000001
 43
0.00000001
 40
0.0
 40
0.0
 40
0.0
 40
0.0
 40
0.0236332154018995
 40
0.071781031913021
 40
0.096348020814644
 40
0.1199781413020509
 40
0.1679612238353213
 40
0.1923430659550461
 40
0.2177204986913552
 40
0.2691876980929273
 40
0.2953176556331509
 40
0.3233111762111986
 40
0.3515071225796494
 40
0.3803900279375927
 40
0.4095399203515012
 40
0.4313649742575817
 40
0.4757204814043304
 40
0.4983214363534856
 40
0.5201497805300553
 40
0.5645732586029523
 40
0.5872072426284715
 40
0.6090599186096924
 40
0.6533414359529086
 40
0.675787266955605
 40
0.7011375389825313
 40
0.7525372172066569
 40
0.7786296259195923
 40
0.806716944732383
 40
0.8350129042277522
 40
0.8640110065470927
 40
0.8932750219983192
 40
0.9193328678343976
 40
0.9725702132872346
 40
0.9998602026584416
 40
1.0
 40
1.0
 40
1.0
 40
1.0
 10
-85.65222208209228
 20
171.4066785447948
 30
0.0
 10
-85.65803478362295
 20
171.4033604809627
 30
0.0
 10
-85.67568966921422
 20
171.3932825443904
 30
0.0
 10
-85.84092304528073
 20
171.2991276728486
 30
0.0
 10
-86.112402000419
 20
171.1477229742948
 30
0.0
 10
-86.45686472958668
 20
170.9588755665224
 30
0.0
 10
-86.90305838779781
 20
170.7213303662968
 30
0.0
 10
-87.45034977818783
 20
170.4445333769785
 30
0.0
 10
-88.07985265869097
 20
170.1388015437154
 30
0.0
 10
-88.8142182027236
 20
169.807115069852
 30
0.0
 10
-89.65152793266324
 20
169.4691183412466
 30
0.0
 10
-90.34853797199696
 20
169.2130216631924
 30
0.0
 10
-91.11306472437356
 20
168.96443667109
 30
0.0
 10
-91.9300446837809
 20
168.7377317774389
 30
0.0
 10
-92.72222306904591
 20
168.5602463999391
 30
0.0
 10
-93.69807564063734
 20
168.3913420153515
 30
0.0
 10
-94.63939611209005
 20
168.2933774554848
 30
0.0
 10
-95.59088058494766
 20
168.2660920884223
 30
0.0
 10
-96.54359570221013
 20
168.2861069404524
 30
0.0
 10
-97.48859895786332
 20
168.3766240024856
 30
0.0
 10
-98.40245463382594
 20
168.5286792313098
 30
0.0
 10
-99.29056019472708
 20
168.7160139992774
 30
0.0
 10
-100.1355815415899
 20
168.948299076979
 30
0.0
 10
-100.9591528144655
 20
169.219014834073
 30
0.0
 10
-101.8027424670221
 20
169.5268339514397
 30
0.0
 10
-102.6012464432478
 20
169.8612612992795
 30
0.0
 10
-103.3299780685551
 20
170.195796510865
 30
0.0
 10
-103.8475244835896
 20
170.4467269498076
 30
0.0
 10
-104.3233585838078
 20
170.6883299439508
 30
0.0
 10
-104.7398491851717
 20
170.9079697522425
 30
0.0
 10
-105.0748437539711
 20
171.0900332442825
 30
0.0
 10
-105.4168945867435
 20
171.2800417726034
 30
0.0
 10
-105.6037848896703
 20
171.3866035011337
 30
0.0
 10
-105.662888467936
 20
171.4203957534238
 30
0.0
 10
-105.6521105623347
 20
171.4142370897991
 30
0.0
 10
-105.6520556321755
 20
171.414205701848
 30
0.0
  0
SPLINE
  5
154
330
1F
100
AcDbEntity
  8
0
  6
Continuous
 62
     7
370
    15
100
AcDbSpline
210
0.0
220
0.0
230
1.0
 70
    11
 71
     3
 72
    26
 73
    22
 74
     0
 42
0.000000001
 43
0.00000001
 40
0.0
 40
0.0
 40
0.0
 40
0.0
 40
0.0471213421299228
 40
0.1033601983636748
 40
0.1618100610806352
 40
0.2208586889982936
 40
0.2787430234712776
 40
0.3332351086278895
 40
0.3832065873199068
 40
0.4304596829501711
 40
0.4782666814003507
 40
0.5291876374572377
 40
0.5840704056781257
 40
0.6419280259249777
 40
0.7009603863154733
 40
0.7594652718010783
 40
0.8153411120038853
 40
0.8667804496065283
 40
0.9146007921943072
 40
0.9618694008580343
 40
1.0
 40
1.0
 40
1.0
 40
1.0
 10
-97.72200601101403
 20
155.9558440954644
 30
0.0
 10
-97.48927710451902
 20
156.1246965192926
 30
0.0
 10
-96.97878854767866
 20
156.4950726425562
 30
0.0
 10
-96.00222023168396
 20
156.7459548110268
 30
0.0
 10
-94.93130392554767
 20
156.6900239564173
 30
0.0
 10
-93.9257142560995
 20
156.2775595605576
 30
0.0
 10
-93.14007680920393
 20
155.5643777436287
 30
0.0
 10
-92.6845888200927
 20
154.6649067007417
 30
0.0
 10
-92.58821309678439
 20
153.7272302310971
 30
0.0
 10
-92.80561917517794
 20
152.8560501909747
 30
0.0
 10
-93.2912476938709
 20
152.098055110038
 30
0.0
 10
-94.0228809628493
 20
151.4980045848102
 30
0.0
 10
-94.9637049943714
 20
151.1293659075358
 30
0.0
 10
-96.02567661083486
 20
151.0720112871124
 30
0.0
 10
-97.07089509164837
 20
151.3669862765055
 30
0.0
 10
-97.94582352541829
 20
151.9886990856368
 30
0.0
 10
-98.52041158508526
 20
152.8415399469627
 30
0.0
 10
-98.73563233089102
 20
153.7823944191157
 30
0.0
 10
-98.61523583477414
 20
154.6803998530673
 30
0.0
 10
-98.25603928148327
 20
155.4259651663701
 30
0.0
 10
-97.88684888802652
 20
155.7922835634703
 30
0.0
 10
-97.72200601346505
 20
155.9558440966071
 30
0.0
  0
CIRCLE
  5
155
330
1F
100
AcDbEntity
  8
0
  6
Continuous
 62
     7
370
    15
100
AcDbCircle
 10
-95.6588901158
 20
153.9104905353
 30
0.0
 40
2.500000000000006
  0
LINE
  5
156
330
1F
100
AcDbEntity
  8
0
  6
Continuous
 62
     7
370
    15
100
AcDbLine
 10
-145.6653647091
 20
136.9295453689
 30
0.0
 11
-145.6524082616
 21
170.9295429002
 31
0.0
  0
LINE
  5
157
330
1F
100
AcDbEntity
  8
0
  6
Continuous
 62
     7
370
    15
100
AcDbLine
 10
-5.6571818265
 20
158.3761937296
 30
0.0
 11
-5.6606114744
 21
149.3761943834
 31
0.0
  0
LINE
  5
158
330
1F
100
AcDbEntity
  8
0
  6
Continuous
 62
     7
370
    15
100
AcDbLine
 10
-94.4815960016
 20
151.9237062233
 30
0.0
 11
-93.3496373727
 21
153.9366649899
 31
0.0
  0
LINE
  5
159
330
1F
100
AcDbEntity
  8
0
  6
Continuous
 62
     7
370
    15
100
AcDbLine
 10
-94.5269314868
 20
155.9234493018
 30
0.0
 11
-93.3496373727
 21
153.9366649899
 31
0.0
  0
LINE
  5
15A
330
1F
100
AcDbEntity
  8
0
  6
Continuous
 62
     7
370
    15
100
AcDbLine
 10
-96.8361842299
 20
155.8972748472
 30
0.0
 11
-94.5269314868
 21
155.9234493018
 31
0.0
  0
LINE
  5
15B
330
1F
100
AcDbEntity
  8
0
  6
Continuous
 62
     7
370
    15
100
AcDbLine
 10
-96.8361842299
 20
155.8972748472
 30
0.0
 11
-97.9681428588
 21
153.8843160807
 31
0.0
  0
LINE
  5
15C
330
1F
100
AcDbEntity
  8
0
  6
Continuous
 62
     7
370
    15
100
AcDbLine
 10
-96.7908487447
 20
151.8975317688
 30
0.0
 11
-97.9681428588
 21
153.8843160807
 31
0.0
  0
LINE
  5
15D
330
1F
100
AcDbEntity
  8
0
  6
Continuous
 62
     7
370
    15
100
AcDbLine
 10
-96.7908487447
 20
151.8975317688
 30
0.0
 11
-94.4815960016
 21
151.9237062233
 31
0.0
  0
LINE
  5
15E
330
1F
100
AcDbEntity
  8
0
  6
Continuous
 62
     7
370
    15
100
AcDbLine
 10
-105.6787051329
 20
101.9143050307
 30
0.0
 11
-85.6787065851
 21
101.906683591
 31
0.0
  0
LINE
  5
15F
330
1F
100
AcDbEntity
  8
0
  6
Continuous
 62
     7
370
    15
100
AcDbLine
 10
-113.6817531279
 20
93.9173541875
 30
0.0
 11
-77.6817557418
 21
93.903635596
 31
0.0
  0
LINE
  5
160
330
1F
100
AcDbEntity
  8
0
  6
Continuous
 62
     7
370
    15
100
AcDbLine
 10
-113.6836584878
 20
88.9173545505
 30
0.0
 11
-77.6836611017
 21
88.9036359591
 31
0.0
  0
SPLINE
  5
161
330
1F
100
AcDbEntity
  8
0
  6
Continuous
 62
     7
370
    15
100
AcDbSpline
210
0.0
220
0.0
230
1.0
 70
    11
 71
     3
 72
    26
 73
    22
 74
     0
 42
0.000000001
 43
0.00000001
 40
0.0
 40
0.0
 40
0.0
 40
0.0
 40
0.0535349050213506
 40
0.1070643508680937
 40
0.1607353715194062
 40
0.2144994531573068
 40
0.2681101719941482
 40
0.321561377446427
 40
0.3750937214647129
 40
0.4288222127684162
 40
0.48255727642888
 40
0.5360968494153946
 40
0.5895445725940212
 40
0.6431467159463692
 40
0.6969089759678448
 40
0.750587699818936
 40
0.804070523915065
 40
0.857549605681887
 40
0.9112220990586134
 40
0.9649859940786331
 40
1.0
 40
1.0
 40
1.0
 40
1.0
 10
-111.8018203187513
 20
91.41663761619101
 30
0.0
 10
-111.7938135887059
 20
91.23152999546456
 30
0.0
 10
-111.7778009450942
 20
90.86133363019762
 30
0.0
 10
-111.6496206280153
 20
90.36830117094019
 30
0.0
 10
-111.4530721224032
 20
89.99241216787857
 30
0.0
 10
-111.194986666695
 20
89.77656151558664
 30
0.0
 10
-110.9016942248997
 20
89.74570336336276
 30
0.0
 10
-110.6052975867889
 20
89.90233989170542
 30
0.0
 10
-110.342508468606
 20
90.22852772660461
 30
0.0
 10
-110.149434584041
 20
90.68888563358188
 30
0.0
 10
-110.0555437447194
 20
91.23173844981798
 30
0.0
 10
-110.075498055691
 20
91.7945323846153
 30
0.0
 10
-110.2054877044537
 20
92.3140365196401
 30
0.0
 10
-110.4258056449613
 20
92.73335554879166
 30
0.0
 10
-110.7049483415078
 20
93.00520597415523
 30
0.0
 10
-111.0048399062594
 20
93.0978351368211
 30
0.0
 10
-111.2885950726025
 20
93.00133920823811
 30
0.0
 10
-111.5277289940196
 20
92.7273682196721
 30
0.0
 10
-111.7006064761847
 20
92.30603362764812
 30
0.0
 10
-111.7892273730224
 20
91.84330544165061
 30
0.0
 10
-111.7982584584691
 20
91.53731876688742
 30
0.0
 10
-111.8018203187513
 20
91.41663761619101
 30
0.0
  0
SPLINE
  5
162
330
1F
100
AcDbEntity
  8
0
  6
Continuous
 62
     7
370
    15
100
AcDbSpline
210
0.0
220
0.0
230
1.0
 70
    11
 71
     3
 72
    26
 73
    22
 74
     0
 42
0.000000001
 43
0.00000001
 40
0.0
 40
0.0
 40
0.0
 40
0.0
 40
0.0535349050213493
 40
0.1070643508680936
 40
0.1607353715194056
 40
0.2144994531573049
 40
0.2681101719941466
 40
0.3215613774464257
 40
0.375093721464712
 40
0.4288222127684149
 40
0.4825572764288785
 40
0.5360968494153945
 40
0.5895445725940186
 40
0.6431467159463674
 40
0.6969089759678421
 40
0.7505876998189329
 40
0.8040705239150634
 40
0.8575496056818867
 40
0.9112220990586116
 40
0.9649859940786324
 40
1.0
 40
1.0
 40
1.0
 40
1.0
 10
-80.68552794805116
 20
91.4047800680297
 30
0.0
 10
-80.67546860276427
 20
91.21967166510902
 30
0.0
 10
-80.65535093798334
 20
90.84947373553341
 30
0.0
 10
-80.50023429741182
 20
90.35643101159698
 30
0.0
 10
-80.27895249334892
 20
89.98053258336753
 30
0.0
 10
-80.01433486091695
 20
89.76467944184589
 30
0.0
 10
-79.74469101408891
 20
89.7338303014397
 30
0.0
 10
-79.5007708233196
 20
89.89048682708773
 30
0.0
 10
-79.30544450832994
 20
90.21670037017314
 30
0.0
 10
-79.17316004915607
 20
90.6770814422991
 30
0.0
 10
-79.1119851812453
 20
91.21994672567627
 30
0.0
 10
-79.12472686205129
 20
91.78273791194208
 30
0.0
 10
-79.2104292342235
 20
92.30222517032526
 30
0.0
 10
-79.3650995266443
 20
92.72151918299542
 30
0.0
 10
-79.57955422055716
 20
92.99334495757164
 30
0.0
 10
-79.83596481560181
 20
93.08595755085689
 30
0.0
 10
-80.10717505134446
 20
92.98945684175197
 30
0.0
 10
-80.36097343323354
 20
92.71549144140137
 30
0.0
 10
-80.56099890573773
 20
92.29416719471672
 30
0.0
 10
-80.66987832738506
 20
91.83144672867604
 30
0.0
 10
-80.68110152047154
 20
91.52546088926371
 30
0.0
 10
-80.68552794805116
 20
91.4047800680297
 30
0.0
  0
LINE
  5
163
330
1F
100
AcDbEntity
  8
0
  6
Continuous
 62
     7
370
    15
100
AcDbLine
 10
-85.6501261862
 20
176.9066781455
 30
0.0
 11
-105.650124734
 21
176.9142995852
 31
0.0
  0
LINE
  5
164
330
1F
100
AcDbEntity
  8
0
  6
Continuous
 62
     7
370
    15
100
AcDbLine
 10
-103.6493627353
 20
178.913537296
 30
0.0
 11
-87.649363897
 21
178.9074401442
 31
0.0
  0
LINE
  5
165
330
1F
100
AcDbEntity
  8
0
  6
Continuous
 62
     7
370
    15
100
AcDbLine
 10
-113.6855638478
 20
83.9173549136
 30
0.0
 11
-77.6855664616
 21
83.9036363221
 31
0.0
  0
LINE
  5
166
330
1F
100
AcDbEntity
  8
0
  6
Continuous
 62
     8
370
    15
100
AcDbLine
 10
-8.6617544725
 20
146.3773378171
 30
0.0
 11
-8.6560383928
 21
161.377336728
 31
0.0
  0
ARC
  5
167
330
1F
100
AcDbEntity
  8
0
  6
Continuous
 62
     7
370
    15
100
AcDbCircle
 10
79.6169118412
 20
286.9419570656
 30
0.0
 40
0.8000000000000114
100
AcDbArc
 50
0.0
 51
90.0
  0
ARC
  5
168
330
1F
100
AcDbEntity
  8
0
  6
Continuous
 62
     7
370
    15
100
AcDbCircle
 10
79.6169118412
 20
275.5419570656
 30
0.0
 40
0.8000000000000114
100
AcDbArc
 50
270.0
 51
0.0
  0
LINE
  5
169
330
1F
100
AcDbEntity
  8
0
  6
Continuous
 62
     7
370
    15
100
AcDbLine
 10
79.6169118412
 20
287.7419570656
 30
0.0
 11
79.0136333067
 21
287.7419570656
 31
0.0
  0
LINE
  5
16A
330
1F
100
AcDbEntity
  8
0
  6
Continuous
 62
     7
370
    15
100
AcDbLine
 10
79.0137519031
 20
274.7419570656
 30
0.0
 11
79.6169118412
 21
274.7419570656
 31
0.0
  0
LINE
  5
16B
330
1F
100
AcDbEntity
  8
0
  6
Continuous
 62
     7
370
    15
100
AcDbLine
 10
79.6169118412
 20
337.7419534352
 30
0.0
 11
79.0136333067
 21
337.7419534352
 31
0.0
  0
LINE
  5
16C
330
1F
100
AcDbEntity
  8
0
  6
Continuous
 62
     7
370
    15
100
AcDbLine
 10
79.0137519031
 20
324.7419534352
 30
0.0
 11
79.6169118412
 21
324.7419534352
 31
0.0
  0
ARC
  5
16D
330
1F
100
AcDbEntity
  8
0
  6
Continuous
 62
     7
370
    15
100
AcDbCircle
 10
79.6169118412
 20
336.9419534352
 30
0.0
 40
0.8000000000000114
100
AcDbArc
 50
0.0
 51
90.0
  0
ARC
  5
16E
330
1F
100
AcDbEntity
  8
0
  6
Continuous
 62
     7
370
    15
100
AcDbCircle
 10
79.6169118412
 20
325.5419534352
 30
0.0
 40
0.8000000000000114
100
AcDbArc
 50
270.0
 51
0.0
  0
LINE
  5
16F
330
1F
100
AcDbEntity
  8
0
  6
Continuous
 62
     7
370
    15
100
AcDbLine
 10
41.4169118412
 20
263.7419570656
 30
0.0
 11
43.4169118412
 21
263.7419570656
 31
0.0
  0
LINE
  5
170
330
1F
100
AcDbEntity
  8
0
  6
Continuous
 62
     7
370
    15
100
AcDbLine
 10
43.4169118412
 20
298.7419570656
 30
0.0
 11
41.4169118412
 21
298.7419570656
 31
0.0
  0
LINE
  5
171
330
1F
100
AcDbEntity
  8
0
  6
Continuous
 62
     7
370
    15
100
AcDbLine
 10
43.4169118412
 20
272.7419570656
 30
0.0
 11
44.4169118412
 21
273.7419570656
 31
0.0
  0
LINE
  5
172
330
1F
100
AcDbEntity
  8
0
  6
Continuous
 62
     7
370
    15
100
AcDbLine
 10
44.4169118412
 20
288.7419570656
 30
0.0
 11
43.4169118412
 21
289.7419570656
 31
0.0
  0
LINE
  5
173
330
1F
100
AcDbEntity
  8
0
  6
Continuous
 62
     7
370
    15
100
AcDbLine
 10
41.4169118412
 20
313.7419534352
 30
0.0
 11
43.4169118412
 21
313.7419534352
 31
0.0
  0
LINE
  5
174
330
1F
100
AcDbEntity
  8
0
  6
Continuous
 62
     7
370
    15
100
AcDbLine
 10
43.4169118412
 20
348.7419534352
 30
0.0
 11
41.4169118412
 21
348.7419534352
 31
0.0
  0
LINE
  5
175
330
1F
100
AcDbEntity
  8
0
  6
Continuous
 62
     7
370
    15
100
AcDbLine
 10
43.4169118412
 20
322.7419534352
 30
0.0
 11
44.4169118412
 21
323.7419534352
 31
0.0
  0
LINE
  5
176
330
1F
100
AcDbEntity
  8
0
  6
Continuous
 62
     7
370
    15
100
AcDbLine
 10
44.4169118412
 20
338.7419534352
 30
0.0
 11
43.4169118412
 21
339.7419534352
 31
0.0
  0
LINE
  5
177
330
1F
100
AcDbEntity
  8
0
  6
Continuous
 62
     7
370
    15
100
AcDbLine
 10
41.4169118412
 20
348.7419534352
 30
0.0
 11
40.4169118412
 21
348.7419534352
 31
0.0
  0
LINE
  5
178
330
1F
100
AcDbEntity
  8
0
  6
Continuous
 62
     7
370
    15
100
AcDbLine
 10
40.4169118412
 20
313.7419534352
 30
0.0
 11
41.4169118412
 21
313.7419534352
 31
0.0
  0
LINE
  5
179
330
1F
100
AcDbEntity
  8
0
  6
Continuous
 62
     7
370
    15
100
AcDbLine
 10
40.4169118412
 20
341.2419534352
 30
0.0
 11
36.4169118412
 21
341.2419534352
 31
0.0
  0
LINE
  5
17A
330
1F
100
AcDbEntity
  8
0
  6
Continuous
 62
     7
370
    15
100
AcDbLine
 10
36.4169118412
 20
321.2419534352
 30
0.0
 11
40.4169118412
 21
321.2419534352
 31
0.0
  0
LINE
  5
17B
330
1F
100
AcDbEntity
  8
0
  6
Continuous
 62
     7
370
    15
100
AcDbLine
 10
41.4169118412
 20
298.7419570656
 30
0.0
 11
40.4169118412
 21
298.7419570656
 31
0.0
  0
LINE
  5
17C
330
1F
100
AcDbEntity
  8
0
  6
Continuous
 62
     7
370
    15
100
AcDbLine
 10
40.4169118412
 20
263.7419570656
 30
0.0
 11
41.4169118412
 21
263.7419570656
 31
0.0
  0
LINE
  5
17D
330
1F
100
AcDbEntity
  8
0
  6
Continuous
 62
     7
370
    15
100
AcDbLine
 10
40.4169118412
 20
291.2419570656
 30
0.0
 11
36.4169118412
 21
291.2419570656
 31
0.0
  0
LINE
  5
17E
330
1F
100
AcDbEntity
  8
0
  6
Continuous
 62
     7
370
    15
100
AcDbLine
 10
36.4169118412
 20
271.2419570656
 30
0.0
 11
40.4169118412
 21
271.2419570656
 31
0.0
  0
LINE
  5
17F
330
1F
100
AcDbEntity
  8
0
  6
Continuous
 62
     7
370
    15
100
AcDbLine
 10
29.4169118412
 20
313.7419534352
 30
0.0
 11
30.4169118412
 21
313.7419534352
 31
0.0
  0
LINE
  5
180
330
1F
100
AcDbEntity
  8
0
  6
Continuous
 62
     7
370
    15
100
AcDbLine
 10
30.4169118412
 20
348.7419534352
 30
0.0
 11
29.4169118412
 21
348.7419534352
 31
0.0
  0
LINE
  5
181
330
1F
100
AcDbEntity
  8
0
  6
Continuous
 62
     7
370
    15
100
AcDbLine
 10
30.4169118412
 20
321.2419534352
 30
0.0
 11
34.4169118412
 21
321.2419534352
 31
0.0
  0
LINE
  5
182
330
1F
100
AcDbEntity
  8
0
  6
Continuous
 62
     7
370
    15
100
AcDbLine
 10
34.4169118412
 20
341.2419534352
 30
0.0
 11
30.4169118412
 21
341.2419534352
 31
0.0
  0
LINE
  5
183
330
1F
100
AcDbEntity
  8
0
  6
Continuous
 62
     7
370
    15
100
AcDbLine
 10
29.4169118412
 20
263.7419570656
 30
0.0
 11
30.4169118412
 21
263.7419570656
 31
0.0
  0
LINE
  5
184
330
1F
100
AcDbEntity
  8
0
  6
Continuous
 62
     7
370
    15
100
AcDbLine
 10
30.4169118412
 20
298.7419570656
 30
0.0
 11
29.4169118412
 21
298.7419570656
 31
0.0
  0
LINE
  5
185
330
1F
100
AcDbEntity
  8
0
  6
Continuous
 62
     7
370
    15
100
AcDbLine
 10
30.4169118412
 20
271.2419570656
 30
0.0
 11
34.4169118412
 21
271.2419570656
 31
0.0
  0
LINE
  5
186
330
1F
100
AcDbEntity
  8
0
  6
Continuous
 62
     7
370
    15
100
AcDbLine
 10
34.4169118412
 20
291.2419570656
 30
0.0
 11
30.4169118412
 21
291.2419570656
 31
0.0
  0
LINE
  5
187
330
1F
100
AcDbEntity
  8
0
  6
Continuous
 62
     7
370
    15
100
AcDbLine
 10
28.6169118412
 20
313.7419534352
 30
0.0
 11
29.4169118412
 21
313.7419534352
 31
0.0
  0
LINE
  5
188
330
1F
100
AcDbEntity
  8
0
  6
Continuous
 62
     7
370
    15
100
AcDbLine
 10
29.4169118412
 20
348.7419534352
 30
0.0
 11
28.6169118412
 21
348.7419534352
 31
0.0
  0
LINE
  5
189
330
1F
100
AcDbEntity
  8
0
  6
Continuous
 62
     7
370
    15
100
AcDbLine
 10
28.6169118412
 20
348.7419534352
 30
0.0
 11
26.6169118412
 21
346.7419534352
 31
0.0
  0
LINE
  5
18A
330
1F
100
AcDbEntity
  8
0
  6
Continuous
 62
     7
370
    15
100
AcDbLine
 10
26.6169118412
 20
315.7419534352
 30
0.0
 11
28.6169118412
 21
313.7419534352
 31
0.0
  0
LINE
  5
18B
330
1F
100
AcDbEntity
  8
0
  6
Continuous
 62
     7
370
    15
100
AcDbLine
 10
34.4169118412
 20
323.2419534352
 30
0.0
 11
36.4169118412
 21
323.2419534352
 31
0.0
  0
LINE
  5
18C
330
1F
100
AcDbEntity
  8
0
  6
Continuous
 62
     7
370
    15
100
AcDbLine
 10
36.4169118412
 20
339.2419534352
 30
0.0
 11
34.4169118412
 21
339.2419534352
 31
0.0
  0
LINE
  5
18D
330
1F
100
AcDbEntity
  8
0
  6
Continuous
 62
     7
370
    15
100
AcDbLine
 10
28.6169118412
 20
263.7419570656
 30
0.0
 11
29.4169118412
 21
263.7419570656
 31
0.0
  0
LINE
  5
18E
330
1F
100
AcDbEntity
  8
0
  6
Continuous
 62
     7
370
    15
100
AcDbLine
 10
29.4169118412
 20
298.7419570656
 30
0.0
 11
28.6169118412
 21
298.7419570656
 31
0.0
  0
LINE
  5
18F
330
1F
100
AcDbEntity
  8
0
  6
Continuous
 62
     7
370
    15
100
AcDbLine
 10
28.6169118412
 20
298.7419570656
 30
0.0
 11
26.6169118412
 21
296.7419570656
 31
0.0
  0
LINE
  5
190
330
1F
100
AcDbEntity
  8
0
  6
Continuous
 62
     7
370
    15
100
AcDbLine
 10
26.6169118412
 20
265.7419570656
 30
0.0
 11
28.6169118412
 21
263.7419570656
 31
0.0
  0
LINE
  5
191
330
1F
100
AcDbEntity
  8
0
  6
Continuous
 62
     7
370
    15
100
AcDbLine
 10
34.4169118412
 20
273.2419570656
 30
0.0
 11
36.4169118412
 21
273.2419570656
 31
0.0
  0
LINE
  5
192
330
1F
100
AcDbEntity
  8
0
  6
Continuous
 62
     7
370
    15
100
AcDbLine
 10
36.4169118412
 20
289.2419570656
 30
0.0
 11
34.4169118412
 21
289.2419570656
 31
0.0
  0
LINE
  5
193
330
1F
100
AcDbEntity
  8
0
  6
Continuous
 62
     7
370
    15
100
AcDbLine
 10
44.4169131119
 20
236.7419577553
 30
0.0
 11
44.9169130756
 21
236.2419578642
 31
0.0
  0
LINE
  5
194
330
1F
100
AcDbEntity
  8
0
  6
Continuous
 62
     7
370
    15
100
AcDbLine
 10
78.9169106069
 20
236.2419578642
 30
0.0
 11
79.4169105706
 21
236.7419577553
 31
0.0
  0
LINE
  5
195
330
1F
100
AcDbEntity
  8
0
  6
Continuous
 62
     7
370
    15
100
AcDbLine
 10
44.4169118412
 20
273.7419576101
 30
0.0
 11
44.4169118412
 21
236.7419602966
 31
0.0
  0
LINE
  5
196
330
1F
100
AcDbEntity
  8
0
  6
Continuous
 62
     7
370
    15
100
AcDbLine
 10
44.4169118412
 20
323.7419539797
 30
0.0
 11
44.4169118412
 21
310.48170487
 31
0.0
  0
LINE
  5
197
330
1F
100
AcDbEntity
  8
0
  6
Continuous
 62
     7
370
    15
100
AcDbLine
 10
44.4169118412
 20
302.0517449888
 30
0.0
 11
44.4169118412
 21
288.7419570656
 31
0.0
  0
LINE
  5
198
330
1F
100
AcDbEntity
  8
0
  6
Continuous
 62
     7
370
    15
100
AcDbLine
 10
44.4169118412
 20
355.7419516563
 30
0.0
 11
44.4169118412
 21
338.7419534352
 31
0.0
  0
LINE
  5
199
330
1F
100
AcDbEntity
  8
0
  6
Continuous
 62
     7
370
    15
100
AcDbLine
 10
79.4169118412
 20
338.7419528906
 30
0.0
 11
79.4169118412
 21
355.7419516563
 31
0.0
  0
LINE
  5
19A
330
1F
100
AcDbEntity
  8
0
  6
Continuous
 62
     7
370
    15
100
AcDbLine
 10
79.4169118412
 20
310.48170487
 30
0.0
 11
79.4169118412
 21
323.7586692313
 31
0.0
  0
LINE
  5
19B
330
1F
100
AcDbEntity
  8
0
  6
Continuous
 62
     7
370
    15
100
AcDbLine
 10
79.4169118412
 20
288.741956521
 30
0.0
 11
79.4169118412
 21
302.0517449888
 31
0.0
  0
LINE
  5
19C
330
1F
100
AcDbEntity
  8
0
  6
Continuous
 62
     7
370
    15
100
AcDbLine
 10
79.4169118412
 20
236.7419602966
 30
0.0
 11
79.4169118412
 21
273.7586728616
 31
0.0
  0
LINE
  5
19D
330
1F
100
AcDbEntity
  8
0
  6
Continuous
 62
     7
370
    15
100
AcDbLine
 10
79.4169105706
 20
355.7419541975
 30
0.0
 11
78.9169106069
 21
356.2419540886
 31
0.0
  0
LINE
  5
19E
330
1F
100
AcDbEntity
  8
0
  6
Continuous
 62
     7
370
    15
100
AcDbLine
 10
44.9169130755
 20
356.2419540886
 30
0.0
 11
44.4169131119
 21
355.7419541975
 31
0.0
  0
SPLINE
  5
19F
330
1F
100
AcDbEntity
  8
0
  6
Continuous
 62
     7
370
    15
100
AcDbSpline
210
0.0
220
0.0
230
1.0
 70
     8
 71
     3
 72
    19
 73
    15
 74
     0
 42
0.000000001
 43
0.00000001
 40
0.0
 40
0.0
 40
0.0
 40
0.0
 40
0.0069201431617163
 40
0.0333446873556248
 40
0.1252168794681963
 40
0.217492097637138
 40
0.3162565889151963
 40
0.4278740028855232
 40
0.5295074583154811
 40
0.6399521850204671
 40
0.7543150580180239
 40
0.8708123158022258
 40
0.9883368328577485
 40
1.0
 40
1.0
 40
1.0
 40
1.0
 10
66.49763005534109
 20
216.2430817712065
 30
0.0
 10
66.50634951526239
 20
216.2433202622389
 30
0.0
 10
66.54836420458174
 20
216.2444694305041
 30
0.0
 10
66.75014430441924
 20
216.2555522549444
 30
0.0
 10
67.06600351304365
 20
216.3029618614089
 30
0.0
 10
67.48910776342538
 20
216.4282047128837
 30
0.0
 10
67.91384489465716
 20
216.626875271032
 30
0.0
 10
68.31419939985315
 20
216.9004969497615
 30
0.0
 10
68.67673348913084
 20
217.2482782100545
 30
0.0
 10
68.97982425783574
 20
217.6543505246275
 30
0.0
 10
69.22128719340822
 20
218.1277317185225
 30
0.0
 10
69.3672193823662
 20
218.6462108231104
 30
0.0
 10
69.43109754340942
 20
219.0269405023948
 30
0.0
 10
69.41374383878032
 20
219.2259578556555
 30
0.0
 10
69.41217713248876
 20
219.2439253010022
 30
0.0
  0
SPLINE
  5
1A0
330
1F
100
AcDbEntity
  8
0
  6
Continuous
 62
     7
370
    15
100
AcDbSpline
210
0.0
220
0.0
230
1.0
 70
     8
 71
     3
 72
    21
 73
    17
 74
     0
 42
0.000000001
 43
0.00000001
 40
0.0
 40
0.0
 40
0.0
 40
0.0
 40
0.0781387816161814
 40
0.1970225694765572
 40
0.3082561135106117
 40
0.4128846201582855
 40
0.5112925692764007
 40
0.6034578465132665
 40
0.689030769258047
 40
0.767339883770953
 40
0.8373614981724095
 40
0.8976842063076018
 40
0.9465089263314375
 40
0.9813691770347479
 40
0.9976572121476375
 40
1.0
 40
1.0
 40
1.0
 40
1.0
 10
54.43080968995353
 20
219.2409316026171
 30
0.0
 10
54.42956964571218
 20
219.1200021057039
 30
0.0
 10
54.42644294348259
 20
218.8150851398317
 30
0.0
 10
54.53941630694548
 20
218.3474256382093
 30
0.0
 10
54.7341053343541
 20
217.8672092392232
 30
0.0
 10
54.99291064205055
 20
217.4537691239848
 30
0.0
 10
55.29262273058275
 20
217.1082170705024
 30
0.0
 10
55.61744809209694
 20
216.8297659423471
 30
0.0
 10
55.95095282320688
 20
216.6153332769788
 30
0.0
 10
56.27768642667998
 20
216.4595574993612
 30
0.0
 10
56.5832247402988
 20
216.354874338377
 30
0.0
 10
56.85238861976191
 20
216.2918597682327
 30
0.0
 10
57.07414510283394
 20
216.2595594844187
 30
0.0
 10
57.224373536929
 20
216.2473024704223
 30
0.0
 10
57.3103344999368
 20
216.243705906479
 30
0.0
 10
57.33144012733666
 20
216.2431866674969
 30
0.0
 10
57.33409411678097
 20
216.2431213742578
 30
0.0
  0
LINE
  5
1A1
330
1F
100
AcDbEntity
  8
0
  6
Continuous
 62
     7
370
    15
100
AcDbLine
 10
54.4169118412
 20
236.2419603329
 30
0.0
 11
54.4169118412
 21
219.2419615673
 31
0.0
  0
LINE
  5
1A2
330
1F
100
AcDbEntity
  8
0
  6
Continuous
 62
     7
370
    15
100
AcDbLine
 10
69.4169118412
 20
219.2419615673
 30
0.0
 11
69.4169118412
 21
236.2419603329
 31
0.0
  0
LINE
  5
1A3
330
1F
100
AcDbEntity
  8
0
  6
Continuous
 62
     7
370
    15
100
AcDbLine
 10
44.0486539869
 20
308.4424197375
 30
0.0
 11
44.0471440593
 21
308.4424641805
 31
0.0
  0
LINE
  5
1A4
330
1F
100
AcDbEntity
  8
0
  6
Continuous
 62
     7
370
    15
100
AcDbLine
 10
79.9169118412
 20
306.2667249294
 30
0.0
 11
79.9169118412
 21
306.2686302893
 31
0.0
  0
LINE
  5
1A5
330
1F
100
AcDbEntity
  8
0
  6
Continuous
 62
     7
370
    15
100
AcDbLine
 10
43.9169118412
 20
306.2686302893
 30
0.0
 11
43.9169118412
 21
306.2667249294
 31
0.0
  0
LINE
  5
1A6
330
1F
100
AcDbEntity
  8
0
  6
Continuous
 62
     7
370
    15
100
AcDbLine
 10
80.4169118412
 20
280.6176328603
 30
0.0
 11
80.4169118412
 21
275.5419570656
 31
0.0
  0
LINE
  5
1A7
330
1F
100
AcDbEntity
  8
0
  6
Continuous
 62
     7
370
    15
100
AcDbLine
 10
80.4169118412
 20
286.9419570656
 30
0.0
 11
80.4169118412
 21
280.6176328603
 31
0.0
  0
LINE
  5
1A8
330
1F
100
AcDbEntity
  8
0
  6
Continuous
 62
     7
370
    15
100
AcDbLine
 10
80.4169118412
 20
330.6176292299
 30
0.0
 11
80.4169118412
 21
325.5419534352
 31
0.0
  0
LINE
  5
1A9
330
1F
100
AcDbEntity
  8
0
  6
Continuous
 62
     7
370
    15
100
AcDbLine
 10
80.4169118412
 20
336.9419534352
 30
0.0
 11
80.4169118412
 21
330.6176292299
 31
0.0
  0
LINE
  5
1AA
330
1F
100
AcDbEntity
  8
0
  6
Continuous
 62
     7
370
    15
100
AcDbLine
 10
43.4169118412
 20
263.7419570656
 30
0.0
 11
43.4169118412
 21
298.7419570656
 31
0.0
  0
LINE
  5
1AB
330
1F
100
AcDbEntity
  8
0
  6
Continuous
 62
     7
370
    15
100
AcDbLine
 10
41.4169118412
 20
263.7419570656
 30
0.0
 11
41.4169118412
 21
298.7419570656
 31
0.0
  0
LINE
  5
1AC
330
1F
100
AcDbEntity
  8
0
  6
Continuous
 62
     7
370
    15
100
AcDbLine
 10
44.4169118412
 20
288.7419570656
 30
0.0
 11
44.4169118412
 21
273.7419570656
 31
0.0
  0
LINE
  5
1AD
330
1F
100
AcDbEntity
  8
0
  6
Continuous
 62
     7
370
    15
100
AcDbLine
 10
43.4169118412
 20
313.7419534352
 30
0.0
 11
43.4169118412
 21
348.7419534352
 31
0.0
  0
LINE
  5
1AE
330
1F
100
AcDbEntity
  8
0
  6
Continuous
 62
     7
370
    15
100
AcDbLine
 10
41.4169118412
 20
313.7419534352
 30
0.0
 11
41.4169118412
 21
348.7419534352
 31
0.0
  0
LINE
  5
1AF
330
1F
100
AcDbEntity
  8
0
  6
Continuous
 62
     7
370
    15
100
AcDbLine
 10
44.4169118412
 20
338.7419534352
 30
0.0
 11
44.4169118412
 21
323.7419534352
 31
0.0
  0
LINE
  5
1B0
330
1F
100
AcDbEntity
  8
0
  6
Continuous
 62
     7
370
    15
100
AcDbLine
 10
41.4169118412
 20
348.6032213214
 30
0.0
 11
41.4169118412
 21
313.7419534352
 31
0.0
  0
LINE
  5
1B1
330
1F
100
AcDbEntity
  8
0
  6
Continuous
 62
     7
370
    15
100
AcDbLine
 10
41.4169118412
 20
348.7419534352
 30
0.0
 11
41.4169118412
 21
348.6032213214
 31
0.0
  0
LINE
  5
1B2
330
1F
100
AcDbEntity
  8
0
  6
Continuous
 62
     7
370
    15
100
AcDbLine
 10
40.4169118412
 20
348.6032213214
 30
0.0
 11
40.4169118412
 21
313.7419534352
 31
0.0
  0
LINE
  5
1B3
330
1F
100
AcDbEntity
  8
0
  6
Continuous
 62
     7
370
    15
100
AcDbLine
 10
40.4169118412
 20
348.7419534352
 30
0.0
 11
40.4169118412
 21
348.6032213214
 31
0.0
  0
LINE
  5
1B4
330
1F
100
AcDbEntity
  8
0
  6
Continuous
 62
     7
370
    15
100
AcDbLine
 10
36.4169118412
 20
341.1626779416
 30
0.0
 11
36.4169118412
 21
321.2419534352
 31
0.0
  0
LINE
  5
1B5
330
1F
100
AcDbEntity
  8
0
  6
Continuous
 62
     7
370
    15
100
AcDbLine
 10
36.4169118412
 20
341.2419534352
 30
0.0
 11
36.4169118412
 21
341.1626779416
 31
0.0
  0
LINE
  5
1B6
330
1F
100
AcDbEntity
  8
0
  6
Continuous
 62
     7
370
    15
100
AcDbLine
 10
41.4169118412
 20
298.6032249518
 30
0.0
 11
41.4169118412
 21
263.7419570656
 31
0.0
  0
LINE
  5
1B7
330
1F
100
AcDbEntity
  8
0
  6
Continuous
 62
     7
370
    15
100
AcDbLine
 10
41.4169118412
 20
298.7419570656
 30
0.0
 11
41.4169118412
 21
298.6032249518
 31
0.0
  0
LINE
  5
1B8
330
1F
100
AcDbEntity
  8
0
  6
Continuous
 62
     7
370
    15
100
AcDbLine
 10
40.4169118412
 20
298.6032249518
 30
0.0
 11
40.4169118412
 21
263.7419570656
 31
0.0
  0
LINE
  5
1B9
330
1F
100
AcDbEntity
  8
0
  6
Continuous
 62
     7
370
    15
100
AcDbLine
 10
40.4169118412
 20
298.7419570656
 30
0.0
 11
40.4169118412
 21
298.6032249518
 31
0.0
  0
LINE
  5
1BA
330
1F
100
AcDbEntity
  8
0
  6
Continuous
 62
     7
370
    15
100
AcDbLine
 10
36.4169118412
 20
291.162681572
 30
0.0
 11
36.4169118412
 21
271.2419570656
 31
0.0
  0
LINE
  5
1BB
330
1F
100
AcDbEntity
  8
0
  6
Continuous
 62
     7
370
    15
100
AcDbLine
 10
36.4169118412
 20
291.2419570656
 30
0.0
 11
36.4169118412
 21
291.162681572
 31
0.0
  0
LINE
  5
1BC
330
1F
100
AcDbEntity
  8
0
  6
Continuous
 62
     7
370
    15
100
AcDbLine
 10
30.4169118412
 20
313.7419534352
 30
0.0
 11
30.4169118412
 21
348.7419534352
 31
0.0
  0
LINE
  5
1BD
330
1F
100
AcDbEntity
  8
0
  6
Continuous
 62
     7
370
    15
100
AcDbLine
 10
29.4169118412
 20
313.7419534352
 30
0.0
 11
29.4169118412
 21
348.7419534352
 31
0.0
  0
LINE
  5
1BE
330
1F
100
AcDbEntity
  8
0
  6
Continuous
 62
     7
370
    15
100
AcDbLine
 10
34.4169118412
 20
321.2419534352
 30
0.0
 11
34.4169118412
 21
341.2419534352
 31
0.0
  0
LINE
  5
1BF
330
1F
100
AcDbEntity
  8
0
  6
Continuous
 62
     7
370
    15
100
AcDbLine
 10
29.4169118412
 20
263.7419570656
 30
0.0
 11
29.4169118412
 21
298.7419570656
 31
0.0
  0
LINE
  5
1C0
330
1F
100
AcDbEntity
  8
0
  6
Continuous
 62
     7
370
    15
100
AcDbLine
 10
30.4169118412
 20
263.7419570656
 30
0.0
 11
30.4169118412
 21
298.7419570656
 31
0.0
  0
LINE
  5
1C1
330
1F
100
AcDbEntity
  8
0
  6
Continuous
 62
     7
370
    15
100
AcDbLine
 10
34.4169118412
 20
271.2419570656
 30
0.0
 11
34.4169118412
 21
291.2419570656
 31
0.0
  0
LINE
  5
1C2
330
1F
100
AcDbEntity
  8
0
  6
Continuous
 62
     7
370
    15
100
AcDbLine
 10
29.4169118412
 20
348.6529309642
 30
0.0
 11
29.4169118412
 21
348.7419534352
 31
0.0
  0
LINE
  5
1C3
330
1F
100
AcDbEntity
  8
0
  6
Continuous
 62
     7
370
    15
100
AcDbLine
 10
29.4169118412
 20
313.7419534352
 30
0.0
 11
29.4169118412
 21
348.6529309642
 31
0.0
  0
LINE
  5
1C4
330
1F
100
AcDbEntity
  8
0
  6
Continuous
 62
     7
370
    15
100
AcDbLine
 10
28.6169118412
 20
348.7419534352
 30
0.0
 11
28.6169118412
 21
313.7419534352
 31
0.0
  0
LINE
  5
1C5
330
1F
100
AcDbEntity
  8
0
  6
Continuous
 62
     7
370
    15
100
AcDbLine
 10
26.6169118412
 20
315.7419534352
 30
0.0
 11
26.6169118412
 21
346.7419534352
 31
0.0
  0
LINE
  5
1C6
330
1F
100
AcDbEntity
  8
0
  6
Continuous
 62
     7
370
    15
100
AcDbLine
 10
28.6169118412
 20
263.9117713203
 30
0.0
 11
28.6169118412
 21
263.7419570656
 31
0.0
  0
LINE
  5
1C7
330
1F
100
AcDbEntity
  8
0
  6
Continuous
 62
     7
370
    15
100
AcDbLine
 10
28.6169118412
 20
298.7419570656
 30
0.0
 11
28.6169118412
 21
263.9117713203
 31
0.0
  0
LINE
  5
1C8
330
1F
100
AcDbEntity
  8
0
  6
Continuous
 62
     7
370
    15
100
AcDbLine
 10
26.6169118412
 20
265.8923639769
 30
0.0
 11
26.6169118412
 21
296.7419570656
 31
0.0
  0
LINE
  5
1C9
330
1F
100
AcDbEntity
  8
0
  6
Continuous
 62
     7
370
    15
100
AcDbLine
 10
26.6169118412
 20
265.7419570656
 30
0.0
 11
26.6169118412
 21
265.8923639769
 31
0.0
  0
LWPOLYLINE
  5
1CA
330
1F
100
AcDbEntity
  8
0
  6
Continuous
 62
     7
370
    15
100
AcDbPolyline
 90
       33
 70
   128
 43
0.0
 10
61.9169118412
 20
236.2484385567
 10
60.4555102627
 20
236.2484145754
 10
59.0049283901
 20
236.2483428092
 10
57.5759058242
 20
236.2482237894
 10
56.1790225481
 20
236.2480583971
 10
54.8246205968
 20
236.2478478569
 10
53.5227274885
 20
236.2475937275
 10
52.2829819843
 20
236.2472978905
 10
51.1145627261
 20
236.246962536
 10
50.0261202813
 20
236.246590147
 10
49.0257130971
 20
236.2461834805
 10
48.1207478381
 20
236.2457455472
 10
47.3179245505
 20
236.2452795896
 10
46.6231870571
 20
236.2447890573
 10
46.0416789512
 20
236.2442775821
 10
45.5777055154
 20
236.2437489509
 10
45.2347018466
 20
236.2432070773
 10
45.015207424
 20
236.2426559733
 10
44.9208473076
 20
236.242099719
 10
44.9523201065
 20
236.2415424327
 10
45.1093928073
 20
236.2409882405
 10
45.3909024985
 20
236.2404412452
 10
45.794764981
 20
236.2399054968
 10
46.3179901982
 20
236.2393849616
 10
46.9567043737
 20
236.2388834936
 10
47.7061786911
 20
236.2384048054
 10
48.5608643049
 20
236.2379524411
 10
49.5144334217
 20
236.2375297499
 10
50.5598261496
 20
236.2371398611
 10
51.6893027664
 20
236.2367856614
 10
52.8945010225
 20
236.2364697732
 10
54.1664980516
 20
236.2361945351
 10
54.4169118412
 20
236.236146643
  0
LWPOLYLINE
  5
1CB
330
1F
100
AcDbEntity
  8
0
  6
Continuous
 62
     7
370
    15
100
AcDbPolyline
 90
       33
 70
   128
 43
0.0
 10
69.4169118412
 20
236.236146643
 10
69.6673256309
 20
236.2361945351
 10
70.93932266
 20
236.2364697732
 10
72.144520916
 20
236.2367856614
 10
73.2739975328
 20
236.2371398611
 10
74.3193902607
 20
236.2375297499
 10
75.2729593776
 20
236.2379524411
 10
76.1276449913
 20
236.2384048054
 10
76.8771193088
 20
236.2388834936
 10
77.5158334842
 20
236.2393849616
 10
78.0390587014
 20
236.2399054968
 10
78.4429211839
 20
236.2404412452
 10
78.7244308752
 20
236.2409882405
 10
78.8815035759
 20
236.2415424327
 10
78.9129763749
 20
236.242099719
 10
78.8186162584
 20
236.2426559733
 10
78.5991218358
 20
236.2432070773
 10
78.256118167
 20
236.2437489509
 10
77.7921447312
 20
236.2442775821
 10
77.2106366253
 20
236.2447890573
 10
76.5158991319
 20
236.2452795896
 10
75.7130758443
 20
236.2457455472
 10
74.8081105854
 20
236.2461834805
 10
73.8077034011
 20
236.246590147
 10
72.7192609563
 20
236.246962536
 10
71.5508416982
 20
236.2472978905
 10
70.3110961939
 20
236.2475937275
 10
69.0092030856
 20
236.2478478569
 10
67.6548011343
 20
236.2480583971
 10
66.2579178582
 20
236.2482237894
 10
64.8288952923
 20
236.2483428092
 10
63.3783134198
 20
236.2484145754
 10
61.9169118412
 20
236.2484385567
  0
LWPOLYLINE
  5
1CC
330
1F
100
AcDbEntity
  8
0
  6
Continuous
 62
     7
370
    15
100
AcDbPolyline
 90
       20
 70
   128
 43
0.0
 10
61.9169118412
 20
236.7486290564
 10
63.3812740995
 20
236.7486056681
 10
64.8353649087
 20
236.7485356673
 10
66.2689848666
 20
236.748419545
 10
67.6720781591
 20
236.7482581157
 10
69.034803095
 20
236.7480525118
 10
70.347601138
 20
236.7478041753
 10
71.601263953
 20
236.7475148482
 10
72.7869979961
 20
236.74718656
 10
73.896486195
 20
236.7468216132
 10
74.9219462871
 20
236.7464225679
 10
75.8561854066
 20
236.7459922228
 10
76.6926505375
 20
236.7455335968
 10
77.4254744778
 20
236.7450499066
 10
78.049516994
 20
236.744544545
 10
78.5604008764
 20
236.7440210567
 10
78.9545426415
 20
236.7434831137
 10
79.2291776681
 20
236.7429344892
 10
79.3823795887
 20
236.7423790315
 10
79.4169105706
 20
236.7419577553
  0
LWPOLYLINE
  5
1CD
330
1F
100
AcDbEntity
  8
0
  6
Continuous
 62
     7
370
    15
100
AcDbPolyline
 90
       20
 70
   128
 43
0.0
 10
44.4169131119
 20
236.7419577553
 10
44.4514440937
 20
236.7423790315
 10
44.6046460144
 20
236.7429344892
 10
44.8792810409
 20
236.7434831137
 10
45.2734228061
 20
236.7440210567
 10
45.7843066884
 20
236.744544545
 10
46.4083492047
 20
236.7450499066
 10
47.1411731449
 20
236.7455335968
 10
47.9776382758
 20
236.7459922228
 10
48.9118773954
 20
236.7464225679
 10
49.9373374875
 20
236.7468216132
 10
51.0468256863
 20
236.74718656
 10
52.2325597295
 20
236.7475148482
 10
53.4862225444
 20
236.7478041753
 10
54.7990205874
 20
236.7480525118
 10
56.1617455233
 20
236.7482581157
 10
57.5648388158
 20
236.748419545
 10
58.9984587737
 20
236.7485356673
 10
60.4525495829
 20
236.7486056681
 10
61.9169118412
 20
236.7486290564
  0
SPLINE
  5
1CE
330
1F
100
AcDbEntity
  8
0
  6
Continuous
 62
     7
370
    15
100
AcDbSpline
210
0.0
220
0.0
230
1.0
 70
     8
 71
     3
 72
    27
 73
    23
 74
     0
 42
0.000000001
 43
0.00000001
 40
0.0
 40
0.0
 40
0.0
 40
0.0
 40
0.0497373915189304
 40
0.1009927630590853
 40
0.1507112220817571
 40
0.2017508821158007
 40
0.2538734929541994
 40
0.3073584779621925
 40
0.3620756668264062
 40
0.418537102120269
 40
0.4704177328658251
 40
0.5240832595203386
 40
0.5718516576459164
 40
0.6209561794773883
 40
0.6698657057467488
 40
0.7199738814688564
 40
0.7732210225441055
 40
0.8279294846558689
 40
0.882385254393963
 40
0.9386416525575494
 40
0.9894907107409575
 40
1.0
 40
1.0
 40
1.0
 40
1.0
 10
79.41691184121372
 20
288.7419565210015
 30
0.0
 10
79.40908701454941
 20
288.7239406667826
 30
0.0
 10
79.39319854832404
 20
288.687359116346
 30
0.0
 10
79.2685152310755
 20
288.3925286027701
 30
0.0
 10
79.08184842754689
 20
287.9303226405019
 30
0.0
 10
78.84337006788466
 20
287.2978659776802
 30
0.0
 10
78.57111817793708
 20
286.4970555124635
 30
0.0
 10
78.28995086692689
 20
285.5350653596757
 30
0.0
 10
78.02976691501323
 20
284.4187900121711
 30
0.0
 10
77.83366622868535
 20
283.2082199745244
 30
0.0
 10
77.72683852595702
 20
281.9392023560441
 30
0.0
 10
77.72171967391931
 20
280.7139204544516
 30
0.0
 10
77.80793393319126
 20
279.529809106766
 30
0.0
 10
77.96513115795618
 20
278.4307301864465
 30
0.0
 10
78.18170682113917
 20
277.3900126800766
 30
0.0
 10
78.439824192336
 20
276.4202452019509
 30
0.0
 10
78.71949562067704
 20
275.5406523583962
 30
0.0
 10
78.98885813621285
 20
274.7954264516257
 30
0.0
 10
79.2182652148464
 20
274.2147491052513
 30
0.0
 10
79.36226607273059
 20
273.869846916848
 30
0.0
 10
79.42503416355541
 20
273.7231596595704
 30
0.0
 10
79.41200155548498
 20
273.7534797739821
 30
0.0
 10
79.4097693661624
 20
273.7586729199191
 30
0.0
  0
ARC
  5
1CF
330
1F
100
AcDbEntity
  8
0
  6
Continuous
 62
     7
370
    15
100
AcDbCircle
 10
27.8827506308
 20
331.2414792552
 30
0.0
 40
18.15547758363594
100
AcDbArc
 50
335.6020200759
 51
24.3433545622
  0
ARC
  5
1D0
330
1F
100
AcDbEntity
  8
0
  6
Continuous
 62
     7
370
    15
100
AcDbCircle
 10
27.8827506308
 20
281.2414828856
 30
0.0
 40
18.15547758363519
100
AcDbArc
 50
335.6020200759
 51
24.3433545622
  0
SPLINE
  5
1D1
330
1F
100
AcDbEntity
  8
0
  6
Continuous
 62
     7
370
    15
100
AcDbSpline
210
0.0
220
0.0
230
1.0
 70
     8
 71
     3
 72
    27
 73
    23
 74
     0
 42
0.000000001
 43
0.00000001
 40
0.0
 40
0.0
 40
0.0
 40
0.0
 40
0.0497373915189306
 40
0.1009927630590891
 40
0.1507112220817577
 40
0.2017508821158039
 40
0.253873492954202
 40
0.3073584779621957
 40
0.3620756668264077
 40
0.418537102120269
 40
0.4704177328658245
 40
0.5240832595203384
 40
0.5718516576459184
 40
0.6209561794773882
 40
0.6698657057467478
 40
0.7199738814688565
 40
0.7732210225441045
 40
0.8279294846558656
 40
0.8823852543939654
 40
0.9386416525575513
 40
0.9894907107409551
 40
1.0
 40
1.0
 40
1.0
 40
1.0
 10
79.416911841212
 20
338.7419528906051
 30
0.0
 10
79.40908701454768
 20
338.7239370363862
 30
0.0
 10
79.3931985483223
 20
338.6873554859495
 30
0.0
 10
79.2685152310738
 20
338.3925249723738
 30
0.0
 10
79.08184842754513
 20
337.9303190101055
 30
0.0
 10
78.84337006788296
 20
337.2978623472836
 30
0.0
 10
78.57111817793535
 20
336.4970518820671
 30
0.0
 10
78.28995086692518
 20
335.5350617292793
 30
0.0
 10
78.0297669150115
 20
334.4187863817747
 30
0.0
 10
77.83366622868363
 20
333.2082163441279
 30
0.0
 10
77.72683852595529
 20
331.9391987256477
 30
0.0
 10
77.7217196739176
 20
330.7139168240552
 30
0.0
 10
77.80793393318953
 20
329.5298054763696
 30
0.0
 10
77.96513115795446
 20
328.43072655605
 30
0.0
 10
78.18170682113747
 20
327.3900090496802
 30
0.0
 10
78.43982419233427
 20
326.4202415715545
 30
0.0
 10
78.71949562067532
 20
325.5406487279999
 30
0.0
 10
78.98885813621118
 20
324.7954228212293
 30
0.0
 10
79.21826521484466
 20
324.2147454748548
 30
0.0
 10
79.36226607272887
 20
323.8698432864517
 30
0.0
 10
79.42503416355369
 20
323.7231560291738
 30
0.0
 10
79.41200155548326
 20
323.7534761435857
 30
0.0
 10
79.40976936616067
 20
323.7586692895227
 30
0.0
  0
LWPOLYLINE
  5
1D2
330
1F
100
AcDbEntity
  8
0
  6
Continuous
 62
     7
370
    15
100
AcDbPolyline
 90
       20
 70
   128
 43
0.0
 10
61.9169118412
 20
355.748620416
 10
60.4525495829
 20
355.7485970277
 10
58.9984587737
 20
355.7485270269
 10
57.5648388158
 20
355.7484109047
 10
56.1617455233
 20
355.7482494754
 10
54.7990205874
 20
355.7480438714
 10
53.4862225444
 20
355.747795535
 10
52.2325597295
 20
355.7475062079
 10
51.0468256863
 20
355.7471779196
 10
49.9373374875
 20
355.7468129729
 10
48.9118773954
 20
355.7464139275
 10
47.9776382758
 20
355.7459835825
 10
47.1411731449
 20
355.7455249564
 10
46.4083492047
 20
355.7450412662
 10
45.7843066884
 20
355.7445359046
 10
45.273422806
 20
355.7440124164
 10
44.8792810409
 20
355.7434744734
 10
44.6046460144
 20
355.7429258489
 10
44.4514440937
 20
355.7423703912
 10
44.4169118412
 20
355.7419516563
  0
LWPOLYLINE
  5
1D3
330
1F
100
AcDbEntity
  8
0
  6
Continuous
 62
     7
370
    15
100
AcDbPolyline
 90
       20
 70
   128
 43
0.0
 10
79.4169118412
 20
355.7419516563
 10
79.3823795887
 20
355.7423703912
 10
79.2291776681
 20
355.7429258489
 10
78.9545426415
 20
355.7434744734
 10
78.5604008764
 20
355.7440124164
 10
78.049516994
 20
355.7445359046
 10
77.4254744778
 20
355.7450412662
 10
76.6926505375
 20
355.7455249564
 10
75.8561854066
 20
355.7459835825
 10
74.9219462871
 20
355.7464139275
 10
73.896486195
 20
355.7468129729
 10
72.7869979961
 20
355.7471779196
 10
71.601263953
 20
355.7475062079
 10
70.347601138
 20
355.747795535
 10
69.034803095
 20
355.7480438714
 10
67.6720781591
 20
355.7482494754
 10
66.2689848666
 20
355.7484109047
 10
64.8353649087
 20
355.7485270269
 10
63.3812740995
 20
355.7485970277
 10
61.9169118412
 20
355.748620416
  0
LWPOLYLINE
  5
1D4
330
1F
100
AcDbEntity
  8
0
  6
Continuous
 62
     7
370
    15
100
AcDbPolyline
 90
       20
 70
   128
 43
0.0
 10
61.9169118412
 20
356.2484298437
 10
63.3783134197
 20
356.2484058625
 10
64.8288952923
 20
356.2483340963
 10
66.2579178582
 20
356.2482150764
 10
67.6548011343
 20
356.2480496842
 10
69.0092030856
 20
356.247839144
 10
70.3110961939
 20
356.2475850146
 10
71.5508416982
 20
356.2472891775
 10
72.7192609563
 20
356.2469538231
 10
73.8077034011
 20
356.2465814341
 10
74.8081105853
 20
356.2461747675
 10
75.7130758443
 20
356.2457368343
 10
76.5158991319
 20
356.2452708766
 10
77.2106366253
 20
356.2447803443
 10
77.7921447312
 20
356.2442688692
 10
78.256118167
 20
356.2437402379
 10
78.5991218358
 20
356.2431983644
 10
78.8186162584
 20
356.2426472604
 10
78.9129763749
 20
356.2420910061
 10
78.9169106069
 20
356.2419540886
  0
LWPOLYLINE
  5
1D5
330
1F
100
AcDbEntity
  8
0
  6
Continuous
 62
     7
370
    15
100
AcDbPolyline
 90
       20
 70
   128
 43
0.0
 10
44.9169130755
 20
356.2419540886
 10
44.9208473076
 20
356.2420910061
 10
45.015207424
 20
356.2426472604
 10
45.2347018466
 20
356.2431983644
 10
45.5777055154
 20
356.2437402379
 10
46.0416789512
 20
356.2442688692
 10
46.6231870571
 20
356.2447803443
 10
47.3179245505
 20
356.2452708766
 10
48.1207478381
 20
356.2457368343
 10
49.0257130971
 20
356.2461747675
 10
50.0261202813
 20
356.2465814341
 10
51.1145627261
 20
356.2469538231
 10
52.2829819843
 20
356.2472891775
 10
53.5227274885
 20
356.2475850146
 10
54.8246205968
 20
356.247839144
 10
56.1790225481
 20
356.2480496842
 10
57.5759058242
 20
356.2482150764
 10
59.0049283901
 20
356.2483340963
 10
60.4555102627
 20
356.2484058625
 10
61.9169118412
 20
356.2484298437
  0
LWPOLYLINE
  5
1D6
330
1F
100
AcDbEntity
  8
0
  6
Continuous
 62
     7
370
    15
100
AcDbPolyline
 90
       14
 70
   128
 43
0.0
 10
61.9169118412
 20
236.2448183728
 10
60.9578331286
 20
236.2447949083
 10
60.0145024619
 20
236.2447249002
 10
59.1024093046
 20
236.244609498
 10
58.2365302012
 20
236.2444505965
 10
57.4310828625
 20
236.244250805
 10
56.6992927117
 20
236.244013404
 10
56.0531757227
 20
236.2437422916
 10
55.5033411187
 20
236.2434419196
 10
55.0588171686
 20
236.2431172199
 10
54.7269029434
 20
236.2427735241
 10
54.5130484656
 20
236.2424164758
 10
54.4207652197
 20
236.2420519376
 10
54.4169118412
 20
236.2419603329
  0
LWPOLYLINE
  5
1D7
330
1F
100
AcDbEntity
  8
0
  6
Continuous
 62
     7
370
    15
100
AcDbPolyline
 90
       14
 70
   128
 43
0.0
 10
69.4169118412
 20
236.2419603329
 10
69.4130584627
 20
236.2420519376
 10
69.3207752168
 20
236.2424164758
 10
69.106920739
 20
236.2427735241
 10
68.7750065138
 20
236.2431172199
 10
68.3304825638
 20
236.2434419196
 10
67.7806479597
 20
236.2437422916
 10
67.1345309707
 20
236.244013404
 10
66.4027408199
 20
236.244250805
 10
65.5972934812
 20
236.2444505965
 10
64.7314143778
 20
236.244609498
 10
63.8193212205
 20
236.2447249002
 10
62.8759905538
 20
236.2447949083
 10
61.9169118412
 20
236.2448183728
  0
LWPOLYLINE
  5
1D8
330
1F
100
AcDbEntity
  8
0
  6
Continuous
 62
     7
370
    15
100
AcDbPolyline
 90
       39
 70
   128
 43
0.0
 10
61.9169118412
 20
216.243676609
 10
61.176236185
 20
216.243653221
 10
60.4557642298
 20
216.2435836951
 10
59.7751485725
 20
216.2434699277
 10
59.1529546341
 20
216.2433150221
 10
58.6061542432
 20
216.2431232037
 10
58.149662689
 20
216.2428997049
 10
57.7959318713
 20
216.242650622
 10
57.5546106445
 20
216.2423827495
 10
57.4322816227
 20
216.2421033941
 10
57.4322816227
 20
216.241820176
 10
57.5546106445
 20
216.2415408207
 10
57.7959318713
 20
216.2412729481
 10
58.149662689
 20
216.2410238653
 10
58.6061542432
 20
216.2408003664
 10
59.1529546341
 20
216.240608548
 10
59.7751485725
 20
216.2404536424
 10
60.4557642298
 20
216.240339875
 10
61.176236185
 20
216.2402703491
 10
61.9169118412
 20
216.2402469611
 10
62.6575874975
 20
216.2402703491
 10
63.3780594526
 20
216.240339875
 10
64.0586751099
 20
216.2404536424
 10
64.6808690483
 20
216.240608548
 10
65.2276694392
 20
216.2408003664
 10
65.6841609934
 20
216.2410238653
 10
66.0378918112
 20
216.2412729481
 10
66.2792130379
 20
216.2415408207
 10
66.4015420597
 20
216.241820176
 10
66.4015420597
 20
216.2421033941
 10
66.2792130379
 20
216.2423827495
 10
66.0378918112
 20
216.242650622
 10
65.6841609934
 20
216.2428997049
 10
65.2276694392
 20
216.2431232037
 10
64.6808690483
 20
216.2433150221
 10
64.0586751099
 20
216.2434699277
 10
63.3780594526
 20
216.2435836951
 10
62.6575874975
 20
216.243653221
 10
61.9169118412
 20
216.243676609
  0
ARC
  5
1D9
330
1F
100
AcDbEntity
  8
0
  6
Continuous
 62
     7
370
    15
100
AcDbCircle
 10
61.9169118412
 20
306.2667259535
 30
0.0
 40
18.00000000000003
100
AcDbArc
 50
180.0000032598
 51
359.9999967402
  0
ARC
  5
1DA
330
1F
100
AcDbEntity
  8
0
  6
Continuous
 62
     7
370
    15
100
AcDbCircle
 10
61.9169118412
 20
306.2648205936
 30
0.0
 40
18.00000000000003
100
AcDbArc
 50
180.0000032598
 51
359.9999967402
  0
SPLINE
  5
1DB
330
1F
100
AcDbEntity
  8
0
  6
Continuous
 62
     7
370
    15
100
AcDbSpline
210
0.0
220
0.0
230
1.0
 70
     8
 71
     3
 72
    10
 73
     6
 74
     0
 42
0.000000001
 43
0.00000001
 40
0.0
 40
0.0
 40
0.0
 40
0.0
 40
0.30104729549854
 40
0.746086314929054
 40
1.0
 40
1.0
 40
1.0
 40
1.0
 10
68.98471279880151
 20
289.7114403690863
 30
0.0
 10
68.98541930202316
 20
289.7117377869021
 30
0.0
 10
68.98717023084069
 20
289.7124748782675
 30
0.0
 10
69.13919918823136
 20
289.776367143322
 30
0.0
 10
69.324648389508
 20
289.8611275116724
 30
0.0
 10
69.39201788359016
 20
289.8919190335267
 30
0.0
  0
SPLINE
  5
1DC
330
1F
100
AcDbEntity
  8
0
  6
Continuous
 62
     7
370
    15
100
AcDbSpline
210
0.0
220
0.0
230
1.0
 70
     8
 71
     3
 72
    11
 73
     7
 74
     0
 42
0.000000001
 43
0.00000001
 40
0.0
 40
0.0
 40
0.0
 40
0.0
 40
0.271415487520988
 40
0.5428032976876096
 40
0.8149088749743492
 40
1.0
 40
1.0
 40
1.0
 40
1.0
 10
43.95191076040479
 20
305.1438382122544
 30
0.0
 10
43.95069679777048
 20
305.1619871565876
 30
0.0
 10
43.94826899629465
 20
305.1982831945315
 30
0.0
 10
43.93315089628256
 20
305.4840763739056
 30
0.0
 10
43.91892637073244
 20
305.850919968934
 30
0.0
 10
43.91862670362916
 20
306.1466461276372
 30
0.0
 10
43.91850538665334
 20
306.2663676547983
 30
0.0
  0
SPLINE
  5
1DD
330
1F
100
AcDbEntity
  8
0
  6
Continuous
 62
     7
370
    15
100
AcDbSpline
210
0.0
220
0.0
230
1.0
 70
     8
 71
     3
 72
     9
 73
     5
 74
     0
 42
0.000000001
 43
0.00000001
 40
0.0
 40
0.0
 40
0.0
 40
0.0
 40
0.0952441954540669
 40
1.0
 40
1.0
 40
1.0
 40
1.0
 10
43.91722012032649
 20
306.2651738460611
 30
0.0
 10
43.91711248169094
 20
306.2580607324707
 30
0.0
 10
43.91598234840522
 20
306.1833778233806
 30
0.0
 10
43.91784592026178
 20
306.1213147235433
 30
0.0
 10
43.9195319977162
 20
306.0651627737174
 30
0.0
  0
ARC
  5
1DE
330
1F
100
AcDbEntity
  8
0
  6
Continuous
 62
     7
370
    15
100
AcDbCircle
 10
61.9169118401
 20
306.2616687725
 30
0.0
 40
5.000000163347512
100
AcDbArc
 50
30.6834202385
 51
148.3140441094
  0
ARC
  5
1DF
330
1F
100
AcDbEntity
  8
0
  6
Continuous
 62
     7
370
    15
100
AcDbCircle
 10
61.9169118412
 20
306.261669777
 30
0.0
 40
5.000000161129263
100
AcDbArc
 50
210.6834202207
 51
329.3165797793
  0
LINE
  5
1E0
330
1F
100
AcDbEntity
  8
0
  6
Continuous
 62
     7
370
    15
100
AcDbLine
 10
57.6169118412
 20
308.8131392552
 30
0.0
 11
57.6622122744
 21
308.8879842979
 31
0.0
  0
ARC
  5
1E1
330
1F
100
AcDbEntity
  8
0
  6
Continuous
 62
     7
370
    15
100
AcDbCircle
 10
61.9169118412
 20
306.2343333096
 30
0.0
 40
5.000000161129292
100
AcDbArc
 50
30.6834202207
 51
149.3165797793
  0
CIRCLE
  5
1E2
330
1F
100
AcDbEntity
  8
0
  6
Continuous
 62
     7
370
    15
100
AcDbCircle
 10
61.9169117693
 20
306.2686294195
 30
0.0
 40
17.99999956286467
  0
CIRCLE
  5
1E3
330
1F
100
AcDbEntity
  8
0
  6
Continuous
 62
     7
370
    15
100
AcDbCircle
 10
61.9169117854
 20
306.2686297446
 30
0.0
 40
10.99999974603992
  0
ARC
  5
1E4
330
1F
100
AcDbEntity
  8
0
  6
Continuous
 62
     7
370
    15
100
AcDbCircle
 10
61.9169122759
 20
306.2684393893
 30
0.0
 40
10.99999956533225
100
AcDbArc
 50
0.0000018961
 51
90.0000022641
  0
ARC
  5
1E5
330
1F
100
AcDbEntity
  8
0
  6
Continuous
 62
     7
370
    15
100
AcDbCircle
 10
61.9169114631
 20
306.2684393328
 30
0.0
 40
10.99999962186093
100
AcDbArc
 50
89.9999980304
 51
179.9999978095
  0
ARC
  5
1E6
330
1F
100
AcDbEntity
  8
0
  6
Continuous
 62
     7
370
    15
100
AcDbCircle
 10
61.9169116787
 20
303.5684400991
 30
0.0
 40
4.299999837479251
100
AcDbArc
 50
180.0000019946
 51
270.0000021655
  0
ARC
  5
1E7
330
1F
100
AcDbEntity
  8
0
  6
Continuous
 62
     7
370
    15
100
AcDbCircle
 10
61.9169119909
 20
303.5684401119
 30
0.0
 40
4.29999985030675
100
AcDbArc
 50
269.9999980054
 51
359.9999978345
  0
LINE
  5
1E8
330
1F
100
AcDbEntity
  8
0
  6
Continuous
 62
     7
370
    15
100
AcDbLine
 10
66.2169118412
 20
303.5684399494
 30
0.0
 11
66.2169118412
 21
308.9684395573
 31
0.0
  0
ARC
  5
1E9
330
1F
100
AcDbEntity
  8
0
  6
Continuous
 62
     7
370
    15
100
AcDbCircle
 10
61.9169120037
 20
308.9684394076
 30
0.0
 40
4.299999837479166
100
AcDbArc
 50
0.0000019946
 51
90.0000021655
  0
ARC
  5
1EA
330
1F
100
AcDbEntity
  8
0
  6
Continuous
 62
     7
370
    15
100
AcDbCircle
 10
61.9169116915
 20
308.9684393948
 30
0.0
 40
4.299999850306679
100
AcDbArc
 50
89.9999980054
 51
179.9999978345
  0
LINE
  5
1EB
330
1F
100
AcDbEntity
  8
0
  6
Continuous
 62
     7
370
    15
100
AcDbLine
 10
57.6169118412
 20
308.9684395573
 30
0.0
 11
57.6169118412
 21
303.5684399494
 31
0.0
  0
ARC
  5
1EC
330
1F
100
AcDbEntity
  8
0
  6
Continuous
 62
     7
370
    15
100
AcDbCircle
 10
61.9169116787
 20
308.9672961916
 30
0.0
 40
4.299999837479279
100
AcDbArc
 50
89.9999978345
 51
179.9999980054
  0
LINE
  5
1ED
330
1F
100
AcDbEntity
  8
0
  6
Continuous
 62
     7
370
    15
100
AcDbLine
 10
61.9169118412
 20
313.2684392451
 30
0.0
 11
61.9169118412
 21
313.2672960291
 31
0.0
  0
ARC
  5
1EE
330
1F
100
AcDbEntity
  8
0
  6
Continuous
 62
     7
370
    15
100
AcDbCircle
 10
61.9169119909
 20
308.9672961788
 30
0.0
 40
4.299999850306743
100
AcDbArc
 50
0.0000021655
 51
90.0000019946
  0
LINE
  5
1EF
330
1F
100
AcDbEntity
  8
0
  6
Continuous
 62
     8
370
    15
100
AcDbLine
 10
79.6169118412
 20
280.5300084104
 30
0.0
 11
79.6169118412
 21
287.7419570656
 31
0.0
  0
LINE
  5
1F0
330
1F
100
AcDbEntity
  8
0
  6
Continuous
 62
     8
370
    15
100
AcDbLine
 10
79.6169118412
 20
274.7419570656
 30
0.0
 11
79.6169118412
 21
280.5300084104
 31
0.0
  0
LINE
  5
1F1
330
1F
100
AcDbEntity
  8
0
  6
Continuous
 62
     8
370
    15
100
AcDbLine
 10
79.6169118412
 20
330.53000478
 30
0.0
 11
79.6169118412
 21
337.7419534352
 31
0.0
  0
LINE
  5
1F2
330
1F
100
AcDbEntity
  8
0
  6
Continuous
 62
     8
370
    15
100
AcDbLine
 10
79.6169118412
 20
324.7419534352
 30
0.0
 11
79.6169118412
 21
330.53000478
 31
0.0
  0
LWPOLYLINE
  5
1F3
330
1F
100
AcDbEntity
  8
0
  6
Continuous
 62
     8
370
    15
100
AcDbPolyline
 90
       14
 70
   128
 43
0.0
 10
61.9169118412
 20
219.2448196071
 10
62.8759905538
 20
219.2447961427
 10
63.8193212205
 20
219.2447261346
 10
64.7314143778
 20
219.2446107323
 10
65.5972934812
 20
219.2444518309
 10
66.4027408199
 20
219.2442520393
 10
67.1345309707
 20
219.2440146383
 10
67.7806479597
 20
219.243743526
 10
68.3304825638
 20
219.2434431539
 10
68.7750065138
 20
219.2431184542
 10
69.106920739
 20
219.2427747584
 10
69.3207752168
 20
219.2424177101
 10
69.4130584627
 20
219.2420531719
 10
69.4169118262
 20
219.241961748
  0
LWPOLYLINE
  5
1F4
330
1F
100
AcDbEntity
  8
0
  6
Continuous
 62
     8
370
    15
100
AcDbPolyline
 90
       14
 70
   128
 43
0.0
 10
54.4169118423
 20
219.2419615198
 10
54.4207652197
 20
219.2420531719
 10
54.5130484656
 20
219.2424177101
 10
54.7269029434
 20
219.2427747584
 10
55.0588171686
 20
219.2431184542
 10
55.5033411187
 20
219.2434431539
 10
56.0531757227
 20
219.243743526
 10
56.6992927117
 20
219.2440146383
 10
57.4310828625
 20
219.2442520393
 10
58.2365302012
 20
219.2444518309
 10
59.1024093046
 20
219.2446107323
 10
60.0145024619
 20
219.2447261346
 10
60.9578331286
 20
219.2447961427
 10
61.9169118412
 20
219.2448196071
  0
LINE
  5
1F5
330
1F
100
AcDbEntity
  8
0
  6
Continuous
 62
     7
370
    15
100
AcDbLine
 10
79.6169118412
 20
-12.1376191352
 30
0.0
 11
79.0138014678
 21
-12.1376191352
 31
0.0
  0
LINE
  5
1F6
330
1F
100
AcDbEntity
  8
0
  6
Continuous
 62
     7
370
    15
100
AcDbLine
 10
79.015128983
 20
-25.1376191352
 30
0.0
 11
79.6169118412
 21
-25.1376191352
 31
0.0
  0
ARC
  5
1F7
330
1F
100
AcDbEntity
  8
0
  6
Continuous
 62
     7
370
    15
100
AcDbCircle
 10
79.6169118412
 20
-12.9376191352
 30
0.0
 40
0.8000000000000114
100
AcDbArc
 50
360.0
 51
90.0
  0
ARC
  5
1F8
330
1F
100
AcDbEntity
  8
0
  6
Continuous
 62
     7
370
    15
100
AcDbCircle
 10
79.6169118412
 20
-24.3376191352
 30
0.0
 40
0.8000000000000078
100
AcDbArc
 50
270.0
 51
360.0
  0
LINE
  5
1F9
330
1F
100
AcDbEntity
  8
0
  6
Continuous
 62
     7
370
    15
100
AcDbLine
 10
79.6169118412
 20
-62.1376155048
 30
0.0
 11
79.0138014678
 21
-62.1376155048
 31
0.0
  0
LINE
  5
1FA
330
1F
100
AcDbEntity
  8
0
  6
Continuous
 62
     7
370
    15
100
AcDbLine
 10
79.015128983
 20
-75.1376155048
 30
0.0
 11
79.6169118412
 21
-75.1376155048
 31
0.0
  0
ARC
  5
1FB
330
1F
100
AcDbEntity
  8
0
  6
Continuous
 62
     7
370
    15
100
AcDbCircle
 10
79.6169118412
 20
-62.9376155048
 30
0.0
 40
0.8000000000000114
100
AcDbArc
 50
360.0
 51
90.0
  0
ARC
  5
1FC
330
1F
100
AcDbEntity
  8
0
  6
Continuous
 62
     7
370
    15
100
AcDbCircle
 10
79.6169118412
 20
-74.3376155048
 30
0.0
 40
0.8000000000000114
100
AcDbArc
 50
270.0
 51
360.0
  0
LINE
  5
1FD
330
1F
100
AcDbEntity
  8
0
  6
Continuous
 62
     7
370
    15
100
AcDbLine
 10
41.4169118412
 20
-36.1376191352
 30
0.0
 11
43.4169118412
 21
-36.1376191352
 31
0.0
  0
LINE
  5
1FE
330
1F
100
AcDbEntity
  8
0
  6
Continuous
 62
     7
370
    15
100
AcDbLine
 10
43.4169118412
 20
-1.1376191352
 30
0.0
 11
41.4169118412
 21
-1.1376191352
 31
0.0
  0
LINE
  5
1FF
330
1F
100
AcDbEntity
  8
0
  6
Continuous
 62
     7
370
    15
100
AcDbLine
 10
43.4169118412
 20
-27.1376191352
 30
0.0
 11
44.4169118412
 21
-26.1376191352
 31
0.0
  0
LINE
  5
200
330
1F
100
AcDbEntity
  8
0
  6
Continuous
 62
     7
370
    15
100
AcDbLine
 10
44.4169118412
 20
-11.1376191352
 30
0.0
 11
43.4169118412
 21
-10.1376191352
 31
0.0
  0
LINE
  5
201
330
1F
100
AcDbEntity
  8
0
  6
Continuous
 62
     7
370
    15
100
AcDbLine
 10
41.4169118412
 20
-86.1376155048
 30
0.0
 11
43.4169118412
 21
-86.1376155048
 31
0.0
  0
LINE
  5
202
330
1F
100
AcDbEntity
  8
0
  6
Continuous
 62
     7
370
    15
100
AcDbLine
 10
43.4169118412
 20
-51.1376155048
 30
0.0
 11
41.4169118412
 21
-51.1376155048
 31
0.0
  0
LINE
  5
203
330
1F
100
AcDbEntity
  8
0
  6
Continuous
 62
     7
370
    15
100
AcDbLine
 10
43.4169118412
 20
-77.1376155048
 30
0.0
 11
44.4169118412
 21
-76.1376155048
 31
0.0
  0
LINE
  5
204
330
1F
100
AcDbEntity
  8
0
  6
Continuous
 62
     7
370
    15
100
AcDbLine
 10
44.4169118412
 20
-61.1376155048
 30
0.0
 11
43.4169118412
 21
-60.1376155048
 31
0.0
  0
LINE
  5
205
330
1F
100
AcDbEntity
  8
0
  6
Continuous
 62
     7
370
    15
100
AcDbLine
 10
41.4169118412
 20
-51.1376155048
 30
0.0
 11
40.4169118412
 21
-51.1376155048
 31
0.0
  0
LINE
  5
206
330
1F
100
AcDbEntity
  8
0
  6
Continuous
 62
     7
370
    15
100
AcDbLine
 10
40.4169118412
 20
-86.1376155048
 30
0.0
 11
41.4169118412
 21
-86.1376155048
 31
0.0
  0
LINE
  5
207
330
1F
100
AcDbEntity
  8
0
  6
Continuous
 62
     7
370
    15
100
AcDbLine
 10
40.4169118412
 20
-58.6376155048
 30
0.0
 11
36.4169118412
 21
-58.6376155048
 31
0.0
  0
LINE
  5
208
330
1F
100
AcDbEntity
  8
0
  6
Continuous
 62
     7
370
    15
100
AcDbLine
 10
36.4169118412
 20
-78.6376155048
 30
0.0
 11
40.4169118412
 21
-78.6376155048
 31
0.0
  0
LINE
  5
209
330
1F
100
AcDbEntity
  8
0
  6
Continuous
 62
     7
370
    15
100
AcDbLine
 10
41.4169118412
 20
-1.1376191352
 30
0.0
 11
40.4169118412
 21
-1.1376191352
 31
0.0
  0
LINE
  5
20A
330
1F
100
AcDbEntity
  8
0
  6
Continuous
 62
     7
370
    15
100
AcDbLine
 10
40.4169118412
 20
-36.1376191352
 30
0.0
 11
41.4169118412
 21
-36.1376191352
 31
0.0
  0
LINE
  5
20B
330
1F
100
AcDbEntity
  8
0
  6
Continuous
 62
     7
370
    15
100
AcDbLine
 10
40.4169118412
 20
-8.6376191352
 30
0.0
 11
36.4169118412
 21
-8.6376191352
 31
0.0
  0
LINE
  5
20C
330
1F
100
AcDbEntity
  8
0
  6
Continuous
 62
     7
370
    15
100
AcDbLine
 10
36.4169118412
 20
-28.6376191352
 30
0.0
 11
40.4169118412
 21
-28.6376191352
 31
0.0
  0
LINE
  5
20D
330
1F
100
AcDbEntity
  8
0
  6
Continuous
 62
     7
370
    15
100
AcDbLine
 10
29.4169118412
 20
-86.1376155048
 30
0.0
 11
30.4169118412
 21
-86.1376155048
 31
0.0
  0
LINE
  5
20E
330
1F
100
AcDbEntity
  8
0
  6
Continuous
 62
     7
370
    15
100
AcDbLine
 10
30.4169118412
 20
-51.1376155048
 30
0.0
 11
29.4169118412
 21
-51.1376155048
 31
0.0
  0
LINE
  5
20F
330
1F
100
AcDbEntity
  8
0
  6
Continuous
 62
     7
370
    15
100
AcDbLine
 10
30.4169118412
 20
-78.6376155048
 30
0.0
 11
34.4169118412
 21
-78.6376155048
 31
0.0
  0
LINE
  5
210
330
1F
100
AcDbEntity
  8
0
  6
Continuous
 62
     7
370
    15
100
AcDbLine
 10
34.4169118412
 20
-58.6376155048
 30
0.0
 11
30.4169118412
 21
-58.6376155048
 31
0.0
  0
LINE
  5
211
330
1F
100
AcDbEntity
  8
0
  6
Continuous
 62
     7
370
    15
100
AcDbLine
 10
29.4169118412
 20
-36.1376191352
 30
0.0
 11
30.4169118412
 21
-36.1376191352
 31
0.0
  0
LINE
  5
212
330
1F
100
AcDbEntity
  8
0
  6
Continuous
 62
     7
370
    15
100
AcDbLine
 10
30.4169118412
 20
-1.1376191352
 30
0.0
 11
29.4169118412
 21
-1.1376191352
 31
0.0
  0
LINE
  5
213
330
1F
100
AcDbEntity
  8
0
  6
Continuous
 62
     7
370
    15
100
AcDbLine
 10
30.4169118412
 20
-28.6376191352
 30
0.0
 11
34.4169118412
 21
-28.6376191352
 31
0.0
  0
LINE
  5
214
330
1F
100
AcDbEntity
  8
0
  6
Continuous
 62
     7
370
    15
100
AcDbLine
 10
34.4169118412
 20
-8.6376191352
 30
0.0
 11
30.4169118412
 21
-8.6376191352
 31
0.0
  0
LINE
  5
215
330
1F
100
AcDbEntity
  8
0
  6
Continuous
 62
     7
370
    15
100
AcDbLine
 10
28.6169118412
 20
-51.1376155048
 30
0.0
 11
26.6169118412
 21
-53.1376155048
 31
0.0
  0
LINE
  5
216
330
1F
100
AcDbEntity
  8
0
  6
Continuous
 62
     7
370
    15
100
AcDbLine
 10
26.6169118412
 20
-84.1376155048
 30
0.0
 11
28.6169118412
 21
-86.1376155048
 31
0.0
  0
LINE
  5
217
330
1F
100
AcDbEntity
  8
0
  6
Continuous
 62
     7
370
    15
100
AcDbLine
 10
28.6169118412
 20
-86.1376155048
 30
0.0
 11
29.4169118412
 21
-86.1376155048
 31
0.0
  0
LINE
  5
218
330
1F
100
AcDbEntity
  8
0
  6
Continuous
 62
     7
370
    15
100
AcDbLine
 10
29.4169118412
 20
-51.1376155048
 30
0.0
 11
28.6169118412
 21
-51.1376155048
 31
0.0
  0
LINE
  5
219
330
1F
100
AcDbEntity
  8
0
  6
Continuous
 62
     7
370
    15
100
AcDbLine
 10
34.4169118412
 20
-76.6376155048
 30
0.0
 11
36.4169118412
 21
-76.6376155048
 31
0.0
  0
LINE
  5
21A
330
1F
100
AcDbEntity
  8
0
  6
Continuous
 62
     7
370
    15
100
AcDbLine
 10
36.4169118412
 20
-60.6376155048
 30
0.0
 11
34.4169118412
 21
-60.6376155048
 31
0.0
  0
LINE
  5
21B
330
1F
100
AcDbEntity
  8
0
  6
Continuous
 62
     7
370
    15
100
AcDbLine
 10
28.6169118412
 20
-36.1376191352
 30
0.0
 11
29.4169118412
 21
-36.1376191352
 31
0.0
  0
LINE
  5
21C
330
1F
100
AcDbEntity
  8
0
  6
Continuous
 62
     7
370
    15
100
AcDbLine
 10
29.4169118412
 20
-1.1376191352
 30
0.0
 11
28.6169118412
 21
-1.1376191352
 31
0.0
  0
LINE
  5
21D
330
1F
100
AcDbEntity
  8
0
  6
Continuous
 62
     7
370
    15
100
AcDbLine
 10
28.6169118412
 20
-1.1376191352
 30
0.0
 11
26.6169118412
 21
-3.1376191352
 31
0.0
  0
LINE
  5
21E
330
1F
100
AcDbEntity
  8
0
  6
Continuous
 62
     7
370
    15
100
AcDbLine
 10
26.6169118412
 20
-34.1376191352
 30
0.0
 11
28.6169118412
 21
-36.1376191352
 31
0.0
  0
LINE
  5
21F
330
1F
100
AcDbEntity
  8
0
  6
Continuous
 62
     7
370
    15
100
AcDbLine
 10
34.4169118412
 20
-26.6376191352
 30
0.0
 11
36.4169118412
 21
-26.6376191352
 31
0.0
  0
LINE
  5
220
330
1F
100
AcDbEntity
  8
0
  6
Continuous
 62
     7
370
    15
100
AcDbLine
 10
36.4169118412
 20
-10.6376191352
 30
0.0
 11
34.4169118412
 21
-10.6376191352
 31
0.0
  0
LINE
  5
221
330
1F
100
AcDbEntity
  8
0
  6
Continuous
 62
     7
370
    15
100
AcDbLine
 10
44.4169131119
 20
-93.1376162672
 30
0.0
 11
44.9169130755
 21
-93.6376161582
 31
0.0
  0
LINE
  5
222
330
1F
100
AcDbEntity
  8
0
  6
Continuous
 62
     7
370
    15
100
AcDbLine
 10
78.9169106069
 20
-93.6376161582
 30
0.0
 11
79.4169105706
 21
-93.1376162672
 31
0.0
  0
LINE
  5
223
330
1F
100
AcDbEntity
  8
0
  6
Continuous
 62
     7
370
    15
100
AcDbLine
 10
79.4169118412
 20
-11.1543349313
 30
0.0
 11
79.4169118412
 21
25.8623776338
 31
0.0
  0
LINE
  5
224
330
1F
100
AcDbEntity
  8
0
  6
Continuous
 62
     7
370
    15
100
AcDbLine
 10
79.4169118412
 20
-40.6398175425
 30
0.0
 11
79.4169118412
 21
-26.1376185906
 31
0.0
  0
LINE
  5
225
330
1F
100
AcDbEntity
  8
0
  6
Continuous
 62
     7
370
    15
100
AcDbLine
 10
79.4169118412
 20
-61.1543313009
 30
0.0
 11
79.4169118412
 21
-46.6468190048
 31
0.0
  0
LINE
  5
226
330
1F
100
AcDbEntity
  8
0
  6
Continuous
 62
     7
370
    15
100
AcDbLine
 10
79.4169118412
 20
-93.1376137259
 30
0.0
 11
79.4169118412
 21
-76.1376149602
 31
0.0
  0
LINE
  5
227
330
1F
100
AcDbEntity
  8
0
  6
Continuous
 62
     7
370
    15
100
AcDbLine
 10
44.4169118412
 20
-76.1376155048
 30
0.0
 11
44.4169118412
 21
-93.1376137259
 31
0.0
  0
LINE
  5
228
330
1F
100
AcDbEntity
  8
0
  6
Continuous
 62
     7
370
    15
100
AcDbLine
 10
44.4169118412
 20
-26.1376191352
 30
0.0
 11
44.4169118412
 21
-61.1376160493
 31
0.0
  0
LINE
  5
229
330
1F
100
AcDbEntity
  8
0
  6
Continuous
 62
     7
370
    15
100
AcDbLine
 10
44.4169118412
 20
25.8623776338
 30
0.0
 11
44.4169118412
 21
-11.1376196797
 31
0.0
  0
LINE
  5
22A
330
1F
100
AcDbEntity
  8
0
  6
Continuous
 62
     7
370
    15
100
AcDbLine
 10
79.4169105706
 20
25.8623801751
 30
0.0
 11
78.9169106069
 21
26.3623800661
 31
0.0
  0
LINE
  5
22B
330
1F
100
AcDbEntity
  8
0
  6
Continuous
 62
     7
370
    15
100
AcDbLine
 10
44.9169130756
 20
26.3623800661
 30
0.0
 11
44.4169131119
 21
25.8623801751
 31
0.0
  0
LINE
  5
22C
330
1F
100
AcDbEntity
  8
0
  6
Continuous
 62
     7
370
    15
100
AcDbLine
 10
69.4169118412
 20
26.3681912874
 30
0.0
 11
69.4169118412
 21
43.3623763631
 31
0.0
  0
LINE
  5
22D
330
1F
100
AcDbEntity
  8
0
  6
Continuous
 62
     7
370
    15
100
AcDbLine
 10
54.4169118412
 20
43.3623763631
 30
0.0
 11
54.4169118412
 21
26.3681912874
 31
0.0
  0
SPLINE
  5
22E
330
1F
100
AcDbEntity
  8
0
  6
Continuous
 62
     7
370
    15
100
AcDbSpline
210
0.0
220
0.0
230
1.0
 70
     8
 71
     3
 72
    19
 73
    15
 74
     0
 42
0.000000001
 43
0.00000001
 40
0.0
 40
0.0
 40
0.0
 40
0.0
 40
0.0063622577663325
 40
0.0327878953912923
 40
0.1246638892734031
 40
0.2169429255832512
 40
0.3157115037378548
 40
0.4273335362891207
 40
0.5289711972175896
 40
0.6394204940035291
 40
0.753788099204208
 40
0.8702901775059949
 40
0.9878195575837596
 40
1.0
 40
1.0
 40
1.0
 40
1.0
 10
57.33404309779115
 20
46.36119219187135
 30
0.0
 10
57.32601698527873
 20
46.36097140995685
 30
0.0
 10
57.28465441445551
 20
46.35983361036071
 30
0.0
 10
57.08354047671969
 20
46.34876431437109
 30
0.0
 10
56.76787352640809
 20
46.30138427406878
 30
0.0
 10
56.34470051351605
 20
46.17613084991892
 30
0.0
 10
55.91998371619277
 20
45.97746340942368
 30
0.0
 10
55.51962281286378
 20
45.70384078477674
 30
0.0
 10
55.15709135840338
 20
45.35605979181566
 30
0.0
 10
54.85399591296822
 20
44.9499873101729
 30
0.0
 10
54.61254981898045
 20
44.47660652311556
 30
0.0
 10
54.46655349328371
 20
43.95812592755918
 30
0.0
 10
54.40271053616789
 20
43.57659935542927
 30
0.0
 10
54.42019456233888
 20
43.37678731236652
 30
0.0
 10
54.4218364054151
 20
43.35802389848003
 30
0.0
  0
SPLINE
  5
22F
330
1F
100
AcDbEntity
  8
0
  6
Continuous
 62
     7
370
    15
100
AcDbSpline
210
0.0
220
0.0
230
1.0
 70
     8
 71
     3
 72
    21
 73
    17
 74
     0
 42
0.000000001
 43
0.00000001
 40
0.0
 40
0.0
 40
0.0
 40
0.0
 40
0.0782264822847278
 40
0.1970202402386753
 40
0.3081695478451149
 40
0.4127188200166128
 40
0.5110522454455139
 40
0.6031477265272408
 40
0.6886558454634453
 40
0.7669056570016646
 40
0.8368742444978416
 40
0.8971512706455778
 40
0.9459390160325398
 40
0.980772867299694
 40
0.9970485675928081
 40
1.0
 40
1.0
 40
1.0
 40
1.0
 10
69.40302928410621
 20
43.36272566908875
 30
0.0
 10
69.40427588026898
 20
43.48388298175595
 30
0.0
 10
69.40741554177868
 20
43.78902827464387
 30
0.0
 10
69.29441293716349
 20
44.25691273627982
 30
0.0
 10
69.09971699905836
 20
44.73712858232445
 30
0.0
 10
68.84091334762407
 20
45.15056883481545
 30
0.0
 10
68.54120095331697
 20
45.49612084661785
 30
0.0
 10
68.21637533307916
 20
45.77457201253925
 30
0.0
 10
67.88287177358323
 20
45.98900457674189
 30
0.0
 10
67.55613428012936
 20
46.14478067822871
 30
0.0
 10
67.25060821013417
 20
46.24946282253568
 30
0.0
 10
66.98140798895814
 20
46.3124804098394
 30
0.0
 10
66.75974931618954
 20
46.34477257337365
 30
0.0
 10
66.60930724387599
 20
46.35704732375122
 30
0.0
 10
66.52266474754742
 20
46.36066004169123
 30
0.0
 10
66.50095030273118
 20
46.36118939774991
 30
0.0
 10
66.49761705917719
 20
46.36127065576436
 30
0.0
  0
LINE
  5
230
330
1F
100
AcDbEntity
  8
0
  6
Continuous
 62
     7
370
    15
100
AcDbLine
 10
51.9169118412
 20
-43.6288526643
 30
0.0
 11
51.9169118412
 21
-43.6430900497
 31
0.0
  0
LINE
  5
231
330
1F
100
AcDbEntity
  8
0
  6
Continuous
 62
     7
370
    15
100
AcDbLine
 10
71.9169118412
 20
-43.636093032
 30
0.0
 11
71.9169118412
 21
-43.6288526643
 31
0.0
  0
LINE
  5
232
330
1F
100
AcDbEntity
  8
0
  6
Continuous
 62
     7
370
    15
100
AcDbLine
 10
43.9169118412
 20
-43.6620215924
 30
0.0
 11
43.9169118412
 21
-43.662386999
 31
0.0
  0
LINE
  5
233
330
1F
100
AcDbEntity
  8
0
  6
Continuous
 62
     7
370
    15
100
AcDbLine
 10
43.9169118412
 20
-43.6604816391
 30
0.0
 11
43.9169118412
 21
-43.6608402111
 31
0.0
  0
LINE
  5
234
330
1F
100
AcDbEntity
  8
0
  6
Continuous
 62
     7
370
    15
100
AcDbLine
 10
79.9169118412
 20
-43.662386999
 30
0.0
 11
79.9169118412
 21
-43.6604816391
 31
0.0
  0
LINE
  5
235
330
1F
100
AcDbEntity
  8
0
  6
Continuous
 62
     7
370
    15
100
AcDbLine
 10
44.0471440593
 20
-45.8381262502
 30
0.0
 11
44.4169118412
 21
-45.8272425343
 31
0.0
  0
LINE
  5
236
330
1F
100
AcDbEntity
  8
0
  6
Continuous
 62
     7
370
    15
100
AcDbLine
 10
80.4169118412
 20
-12.9376191352
 30
0.0
 11
80.4169118412
 21
-24.3376191352
 31
0.0
  0
LINE
  5
237
330
1F
100
AcDbEntity
  8
0
  6
Continuous
 62
     7
370
    15
100
AcDbLine
 10
80.4169118412
 20
-62.9376155048
 30
0.0
 11
80.4169118412
 21
-74.3376155048
 31
0.0
  0
LINE
  5
238
330
1F
100
AcDbEntity
  8
0
  6
Continuous
 62
     7
370
    15
100
AcDbLine
 10
43.4169118412
 20
-35.6089073252
 30
0.0
 11
43.4169118412
 21
-1.1376191352
 31
0.0
  0
LINE
  5
239
330
1F
100
AcDbEntity
  8
0
  6
Continuous
 62
     7
370
    15
100
AcDbLine
 10
43.4169118412
 20
-36.1376191352
 30
0.0
 11
43.4169118412
 21
-35.6089073252
 31
0.0
  0
LINE
  5
23A
330
1F
100
AcDbEntity
  8
0
  6
Continuous
 62
     7
370
    15
100
AcDbLine
 10
41.4169118412
 20
-35.6089073252
 30
0.0
 11
41.4169118412
 21
-1.1376191352
 31
0.0
  0
LINE
  5
23B
330
1F
100
AcDbEntity
  8
0
  6
Continuous
 62
     7
370
    15
100
AcDbLine
 10
41.4169118412
 20
-36.1376191352
 30
0.0
 11
41.4169118412
 21
-35.6089073252
 31
0.0
  0
LINE
  5
23C
330
1F
100
AcDbEntity
  8
0
  6
Continuous
 62
     7
370
    15
100
AcDbLine
 10
44.4169118412
 20
-25.9110283595
 30
0.0
 11
44.4169118412
 21
-26.1376191352
 31
0.0
  0
LINE
  5
23D
330
1F
100
AcDbEntity
  8
0
  6
Continuous
 62
     7
370
    15
100
AcDbLine
 10
44.4169118412
 20
-11.1376191352
 30
0.0
 11
44.4169118412
 21
-25.9110283595
 31
0.0
  0
LINE
  5
23E
330
1F
100
AcDbEntity
  8
0
  6
Continuous
 62
     7
370
    15
100
AcDbLine
 10
43.4169118412
 20
-85.6089036948
 30
0.0
 11
43.4169118412
 21
-51.1376155048
 31
0.0
  0
LINE
  5
23F
330
1F
100
AcDbEntity
  8
0
  6
Continuous
 62
     7
370
    15
100
AcDbLine
 10
43.4169118412
 20
-86.1376155048
 30
0.0
 11
43.4169118412
 21
-85.6089036948
 31
0.0
  0
LINE
  5
240
330
1F
100
AcDbEntity
  8
0
  6
Continuous
 62
     7
370
    15
100
AcDbLine
 10
41.4169118412
 20
-85.6089036948
 30
0.0
 11
41.4169118412
 21
-51.1376155048
 31
0.0
  0
LINE
  5
241
330
1F
100
AcDbEntity
  8
0
  6
Continuous
 62
     7
370
    15
100
AcDbLine
 10
41.4169118412
 20
-86.1376155048
 30
0.0
 11
41.4169118412
 21
-85.6089036948
 31
0.0
  0
LINE
  5
242
330
1F
100
AcDbEntity
  8
0
  6
Continuous
 62
     7
370
    15
100
AcDbLine
 10
44.4169118412
 20
-75.9110247291
 30
0.0
 11
44.4169118412
 21
-76.1376155048
 31
0.0
  0
LINE
  5
243
330
1F
100
AcDbEntity
  8
0
  6
Continuous
 62
     7
370
    15
100
AcDbLine
 10
44.4169118412
 20
-61.1376155048
 30
0.0
 11
44.4169118412
 21
-75.9110247291
 31
0.0
  0
LINE
  5
244
330
1F
100
AcDbEntity
  8
0
  6
Continuous
 62
     7
370
    15
100
AcDbLine
 10
40.4169118412
 20
-51.1376155048
 30
0.0
 11
40.4169118412
 21
-86.1376155048
 31
0.0
  0
LINE
  5
245
330
1F
100
AcDbEntity
  8
0
  6
Continuous
 62
     7
370
    15
100
AcDbLine
 10
41.4169118412
 20
-51.1376155048
 30
0.0
 11
41.4169118412
 21
-86.1376155048
 31
0.0
  0
LINE
  5
246
330
1F
100
AcDbEntity
  8
0
  6
Continuous
 62
     7
370
    15
100
AcDbLine
 10
36.4169118412
 20
-58.6376155048
 30
0.0
 11
36.4169118412
 21
-78.6376155048
 31
0.0
  0
LINE
  5
247
330
1F
100
AcDbEntity
  8
0
  6
Continuous
 62
     7
370
    15
100
AcDbLine
 10
40.4169118412
 20
-1.1376191352
 30
0.0
 11
40.4169118412
 21
-36.1376191352
 31
0.0
  0
LINE
  5
248
330
1F
100
AcDbEntity
  8
0
  6
Continuous
 62
     7
370
    15
100
AcDbLine
 10
41.4169118412
 20
-1.1376191352
 30
0.0
 11
41.4169118412
 21
-36.1376191352
 31
0.0
  0
LINE
  5
249
330
1F
100
AcDbEntity
  8
0
  6
Continuous
 62
     7
370
    15
100
AcDbLine
 10
36.4169118412
 20
-8.6376191352
 30
0.0
 11
36.4169118412
 21
-28.6376191352
 31
0.0
  0
LINE
  5
24A
330
1F
100
AcDbEntity
  8
0
  6
Continuous
 62
     7
370
    15
100
AcDbLine
 10
30.4169118412
 20
-82.9746416023
 30
0.0
 11
30.4169118412
 21
-51.1376155048
 31
0.0
  0
LINE
  5
24B
330
1F
100
AcDbEntity
  8
0
  6
Continuous
 62
     7
370
    15
100
AcDbLine
 10
30.4169118412
 20
-86.1376155048
 30
0.0
 11
30.4169118412
 21
-82.9746416023
 31
0.0
  0
LINE
  5
24C
330
1F
100
AcDbEntity
  8
0
  6
Continuous
 62
     7
370
    15
100
AcDbLine
 10
29.4169118412
 20
-82.9746416023
 30
0.0
 11
29.4169118412
 21
-51.1376155048
 31
0.0
  0
LINE
  5
24D
330
1F
100
AcDbEntity
  8
0
  6
Continuous
 62
     7
370
    15
100
AcDbLine
 10
29.4169118412
 20
-86.1376155048
 30
0.0
 11
29.4169118412
 21
-82.9746416023
 31
0.0
  0
LINE
  5
24E
330
1F
100
AcDbEntity
  8
0
  6
Continuous
 62
     7
370
    15
100
AcDbLine
 10
34.4169118412
 20
-76.8302018462
 30
0.0
 11
34.4169118412
 21
-58.6376155048
 31
0.0
  0
LINE
  5
24F
330
1F
100
AcDbEntity
  8
0
  6
Continuous
 62
     7
370
    15
100
AcDbLine
 10
34.4169118412
 20
-78.6376155048
 30
0.0
 11
34.4169118412
 21
-76.8302018462
 31
0.0
  0
LINE
  5
250
330
1F
100
AcDbEntity
  8
0
  6
Continuous
 62
     7
370
    15
100
AcDbLine
 10
30.4169118412
 20
-11.7837992769
 30
0.0
 11
30.4169118412
 21
-1.1376191352
 31
0.0
  0
LINE
  5
251
330
1F
100
AcDbEntity
  8
0
  6
Continuous
 62
     7
370
    15
100
AcDbLine
 10
30.4169118412
 20
-36.1376191352
 30
0.0
 11
30.4169118412
 21
-11.7837992769
 31
0.0
  0
LINE
  5
252
330
1F
100
AcDbEntity
  8
0
  6
Continuous
 62
     7
370
    15
100
AcDbLine
 10
29.4169118412
 20
-11.7837992769
 30
0.0
 11
29.4169118412
 21
-1.1376191352
 31
0.0
  0
LINE
  5
253
330
1F
100
AcDbEntity
  8
0
  6
Continuous
 62
     7
370
    15
100
AcDbLine
 10
29.4169118412
 20
-36.1376191352
 30
0.0
 11
29.4169118412
 21
-11.7837992769
 31
0.0
  0
LINE
  5
254
330
1F
100
AcDbEntity
  8
0
  6
Continuous
 62
     7
370
    15
100
AcDbLine
 10
34.4169118412
 20
-14.7211506447
 30
0.0
 11
34.4169118412
 21
-8.6376191352
 31
0.0
  0
LINE
  5
255
330
1F
100
AcDbEntity
  8
0
  6
Continuous
 62
     7
370
    15
100
AcDbLine
 10
34.4169118412
 20
-28.6376191352
 30
0.0
 11
34.4169118412
 21
-14.7211506447
 31
0.0
  0
LINE
  5
256
330
1F
100
AcDbEntity
  8
0
  6
Continuous
 62
     7
370
    15
100
AcDbLine
 10
26.6169118412
 20
-53.216463979
 30
0.0
 11
26.6169118412
 21
-53.1376155048
 31
0.0
  0
LINE
  5
257
330
1F
100
AcDbEntity
  8
0
  6
Continuous
 62
     7
370
    15
100
AcDbLine
 10
26.6169118412
 20
-84.1376155048
 30
0.0
 11
26.6169118412
 21
-53.216463979
 31
0.0
  0
LINE
  5
258
330
1F
100
AcDbEntity
  8
0
  6
Continuous
 62
     7
370
    15
100
AcDbLine
 10
28.6169118412
 20
-51.2266379757
 30
0.0
 11
28.6169118412
 21
-86.1376155048
 31
0.0
  0
LINE
  5
259
330
1F
100
AcDbEntity
  8
0
  6
Continuous
 62
     7
370
    15
100
AcDbLine
 10
28.6169118412
 20
-51.1376155048
 30
0.0
 11
28.6169118412
 21
-51.2266379757
 31
0.0
  0
LINE
  5
25A
330
1F
100
AcDbEntity
  8
0
  6
Continuous
 62
     7
370
    15
100
AcDbLine
 10
29.4169118412
 20
-86.1376155048
 30
0.0
 11
29.4169118412
 21
-51.1376155048
 31
0.0
  0
LINE
  5
25B
330
1F
100
AcDbEntity
  8
0
  6
Continuous
 62
     7
370
    15
100
AcDbLine
 10
29.4169118412
 20
-35.9678048804
 30
0.0
 11
29.4169118412
 21
-1.1376191352
 31
0.0
  0
LINE
  5
25C
330
1F
100
AcDbEntity
  8
0
  6
Continuous
 62
     7
370
    15
100
AcDbLine
 10
29.4169118412
 20
-36.1376191352
 30
0.0
 11
29.4169118412
 21
-35.9678048804
 31
0.0
  0
LINE
  5
25D
330
1F
100
AcDbEntity
  8
0
  6
Continuous
 62
     7
370
    15
100
AcDbLine
 10
28.6169118412
 20
-1.1376191352
 30
0.0
 11
28.6169118412
 21
-36.1376191352
 31
0.0
  0
LINE
  5
25E
330
1F
100
AcDbEntity
  8
0
  6
Continuous
 62
     7
370
    15
100
AcDbLine
 10
26.6169118412
 20
-34.1376191352
 30
0.0
 11
26.6169118412
 21
-3.1376191352
 31
0.0
  0
LWPOLYLINE
  5
25F
330
1F
100
AcDbEntity
  8
0
  6
Continuous
 62
     7
370
    15
100
AcDbPolyline
 90
       40
 70
   128
 43
0.0
 10
44.4169131119
 20
-93.1376162672
 10
44.4207498804
 20
-93.1374740659
 10
44.5127786723
 20
-93.1369166507
 10
44.7268849535
 20
-93.1363641249
 10
45.0615669223
 20
-93.1358203642
 10
45.5144770251
 20
-93.1352891826
 10
46.0824384231
 20
-93.1347743061
 10
46.761467275
 20
-93.134279346
 10
47.5468006814
 20
-93.1338077742
 10
48.4329300926
 20
-93.1333628984
 10
49.4136399476
 20
-93.1329478392
 10
50.4820512714
 20
-93.1325655077
 10
51.6306699261
 20
-93.1322185859
 10
52.8514391772
 20
-93.1319095071
 10
54.1357962055
 20
-93.1316404394
 10
55.4747321692
 20
-93.1314132699
 10
56.8588553947
 20
-93.1312295922
 10
58.2784572519
 20
-93.1310906945
 10
59.7235802538
 20
-93.1309975513
 10
61.184087901
 20
-93.1309508158
 10
62.6497357815
 20
-93.1309508158
 10
64.1102434286
 20
-93.1309975513
 10
65.5553664305
 20
-93.1310906945
 10
66.9749682877
 20
-93.1312295922
 10
68.3590915132
 20
-93.1314132699
 10
69.6980274769
 20
-93.1316404394
 10
70.9823845052
 20
-93.1319095071
 10
72.2031537563
 20
-93.1322185859
 10
73.351772411
 20
-93.1325655077
 10
74.4201837348
 20
-93.1329478392
 10
75.4008935898
 20
-93.1333628984
 10
76.2870230011
 20
-93.1338077742
 10
77.0723564074
 20
-93.134279346
 10
77.7513852594
 20
-93.1347743061
 10
78.3193466573
 20
-93.1352891826
 10
78.7722567602
 20
-93.1358203642
 10
79.106938729
 20
-93.1363641249
 10
79.3210450102
 20
-93.1369166507
 10
79.413073802
 20
-93.1374740659
 10
79.4169105706
 20
-93.1376162672
  0
LWPOLYLINE
  5
260
330
1F
100
AcDbEntity
  8
0
  6
Continuous
 62
     7
370
    15
100
AcDbPolyline
 90
       74
 70
   128
 43
0.0
 10
61.9169118412
 20
-93.6440919133
 10
63.3783134197
 20
-93.6440679321
 10
64.8288952923
 20
-93.6439961659
 10
66.2579178582
 20
-93.643877146
 10
67.6548011343
 20
-93.6437117538
 10
69.0092030856
 20
-93.6435012136
 10
70.3110961939
 20
-93.6432470842
 10
71.5508416982
 20
-93.6429512472
 10
72.7192609563
 20
-93.6426158927
 10
73.8077034011
 20
-93.6422435037
 10
74.8081105853
 20
-93.6418368371
 10
75.7130758443
 20
-93.6413989039
 10
76.5158991319
 20
-93.6409329462
 10
77.2106366253
 20
-93.640442414
 10
77.7921447312
 20
-93.6399309388
 10
78.256118167
 20
-93.6394023075
 10
78.5991218358
 20
-93.638860434
 10
78.8186162584
 20
-93.63830933
 10
78.9129763749
 20
-93.6377530757
 10
78.8815035759
 20
-93.6371957894
 10
78.7244308752
 20
-93.6366415971
 10
78.4429211839
 20
-93.6360946019
 10
78.0390587014
 20
-93.6355588534
 10
77.5158334842
 20
-93.6350383183
 10
76.8771193088
 20
-93.6345368503
 10
76.1276449913
 20
-93.6340581621
 10
75.2729593775
 20
-93.6336057978
 10
74.3193902607
 20
-93.6331831065
 10
73.2739975328
 20
-93.6327932178
 10
72.144520916
 20
-93.6324390181
 10
70.93932266
 20
-93.6321231298
 10
69.6673256309
 20
-93.6318478918
 10
68.3379472497
 20
-93.6316153417
 10
66.9610297689
 20
-93.6314272013
 10
65.5467674037
 20
-93.6312848634
 10
64.1056308579
 20
-93.631189382
 10
62.6482898023
 20
-93.6311414639
 10
61.1855338801
 20
-93.6311414639
 10
59.7281928245
 20
-93.631189382
 10
58.2870562787
 20
-93.6312848634
 10
56.8727939136
 20
-93.6314272013
 10
55.4958764327
 20
-93.6316153417
 10
54.1664980516
 20
-93.6318478918
 10
52.8945010225
 20
-93.6321231298
 10
51.6893027664
 20
-93.6324390181
 10
50.5598261496
 20
-93.6327932178
 10
49.5144334217
 20
-93.6331831065
 10
48.5608643049
 20
-93.6336057978
 10
47.7061786911
 20
-93.6340581621
 10
46.9567043737
 20
-93.6345368503
 10
46.3179901982
 20
-93.6350383183
 10
45.794764981
 20
-93.6355588534
 10
45.3909024985
 20
-93.6360946019
 10
45.1093928073
 20
-93.6366415971
 10
44.9523201065
 20
-93.6371957894
 10
44.9208473076
 20
-93.6377530757
 10
45.015207424
 20
-93.63830933
 10
45.2347018466
 20
-93.638860434
 10
45.5777055154
 20
-93.6394023075
 10
46.0416789512
 20
-93.6399309388
 10
46.6231870571
 20
-93.640442414
 10
47.3179245505
 20
-93.6409329462
 10
48.1207478381
 20
-93.6413989039
 10
49.0257130971
 20
-93.6418368371
 10
50.0261202813
 20
-93.6422435037
 10
51.1145627261
 20
-93.6426158927
 10
52.2829819843
 20
-93.6429512472
 10
53.5227274885
 20
-93.6432470842
 10
54.8246205968
 20
-93.6435012136
 10
56.1790225481
 20
-93.6437117538
 10
57.5759058242
 20
-93.643877146
 10
59.0049283901
 20
-93.6439961659
 10
60.4555102627
 20
-93.6440679321
 10
61.9169118412
 20
-93.6440919133
  0
ARC
  5
261
330
1F
100
AcDbEntity
  8
0
  6
Continuous
 62
     7
370
    15
100
AcDbCircle
 10
95.9510730516
 20
-18.6380933151
 30
0.0
 40
18.15547758363476
100
AcDbArc
 50
155.6566454378
 51
204.3979799241
  0
SPLINE
  5
262
330
1F
100
AcDbEntity
  8
0
  6
Continuous
 62
     7
370
    15
100
AcDbSpline
210
0.0
220
0.0
230
1.0
 70
     8
 71
     3
 72
    27
 73
    23
 74
     0
 42
0.000000001
 43
0.00000001
 40
0.0
 40
0.0
 40
0.0
 40
0.0
 40
0.0497373915189308
 40
0.1009927630590872
 40
0.1507112220817551
 40
0.2017508821158032
 40
0.2538734929542024
 40
0.307358477962197
 40
0.3620756668264078
 40
0.4185371021202685
 40
0.4704177328658258
 40
0.5240832595203399
 40
0.571851657645919
 40
0.6209561794773889
 40
0.6698657057467498
 40
0.7199738814688569
 40
0.7732210225441067
 40
0.8279294846558698
 40
0.8823852543939698
 40
0.9386416525575529
 40
0.9894907107409585
 40
1.0
 40
1.0
 40
1.0
 40
1.0
 10
44.4169118412125
 20
-61.13761604933232
 30
0.0
 10
44.42473666787681
 20
-61.15563190355123
 30
0.0
 10
44.44062513410218
 20
-61.1922134539879
 30
0.0
 10
44.56530845135067
 20
-61.48704396756369
 30
0.0
 10
44.75197525487935
 20
-61.94924992983194
 30
0.0
 10
44.99045361454152
 20
-62.58170659265373
 30
0.0
 10
45.26270550448914
 20
-63.3825170578704
 30
0.0
 10
45.54387281549931
 20
-64.34450721065814
 30
0.0
 10
45.80405676741296
 20
-65.46078255816286
 30
0.0
 10
46.00015745374086
 20
-66.6713525958095
 30
0.0
 10
46.10698515646919
 20
-67.9403702142898
 30
0.0
 10
46.11210400850687
 20
-69.1656521158823
 30
0.0
 10
46.02588974923494
 20
-70.34976346356787
 30
0.0
 10
45.86869252447001
 20
-71.4488423838875
 30
0.0
 10
45.65211686128703
 20
-72.48955989025724
 30
0.0
 10
45.39399949009021
 20
-73.45932736838311
 30
0.0
 10
45.11432806174917
 20
-74.33892021193758
 30
0.0
 10
44.84496554621331
 20
-75.0841461187082
 30
0.0
 10
44.61555846757982
 20
-75.66482346508259
 30
0.0
 10
44.47155760969564
 20
-76.00972565348584
 30
0.0
 10
44.40878951887078
 20
-76.15641291076358
 30
0.0
 10
44.42182212694124
 20
-76.12609279635177
 30
0.0
 10
44.42405431626381
 20
-76.1208996504148
 30
0.0
  0
SPLINE
  5
263
330
1F
100
AcDbEntity
  8
0
  6
Continuous
 62
     7
370
    15
100
AcDbSpline
210
0.0
220
0.0
230
1.0
 70
     8
 71
     3
 72
    27
 73
    23
 74
     0
 42
0.000000001
 43
0.00000001
 40
0.0
 40
0.0
 40
0.0
 40
0.0
 40
0.0497373915189303
 40
0.1009927630590833
 40
0.1507112220817583
 40
0.2017508821158032
 40
0.2538734929542042
 40
0.3073584779621963
 40
0.3620756668264132
 40
0.4185371021202734
 40
0.4704177328658289
 40
0.5240832595203423
 40
0.5718516576459219
 40
0.6209561794773915
 40
0.6698657057467515
 40
0.7199738814688594
 40
0.7732210225441081
 40
0.8279294846558737
 40
0.8823852543939671
 40
0.938641652557553
 40
0.9894907107409586
 40
1.0
 40
1.0
 40
1.0
 40
1.0
 10
44.41691184121423
 20
-11.13761967972879
 30
0.0
 10
44.42473666787853
 20
-11.15563553394765
 30
0.0
 10
44.4406251341039
 20
-11.1922170843842
 30
0.0
 10
44.56530845135242
 20
-11.48704759796006
 30
0.0
 10
44.75197525488105
 20
-11.94925356022828
 30
0.0
 10
44.99045361454326
 20
-12.58171022305008
 30
0.0
 10
45.26270550449084
 20
-13.38252068826684
 30
0.0
 10
45.54387281550106
 20
-14.34451084105453
 30
0.0
 10
45.80405676741467
 20
-15.46078618855919
 30
0.0
 10
46.00015745374259
 20
-16.67135622620593
 30
0.0
 10
46.10698515647092
 20
-17.9403738446862
 30
0.0
 10
46.11210400850858
 20
-19.1656557462787
 30
0.0
 10
46.02588974923668
 20
-20.34976709396427
 30
0.0
 10
45.86869252447174
 20
-21.44884601428384
 30
0.0
 10
45.65211686128875
 20
-22.48956352065372
 30
0.0
 10
45.39399949009194
 20
-23.45933099877941
 30
0.0
 10
45.11432806175088
 20
-24.33892384233403
 30
0.0
 10
44.84496554621506
 20
-25.08414974910452
 30
0.0
 10
44.61555846758153
 20
-25.66482709547907
 30
0.0
 10
44.47155760969736
 20
-26.00972928388211
 30
0.0
 10
44.40878951887252
 20
-26.15641654115987
 30
0.0
 10
44.42182212694296
 20
-26.12609642674812
 30
0.0
 10
44.42405431626553
 20
-26.12090328081114
 30
0.0
  0
ARC
  5
264
330
1F
100
AcDbEntity
  8
0
  6
Continuous
 62
     7
370
    15
100
AcDbCircle
 10
95.9510730516
 20
-68.6380896847
 30
0.0
 40
18.15547758363532
100
AcDbArc
 50
155.6566454378
 51
204.3979799241
  0
LWPOLYLINE
  5
265
330
1F
100
AcDbEntity
  8
0
  6
Continuous
 62
     7
370
    15
100
AcDbPolyline
 90
       40
 70
   128
 43
0.0
 10
79.4169118412
 20
25.8623776338
 10
79.413073802
 20
25.8625172937
 10
79.3210450102
 20
25.863074709
 10
79.106938729
 20
25.8636272347
 10
78.7722567602
 20
25.8641709954
 10
78.3193466573
 20
25.864702177
 10
77.7513852594
 20
25.8652170536
 10
77.0723564074
 20
25.8657120136
 10
76.2870230011
 20
25.8661835854
 10
75.4008935898
 20
25.8666284612
 10
74.4201837348
 20
25.8670435205
 10
73.351772411
 20
25.8674258519
 10
72.2031537563
 20
25.8677727737
 10
70.9823845052
 20
25.8680818525
 10
69.698027477
 20
25.8683509203
 10
68.3590915132
 20
25.8685780898
 10
66.9749682877
 20
25.8687617675
 10
65.5553664305
 20
25.8689006651
 10
64.1102434286
 20
25.8689938084
 10
62.6497357815
 20
25.8690405439
 10
61.184087901
 20
25.8690405439
 10
59.7235802538
 20
25.8689938084
 10
58.2784572519
 20
25.8689006651
 10
56.8588553947
 20
25.8687617675
 10
55.4747321692
 20
25.8685780898
 10
54.1357962055
 20
25.8683509203
 10
52.8514391772
 20
25.8680818525
 10
51.6306699261
 20
25.8677727737
 10
50.4820512714
 20
25.8674258519
 10
49.4136399476
 20
25.8670435205
 10
48.4329300926
 20
25.8666284612
 10
47.5468006814
 20
25.8661835854
 10
46.761467275
 20
25.8657120136
 10
46.0824384231
 20
25.8652170536
 10
45.5144770251
 20
25.864702177
 10
45.0615669223
 20
25.8641709955
 10
44.7268849535
 20
25.8636272347
 10
44.5127786723
 20
25.863074709
 10
44.4207498804
 20
25.8625172937
 10
44.4169118412
 20
25.8623776338
  0
SPLINE
  5
266
330
1F
100
AcDbEntity
  8
0
  6
Continuous
 62
     7
370
    15
100
AcDbSpline
210
0.0
220
0.0
230
1.0
 70
     8
 71
     3
 72
     9
 73
     5
 74
     0
 42
0.000000001
 43
0.00000001
 40
0.0
 40
0.0
 40
0.0
 40
0.0
 40
0.9437872463705624
 40
0.9999999999999999
 40
0.9999999999999999
 40
0.9999999999999999
 40
0.9999999999999999
 10
71.9151578821832
 20
-43.6320920599322
 30
0.0
 10
71.91948017596606
 20
-43.84916782889409
 30
0.0
 10
71.92405990916276
 20
-44.07917281126345
 30
0.0
 10
71.8925099021572
 20
-44.30477335587481
 30
0.0
 10
71.89073638938639
 20
-44.31745498370772
 30
0.0
  0
LINE
  5
267
330
1F
100
AcDbEntity
  8
0
  6
Continuous
 62
     7
370
    15
100
AcDbLine
 10
53.4719939739
 20
-48.9770817476
 30
0.0
 11
53.3776716646
 21
-48.8184674267
 31
0.0
  0
SPLINE
  5
268
330
1F
100
AcDbEntity
  8
0
  6
Continuous
 62
     7
370
    15
100
AcDbSpline
210
0.0
220
0.0
230
1.0
 70
     8
 71
     3
 72
    10
 73
     6
 74
     0
 42
0.000000001
 43
0.00000001
 40
0.0
 40
0.0
 40
0.0
 40
0.0
 40
0.0592371781795739
 40
0.748308284056668
 40
1.0
 40
1.0
 40
1.0
 40
1.0
 10
51.97737155136991
 20
-44.69056969555772
 30
0.0
 10
51.9737424340693
 20
-44.6700632572726
 30
0.0
 10
51.92789793871494
 20
-44.41101753435278
 30
0.0
 10
51.91759190591645
 20
-44.05389051650662
 30
0.0
 10
51.92169121431601
 20
-43.72120133651988
 30
0.0
 10
51.92278794341855
 20
-43.63219366248721
 30
0.0
  0
SPLINE
  5
269
330
1F
100
AcDbEntity
  8
0
  6
Continuous
 62
     7
370
    15
100
AcDbSpline
210
0.0
220
0.0
230
1.0
 70
     8
 71
     3
 72
    14
 73
    10
 74
     0
 42
0.000000001
 43
0.00000001
 40
0.0
 40
0.0
 40
0.0
 40
0.0
 40
0.126502494472521
 40
0.2774819716749173
 40
0.4343971421911734
 40
0.5929197646191939
 40
0.7483167115381615
 40
0.894606787111859
 40
1.0
 40
1.0
 40
1.0
 40
1.0
 10
79.2970656129574
 20
-45.70073321523481
 30
0.0
 10
79.2754095443229
 20
-45.46801342368857
 30
0.0
 10
79.22790717175322
 20
-44.95754486039831
 30
0.0
 10
79.18521724819065
 20
-43.98080187658028
 30
0.0
 10
79.19511149884181
 20
-42.9106000159027
 30
0.0
 10
79.25942001218681
 20
-41.90231496021817
 30
0.0
 10
79.34409241110937
 20
-41.12637105177357
 30
0.0
 10
79.40824288653614
 20
-40.67005548163085
 30
0.0
 10
79.41156353344402
 20
-40.64874246239628
 30
0.0
 10
79.41295406536466
 20
-40.63981756481088
 30
0.0
  0
SPLINE
  5
26A
330
1F
100
AcDbEntity
  8
0
  6
Continuous
 62
     7
370
    15
100
AcDbSpline
210
0.0
220
0.0
230
1.0
 70
     8
 71
     3
 72
    10
 73
     6
 74
     0
 42
0.000000001
 43
0.00000001
 40
0.0
 40
0.0
 40
0.0
 40
0.0
 40
0.329592069050113
 40
0.7006640139472079
 40
1.0
 40
1.0
 40
1.0
 40
1.0
 10
79.41462054481102
 20
-46.64681902115674
 30
0.0
 10
79.41218994384423
 20
-46.6302026096293
 30
0.0
 10
79.40702284551382
 20
-46.59487857518949
 30
0.0
 10
79.35513786014907
 20
-46.23136672470695
 30
0.0
 10
79.31499107610311
 20
-45.86452667003122
 30
0.0
 10
79.2970656061997
 20
-45.70073321768582
 30
0.0
  0
LWPOLYLINE
  5
26B
330
1F
100
AcDbEntity
  8
0
  6
Continuous
 62
     7
370
    15
100
AcDbPolyline
 90
       38
 70
   128
 43
0.0
 10
44.9169130756
 20
26.3623800661
 10
44.9523201065
 20
26.3627954976
 10
45.1093928073
 20
26.3633496899
 10
45.3909024985
 20
26.3638966852
 10
45.794764981
 20
26.3644324336
 10
46.3179901982
 20
26.3649529688
 10
46.9567043737
 20
26.3654544368
 10
47.7061786911
 20
26.365933125
 10
48.5608643049
 20
26.3663854892
 10
49.5144334217
 20
26.3668081805
 10
50.5598261496
 20
26.3671980693
 10
51.6893027664
 20
26.367552269
 10
52.8945010225
 20
26.3678681572
 10
54.1664980516
 20
26.3681433953
 10
55.4958764327
 20
26.3683759454
 10
56.8727939136
 20
26.3685640858
 10
58.2870562787
 20
26.3687064236
 10
59.7281928245
 20
26.368801905
 10
61.1855338801
 20
26.3688498231
 10
62.6482898023
 20
26.3688498231
 10
64.1056308579
 20
26.368801905
 10
65.5467674037
 20
26.3687064236
 10
66.9610297689
 20
26.3685640858
 10
68.3379472497
 20
26.3683759454
 10
69.6673256309
 20
26.3681433953
 10
70.93932266
 20
26.3678681572
 10
72.144520916
 20
26.367552269
 10
73.2739975328
 20
26.3671980693
 10
74.3193902607
 20
26.3668081805
 10
75.2729593776
 20
26.3663854892
 10
76.1276449913
 20
26.365933125
 10
76.8771193088
 20
26.3654544368
 10
77.5158334842
 20
26.3649529688
 10
78.0390587014
 20
26.3644324336
 10
78.4429211839
 20
26.3638966852
 10
78.7244308752
 20
26.3633496899
 10
78.8815035759
 20
26.3627954976
 10
78.9169106069
 20
26.3623800661
  0
LWPOLYLINE
  5
26C
330
1F
100
AcDbEntity
  8
0
  6
Continuous
 62
     7
370
    15
100
AcDbPolyline
 90
       21
 70
   128
 43
0.0
 10
57.4175141034
 20
46.3624042001
 10
57.4322816227
 20
46.3625177544
 10
57.5546106445
 20
46.3627971097
 10
57.7959318713
 20
46.3630649822
 10
58.149662689
 20
46.3633140651
 10
58.6061542432
 20
46.363537564
 10
59.1529546341
 20
46.3637293823
 10
59.7751485725
 20
46.363884288
 10
60.4557642298
 20
46.3639980554
 10
61.176236185
 20
46.3640675813
 10
61.9169118412
 20
46.3640909692
 10
62.6575874975
 20
46.3640675813
 10
63.3780594526
 20
46.3639980554
 10
64.0586751099
 20
46.363884288
 10
64.6808690483
 20
46.3637293823
 10
65.2276694392
 20
46.363537564
 10
65.6841609934
 20
46.3633140651
 10
66.0378918112
 20
46.3630649822
 10
66.2792130379
 20
46.3627971097
 10
66.4015420597
 20
46.3625177544
 10
66.4162985121
 20
46.3624044566
  0
CIRCLE
  5
26D
330
1F
100
AcDbEntity
  8
0
  6
Continuous
 62
     7
370
    15
100
AcDbCircle
 10
61.916911405
 20
-43.6280902073
 30
0.0
 40
7.999999632951962
  0
CIRCLE
  5
26E
330
1F
100
AcDbEntity
  8
0
  6
Continuous
 62
     7
370
    15
100
AcDbCircle
 10
61.9169113255
 20
-43.6288521945
 30
0.0
 40
9.999999607628844
  0
ARC
  5
26F
330
1F
100
AcDbEntity
  8
0
  6
Continuous
 62
     7
370
    15
100
AcDbCircle
 10
61.9169144048
 20
-43.6604816391
 30
0.0
 40
17.99999743601001
100
AcDbArc
 50
346.4637962993
 51
13.5362037007
  0
ARC
  5
270
330
1F
100
AcDbEntity
  8
0
  6
Continuous
 62
     7
370
    15
100
AcDbCircle
 10
61.9169092776
 20
-43.6604816391
 30
0.0
 40
17.99999743600935
100
AcDbArc
 50
166.4637962993
 51
193.5362037007
  0
ARC
  5
271
330
1F
100
AcDbEntity
  8
0
  6
Continuous
 62
     7
370
    15
100
AcDbCircle
 10
61.9169143918
 20
-43.6623869958
 30
0.0
 40
17.99999744939095
100
AcDbArc
 50
346.4637962991
 51
359.9999999898
  0
ARC
  5
272
330
1F
100
AcDbEntity
  8
0
  6
Continuous
 62
     7
370
    15
100
AcDbCircle
 10
61.9169093003
 20
-43.6623869946
 30
0.0
 40
17.99999745909943
100
AcDbArc
 50
180.0000000138
 51
193.5362036972
  0
LINE
  5
273
330
1F
100
AcDbEntity
  8
0
  6
Continuous
 62
     7
370
    15
100
AcDbLine
 10
43.9185053867
 20
-43.6620297244
 30
0.0
 11
43.9181653642
 21
-43.7286705179
 31
0.0
  0
SPLINE
  5
274
330
1F
100
AcDbEntity
  8
0
  6
Continuous
 62
     7
370
    15
100
AcDbSpline
210
0.0
220
0.0
230
1.0
 70
     8
 71
     3
 72
    13
 73
     9
 74
     0
 42
0.000000001
 43
0.00000001
 40
0.0
 40
0.0
 40
0.0
 40
0.0
 40
0.119962476184567
 40
0.2968649000292351
 40
0.4742784270864783
 40
0.6522219117393384
 40
0.8298889065785857
 40
1.0
 40
1.0
 40
1.0
 40
1.0
 10
44.04654460834615
 20
-45.81776072036142
 30
0.0
 10
44.04651204317089
 20
-45.8175711268532
 30
0.0
 10
44.04643145582555
 20
-45.81710194966
 30
0.0
 10
44.02138737113246
 20
-45.60553844307923
 30
0.0
 10
43.98409069369054
 20
-45.23542265285101
 30
0.0
 10
43.94682785037704
 20
-44.74097752240245
 30
0.0
 10
43.92111757049081
 20
-44.1886117667137
 30
0.0
 10
43.9185003160372
 20
-43.83419448402424
 30
0.0
 10
43.9172201203265
 20
-43.66083591567027
 30
0.0
  0
ARC
  5
275
330
1F
100
AcDbEntity
  8
0
  6
Continuous
 62
     7
370
    15
100
AcDbCircle
 10
61.9169143889
 20
-43.6642923554
 30
0.0
 40
17.99999745230886
100
AcDbArc
 50
346.4637963002
 51
359.9999999887
  0
ARC
  5
276
330
1F
100
AcDbEntity
  8
0
  6
Continuous
 62
     7
370
    15
100
AcDbCircle
 10
61.9169092935
 20
-43.6642923554
 30
0.0
 40
17.99999745230866
100
AcDbArc
 50
180.0000000113
 51
193.5362036998
  0
LINE
  5
277
330
1F
100
AcDbEntity
  8
0
  6
Continuous
 62
     8
370
    15
100
AcDbLine
 10
79.6169118412
 20
-25.1376191352
 30
0.0
 11
79.6169118412
 21
-12.1376191352
 31
0.0
  0
LINE
  5
278
330
1F
100
AcDbEntity
  8
0
  6
Continuous
 62
     8
370
    15
100
AcDbLine
 10
79.6169118412
 20
-75.1376155048
 30
0.0
 11
79.6169118412
 21
-62.1376155048
 31
0.0
  0
LWPOLYLINE
  5
279
330
1F
100
AcDbEntity
  8
0
  6
Continuous
 62
     8
370
    15
100
AcDbPolyline
 90
       26
 70
   128
 43
0.0
 10
69.4169118412
 20
43.3623763631
 10
69.3822551883
 20
43.3626508008
 10
69.2288711826
 20
43.3630123368
 10
68.9554250066
 20
43.3633634302
 10
68.566406639
 20
43.363698316
 10
68.0682037507
 20
43.3640114954
 10
67.4689968193
 20
43.3642978259
 10
66.778624806
 20
43.3645526061
 10
66.0084236003
 20
43.3647716524
 10
65.1710398846
 20
43.3649513681
 10
64.2802234764
 20
43.3650888023
 10
63.3506015565
 20
43.3651816984
 10
62.3974384911
 20
43.3652285309
 10
61.4363851914
 20
43.3652285309
 10
60.483222126
 20
43.3651816984
 10
59.553600206
 20
43.3650888023
 10
58.6627837978
 20
43.3649513681
 10
57.8254000821
 20
43.3647716524
 10
57.0551988764
 20
43.3645526061
 10
56.3648268632
 20
43.3642978259
 10
55.7656199317
 20
43.3640114954
 10
55.2674170434
 20
43.363698316
 10
54.8783986758
 20
43.3633634302
 10
54.6049524999
 20
43.3630123368
 10
54.4515684941
 20
43.3626508008
 10
54.4169118412
 20
43.3623763631
  0
LINE
  5
27A
330
1F
100
AcDbEntity
  8
0
  6
Continuous
 62
     7
370
    15
100
AcDbLine
 10
293.5451059109
 20
147.4009637357
 30
0.0
 11
294.9902556662
 21
147.4009637357
 31
0.0
  0
LINE
  5
27B
330
1F
100
AcDbEntity
  8
0
  6
Continuous
 62
     7
370
    15
100
AcDbLine
 10
295.000622499
 20
160.4009637357
 30
0.0
 11
293.5451059109
 21
160.4009637357
 31
0.0
  0
ARC
  5
27C
330
1F
100
AcDbEntity
  8
0
  6
Continuous
 62
     7
370
    15
100
AcDbCircle
 10
293.5451059109
 20
148.2009637357
 30
0.0
 40
0.8000000000000114
100
AcDbArc
 50
180.0
 51
270.0
  0
ARC
  5
27D
330
1F
100
AcDbEntity
  8
0
  6
Continuous
 62
     7
370
    15
100
AcDbCircle
 10
293.5451059109
 20
159.6009637357
 30
0.0
 40
0.7999999999999545
100
AcDbArc
 50
90.0
 51
180.0
  0
LINE
  5
27E
330
1F
100
AcDbEntity
  8
0
  6
Continuous
 62
     7
370
    15
100
AcDbLine
 10
295.000622499
 20
160.4200173349
 30
0.0
 11
293.5451059109
 21
160.4200173349
 31
0.0
  0
ARC
  5
27F
330
1F
100
AcDbEntity
  8
0
  6
Continuous
 62
     7
370
    15
100
AcDbCircle
 10
293.5451059109
 20
159.6200173349
 30
0.0
 40
0.799999999999983
100
AcDbArc
 50
90.0
 51
180.0
  0
LINE
  5
280
330
1F
100
AcDbEntity
  8
0
  6
Continuous
 62
     7
370
    15
100
AcDbLine
 10
331.7451059109
 20
171.4009637357
 30
0.0
 11
329.7451059109
 21
171.4009637357
 31
0.0
  0
LINE
  5
281
330
1F
100
AcDbEntity
  8
0
  6
Continuous
 62
     7
370
    15
100
AcDbLine
 10
329.7451059109
 20
136.4009637357
 30
0.0
 11
331.7451059109
 21
136.4009637357
 31
0.0
  0
LINE
  5
282
330
1F
100
AcDbEntity
  8
0
  6
Continuous
 62
     7
370
    15
100
AcDbLine
 10
329.7451059109
 20
162.4009637357
 30
0.0
 11
328.7451059109
 21
161.4009637357
 31
0.0
  0
LINE
  5
283
330
1F
100
AcDbEntity
  8
0
  6
Continuous
 62
     7
370
    15
100
AcDbLine
 10
328.7451059109
 20
146.4009637357
 30
0.0
 11
329.7451059109
 21
145.4009637357
 31
0.0
  0
LINE
  5
284
330
1F
100
AcDbEntity
  8
0
  6
Continuous
 62
     7
370
    15
100
AcDbLine
 10
328.7451059109
 20
161.4009637357
 30
0.0
 11
327.05649447
 21
161.4009637357
 31
0.0
  0
LINE
  5
285
330
1F
100
AcDbEntity
  8
0
  6
Continuous
 62
     7
370
    15
100
AcDbLine
 10
327.0645265657
 20
146.4009637357
 30
0.0
 11
328.7451059109
 21
146.4009637357
 31
0.0
  0
LINE
  5
286
330
1F
100
AcDbEntity
  8
0
  6
Continuous
 62
     7
370
    15
100
AcDbLine
 10
331.7451059109
 20
171.4200173349
 30
0.0
 11
329.7451059109
 21
171.4200173349
 31
0.0
  0
LINE
  5
287
330
1F
100
AcDbEntity
  8
0
  6
Continuous
 62
     7
370
    15
100
AcDbLine
 10
329.7451059109
 20
162.4200173349
 30
0.0
 11
328.7451059109
 21
161.4200173349
 31
0.0
  0
LINE
  5
288
330
1F
100
AcDbEntity
  8
0
  6
Continuous
 62
     7
370
    15
100
AcDbLine
 10
328.7451059109
 20
161.4200173349
 30
0.0
 11
327.05649447
 21
161.4200173349
 31
0.0
  0
LINE
  5
289
330
1F
100
AcDbEntity
  8
0
  6
Continuous
 62
     7
370
    15
100
AcDbLine
 10
332.7451059109
 20
171.4200173349
 30
0.0
 11
331.7451059109
 21
171.4200173349
 31
0.0
  0
LINE
  5
28A
330
1F
100
AcDbEntity
  8
0
  6
Continuous
 62
     7
370
    15
100
AcDbLine
 10
336.7451059109
 20
163.9200173349
 30
0.0
 11
332.7451059109
 21
163.9200173349
 31
0.0
  0
LINE
  5
28B
330
1F
100
AcDbEntity
  8
0
  6
Continuous
 62
     7
370
    15
100
AcDbLine
 10
331.7451059109
 20
136.4009637357
 30
0.0
 11
332.7451059109
 21
136.4009637357
 31
0.0
  0
LINE
  5
28C
330
1F
100
AcDbEntity
  8
0
  6
Continuous
 62
     7
370
    15
100
AcDbLine
 10
332.7451059109
 20
171.4009637357
 30
0.0
 11
331.7451059109
 21
171.4009637357
 31
0.0
  0
LINE
  5
28D
330
1F
100
AcDbEntity
  8
0
  6
Continuous
 62
     7
370
    15
100
AcDbLine
 10
332.7451059109
 20
143.9009637357
 30
0.0
 11
336.7451059109
 21
143.9009637357
 31
0.0
  0
LINE
  5
28E
330
1F
100
AcDbEntity
  8
0
  6
Continuous
 62
     7
370
    15
100
AcDbLine
 10
336.7451059109
 20
163.9009637357
 30
0.0
 11
332.7451059109
 21
163.9009637357
 31
0.0
  0
LINE
  5
28F
330
1F
100
AcDbEntity
  8
0
  6
Continuous
 62
     7
370
    15
100
AcDbLine
 10
343.7451059109
 20
171.4200173349
 30
0.0
 11
342.7451059109
 21
171.4200173349
 31
0.0
  0
LINE
  5
290
330
1F
100
AcDbEntity
  8
0
  6
Continuous
 62
     7
370
    15
100
AcDbLine
 10
342.7451059109
 20
163.9200173349
 30
0.0
 11
338.7451059109
 21
163.9200173349
 31
0.0
  0
LINE
  5
291
330
1F
100
AcDbEntity
  8
0
  6
Continuous
 62
     7
370
    15
100
AcDbLine
 10
343.7451059109
 20
171.4009637357
 30
0.0
 11
342.7451059109
 21
171.4009637357
 31
0.0
  0
LINE
  5
292
330
1F
100
AcDbEntity
  8
0
  6
Continuous
 62
     7
370
    15
100
AcDbLine
 10
342.7451059109
 20
136.4009637357
 30
0.0
 11
343.7451059109
 21
136.4009637357
 31
0.0
  0
LINE
  5
293
330
1F
100
AcDbEntity
  8
0
  6
Continuous
 62
     7
370
    15
100
AcDbLine
 10
342.7451059109
 20
163.9009637357
 30
0.0
 11
338.7451059109
 21
163.9009637357
 31
0.0
  0
LINE
  5
294
330
1F
100
AcDbEntity
  8
0
  6
Continuous
 62
     7
370
    15
100
AcDbLine
 10
338.7451059109
 20
143.9009637357
 30
0.0
 11
342.7451059109
 21
143.9009637357
 31
0.0
  0
LINE
  5
295
330
1F
100
AcDbEntity
  8
0
  6
Continuous
 62
     7
370
    15
100
AcDbLine
 10
346.5451059109
 20
169.4200173349
 30
0.0
 11
344.5451059109
 21
171.4200173349
 31
0.0
  0
LINE
  5
296
330
1F
100
AcDbEntity
  8
0
  6
Continuous
 62
     7
370
    15
100
AcDbLine
 10
344.5451059109
 20
171.4200173349
 30
0.0
 11
343.7451059109
 21
171.4200173349
 31
0.0
  0
LINE
  5
297
330
1F
100
AcDbEntity
  8
0
  6
Continuous
 62
     7
370
    15
100
AcDbLine
 10
338.7451059109
 20
161.9200173349
 30
0.0
 11
336.7451059109
 21
161.9200173349
 31
0.0
  0
LINE
  5
298
330
1F
100
AcDbEntity
  8
0
  6
Continuous
 62
     7
370
    15
100
AcDbLine
 10
344.5451059109
 20
136.4009637357
 30
0.0
 11
346.5451059109
 21
138.4009637357
 31
0.0
  0
LINE
  5
299
330
1F
100
AcDbEntity
  8
0
  6
Continuous
 62
     7
370
    15
100
AcDbLine
 10
346.5451059109
 20
169.4009637357
 30
0.0
 11
344.5451059109
 21
171.4009637357
 31
0.0
  0
LINE
  5
29A
330
1F
100
AcDbEntity
  8
0
  6
Continuous
 62
     7
370
    15
100
AcDbLine
 10
344.5451059109
 20
171.4009637357
 30
0.0
 11
343.7451059109
 21
171.4009637357
 31
0.0
  0
LINE
  5
29B
330
1F
100
AcDbEntity
  8
0
  6
Continuous
 62
     7
370
    15
100
AcDbLine
 10
343.7451059109
 20
136.4009637357
 30
0.0
 11
344.5451059109
 21
136.4009637357
 31
0.0
  0
LINE
  5
29C
330
1F
100
AcDbEntity
  8
0
  6
Continuous
 62
     7
370
    15
100
AcDbLine
 10
338.7451059109
 20
161.9009637357
 30
0.0
 11
336.7451059109
 21
161.9009637357
 31
0.0
  0
LINE
  5
29D
330
1F
100
AcDbEntity
  8
0
  6
Continuous
 62
     7
370
    15
100
AcDbLine
 10
336.7451059109
 20
145.9009637357
 30
0.0
 11
338.7451059109
 21
145.9009637357
 31
0.0
  0
LINE
  5
29E
330
1F
100
AcDbEntity
  8
0
  6
Continuous
 62
     7
370
    15
100
AcDbLine
 10
303.7451059109
 20
153.8838154969
 30
0.0
 11
303.7451059109
 21
153.8773372731
 31
0.0
  0
LINE
  5
29F
330
1F
100
AcDbEntity
  8
0
  6
Continuous
 62
     7
370
    15
100
AcDbLine
 10
318.7451059109
 20
153.877337272
 30
0.0
 11
318.7451059109
 21
153.8838154958
 31
0.0
  0
LINE
  5
2A0
330
1F
100
AcDbEntity
  8
0
  6
Continuous
 62
     7
370
    15
100
AcDbLine
 10
293.7451059109
 20
153.8981120667
 30
0.0
 11
293.7451059109
 21
153.8840060336
 31
0.0
  0
LINE
  5
2A1
330
1F
100
AcDbEntity
  8
0
  6
Continuous
 62
     7
370
    15
100
AcDbLine
 10
328.7451059109
 20
153.8840060311
 30
0.0
 11
328.7451059109
 21
153.8981056945
 31
0.0
  0
LINE
  5
2A2
330
1F
100
AcDbEntity
  8
0
  6
Continuous
 62
     7
370
    15
100
AcDbLine
 10
329.2451046039
 20
93.9104975056
 30
0.0
 11
321.2451051848
 21
101.9104957631
 31
0.0
  0
LINE
  5
2A3
330
1F
100
AcDbEntity
  8
0
  6
Continuous
 62
     7
370
    15
100
AcDbLine
 10
301.245106637
 20
101.9104957631
 30
0.0
 11
293.2451072178
 21
93.9104975056
 31
0.0
  0
LINE
  5
2A4
330
1F
100
AcDbEntity
  8
0
  6
Continuous
 62
     7
370
    15
100
AcDbLine
 10
293.2451059109
 20
93.9104948918
 30
0.0
 11
293.2451059109
 21
88.9104952548
 31
0.0
  0
LINE
  5
2A5
330
1F
100
AcDbEntity
  8
0
  6
Continuous
 62
     7
370
    15
100
AcDbLine
 10
329.2451059109
 20
92.969538775
 30
0.0
 11
329.2451059109
 21
93.9104948918
 31
0.0
  0
LINE
  5
2A6
330
1F
100
AcDbEntity
  8
0
  6
Continuous
 62
     7
370
    15
100
AcDbLine
 10
329.2451059109
 20
88.9104952548
 30
0.0
 11
329.2451059109
 21
89.8693865638
 31
0.0
  0
LINE
  5
2A7
330
1F
100
AcDbEntity
  8
0
  6
Continuous
 62
     7
370
    15
100
AcDbLine
 10
321.2451051848
 20
176.9104903175
 30
0.0
 11
319.24510533
 21
178.9104898818
 31
0.0
  0
LINE
  5
2A8
330
1F
100
AcDbEntity
  8
0
  6
Continuous
 62
     7
370
    15
100
AcDbLine
 10
303.2451064917
 20
178.9104898818
 30
0.0
 11
301.245106637
 21
176.9104903175
 31
0.0
  0
LINE
  5
2A9
330
1F
100
AcDbEntity
  8
0
  6
Continuous
 62
     7
370
    15
100
AcDbLine
 10
301.2451059109
 20
176.9104888653
 30
0.0
 11
301.2451059109
 21
168.2718961089
 31
0.0
  0
LINE
  5
2AA
330
1F
100
AcDbEntity
  8
0
  6
Continuous
 62
     7
370
    15
100
AcDbLine
 10
301.2451059109
 20
139.5226004587
 30
0.0
 11
301.2451059109
 21
101.9104943109
 31
0.0
  0
LINE
  5
2AB
330
1F
100
AcDbEntity
  8
0
  6
Continuous
 62
     7
370
    15
100
AcDbLine
 10
321.2451059109
 20
101.9104943109
 30
0.0
 11
321.2451059109
 21
139.5226004587
 31
0.0
  0
LINE
  5
2AC
330
1F
100
AcDbEntity
  8
0
  6
Continuous
 62
     7
370
    15
100
AcDbLine
 10
321.2451059109
 20
168.2718961089
 30
0.0
 11
321.2451059109
 21
176.9104888653
 31
0.0
  0
LINE
  5
2AD
330
1F
100
AcDbEntity
  8
0
  6
Continuous
 62
     7
370
    15
100
AcDbLine
 10
293.2451059109
 20
88.9104952548
 30
0.0
 11
293.2451059109
 21
83.9104956178
 31
0.0
  0
LINE
  5
2AE
330
1F
100
AcDbEntity
  8
0
  6
Continuous
 62
     7
370
    15
100
AcDbLine
 10
329.2451059109
 20
83.9104956178
 30
0.0
 11
329.2451059109
 21
88.9104952548
 31
0.0
  0
LINE
  5
2AF
330
1F
100
AcDbEntity
  8
0
  6
Continuous
 62
     7
370
    15
100
AcDbLine
 10
292.7451059109
 20
148.2009637357
 30
0.0
 11
292.7451059109
 21
159.6009637357
 31
0.0
  0
LINE
  5
2B0
330
1F
100
AcDbEntity
  8
0
  6
Continuous
 62
     7
370
    15
100
AcDbLine
 10
292.7451059109
 20
159.6009637357
 30
0.0
 11
292.7451059109
 21
159.6200173349
 31
0.0
  0
LINE
  5
2B1
330
1F
100
AcDbEntity
  8
0
  6
Continuous
 62
     7
370
    15
100
AcDbLine
 10
329.7451059109
 20
171.4009637357
 30
0.0
 11
329.7451059109
 21
136.4009637357
 31
0.0
  0
LINE
  5
2B2
330
1F
100
AcDbEntity
  8
0
  6
Continuous
 62
     7
370
    15
100
AcDbLine
 10
331.7451059109
 20
171.4009637357
 30
0.0
 11
331.7451059109
 21
136.4009637357
 31
0.0
  0
LINE
  5
2B3
330
1F
100
AcDbEntity
  8
0
  6
Continuous
 62
     7
370
    15
100
AcDbLine
 10
328.7451059109
 20
146.4009637357
 30
0.0
 11
328.7451059109
 21
161.4009637357
 31
0.0
  0
LINE
  5
2B4
330
1F
100
AcDbEntity
  8
0
  6
Continuous
 62
     7
370
    15
100
AcDbLine
 10
329.7451059109
 20
171.4200173349
 30
0.0
 11
329.7451059109
 21
171.4009637357
 31
0.0
  0
LINE
  5
2B5
330
1F
100
AcDbEntity
  8
0
  6
Continuous
 62
     7
370
    15
100
AcDbLine
 10
331.7451059109
 20
171.4200173349
 30
0.0
 11
331.7451059109
 21
171.4009637357
 31
0.0
  0
LINE
  5
2B6
330
1F
100
AcDbEntity
  8
0
  6
Continuous
 62
     7
370
    15
100
AcDbLine
 10
328.7451059109
 20
161.4009637357
 30
0.0
 11
328.7451059109
 21
161.4200173349
 31
0.0
  0
LINE
  5
2B7
330
1F
100
AcDbEntity
  8
0
  6
Continuous
 62
     7
370
    15
100
AcDbLine
 10
332.7451059109
 20
171.4009637357
 30
0.0
 11
332.7451059109
 21
171.4200173349
 31
0.0
  0
LINE
  5
2B8
330
1F
100
AcDbEntity
  8
0
  6
Continuous
 62
     7
370
    15
100
AcDbLine
 10
336.7451059109
 20
163.9009637357
 30
0.0
 11
336.7451059109
 21
163.9200173349
 31
0.0
  0
LINE
  5
2B9
330
1F
100
AcDbEntity
  8
0
  6
Continuous
 62
     7
370
    15
100
AcDbLine
 10
332.7451059109
 20
136.4009637357
 30
0.0
 11
332.7451059109
 21
171.4009637357
 31
0.0
  0
LINE
  5
2BA
330
1F
100
AcDbEntity
  8
0
  6
Continuous
 62
     7
370
    15
100
AcDbLine
 10
336.7451059109
 20
143.9009637357
 30
0.0
 11
336.7451059109
 21
163.9009637357
 31
0.0
  0
LINE
  5
2BB
330
1F
100
AcDbEntity
  8
0
  6
Continuous
 62
     7
370
    15
100
AcDbLine
 10
342.7451059109
 20
171.4200173349
 30
0.0
 11
342.7451059109
 21
171.4009637357
 31
0.0
  0
LINE
  5
2BC
330
1F
100
AcDbEntity
  8
0
  6
Continuous
 62
     7
370
    15
100
AcDbLine
 10
343.7451059109
 20
171.4200173349
 30
0.0
 11
343.7451059109
 21
171.4009637357
 31
0.0
  0
LINE
  5
2BD
330
1F
100
AcDbEntity
  8
0
  6
Continuous
 62
     7
370
    15
100
AcDbLine
 10
338.7451059109
 20
163.9200173349
 30
0.0
 11
338.7451059109
 21
163.9009637357
 31
0.0
  0
LINE
  5
2BE
330
1F
100
AcDbEntity
  8
0
  6
Continuous
 62
     7
370
    15
100
AcDbLine
 10
342.7451059109
 20
170.0029870045
 30
0.0
 11
342.7451059109
 21
136.4009637357
 31
0.0
  0
LINE
  5
2BF
330
1F
100
AcDbEntity
  8
0
  6
Continuous
 62
     7
370
    15
100
AcDbLine
 10
342.7451059109
 20
171.4009637357
 30
0.0
 11
342.7451059109
 21
170.0029870045
 31
0.0
  0
LINE
  5
2C0
330
1F
100
AcDbEntity
  8
0
  6
Continuous
 62
     7
370
    15
100
AcDbLine
 10
343.7451059109
 20
170.0029870045
 30
0.0
 11
343.7451059109
 21
136.4009637357
 31
0.0
  0
LINE
  5
2C1
330
1F
100
AcDbEntity
  8
0
  6
Continuous
 62
     7
370
    15
100
AcDbLine
 10
343.7451059109
 20
171.4009637357
 30
0.0
 11
343.7451059109
 21
170.0029870045
 31
0.0
  0
LINE
  5
2C2
330
1F
100
AcDbEntity
  8
0
  6
Continuous
 62
     7
370
    15
100
AcDbLine
 10
338.7451059109
 20
163.1021198893
 30
0.0
 11
338.7451059109
 21
143.9009637357
 31
0.0
  0
LINE
  5
2C3
330
1F
100
AcDbEntity
  8
0
  6
Continuous
 62
     7
370
    15
100
AcDbLine
 10
338.7451059109
 20
163.9009637357
 30
0.0
 11
338.7451059109
 21
163.1021198893
 31
0.0
  0
LINE
  5
2C4
330
1F
100
AcDbEntity
  8
0
  6
Continuous
 62
     7
370
    15
100
AcDbLine
 10
346.5451059109
 20
169.4200173349
 30
0.0
 11
346.5451059109
 21
169.4009637357
 31
0.0
  0
LINE
  5
2C5
330
1F
100
AcDbEntity
  8
0
  6
Continuous
 62
     7
370
    15
100
AcDbLine
 10
344.5451059109
 20
171.4009637357
 30
0.0
 11
344.5451059109
 21
171.4200173349
 31
0.0
  0
LINE
  5
2C6
330
1F
100
AcDbEntity
  8
0
  6
Continuous
 62
     7
370
    15
100
AcDbLine
 10
346.5451059109
 20
151.7468996668
 30
0.0
 11
346.5451059109
 21
138.4009637357
 31
0.0
  0
LINE
  5
2C7
330
1F
100
AcDbEntity
  8
0
  6
Continuous
 62
     7
370
    15
100
AcDbLine
 10
346.5451059109
 20
169.4009637357
 30
0.0
 11
346.5451059109
 21
151.7468996668
 31
0.0
  0
LINE
  5
2C8
330
1F
100
AcDbEntity
  8
0
  6
Continuous
 62
     7
370
    15
100
AcDbLine
 10
344.5451059109
 20
151.468955916
 30
0.0
 11
344.5451059109
 21
171.4009637357
 31
0.0
  0
LINE
  5
2C9
330
1F
100
AcDbEntity
  8
0
  6
Continuous
 62
     7
370
    15
100
AcDbLine
 10
344.5451059109
 20
136.4009637357
 30
0.0
 11
344.5451059109
 21
151.468955916
 31
0.0
  0
LINE
  5
2CA
330
1F
100
AcDbEntity
  8
0
  6
Continuous
 62
     7
370
    15
100
AcDbLine
 10
343.7451059109
 20
171.4009637357
 30
0.0
 11
343.7451059109
 21
136.4009637357
 31
0.0
  0
CIRCLE
  5
2CB
330
1F
100
AcDbEntity
  8
0
  6
Continuous
 62
     7
370
    15
100
AcDbCircle
 10
311.2451058765
 20
153.8761942908
 30
0.0
 40
4.499999907467668
  0
CIRCLE
  5
2CC
330
1F
100
AcDbEntity
  8
0
  6
Continuous
 62
     7
370
    15
100
AcDbCircle
 10
311.2451059566
 20
153.8773376454
 30
0.0
 40
7.499999828205944
  0
ARC
  5
2CD
330
1F
100
AcDbEntity
  8
0
  6
Continuous
 62
     7
370
    15
100
AcDbCircle
 10
311.2451059109
 20
153.8838150711
 30
0.0
 40
7.500000000000069
100
AcDbArc
 50
0.0000032443
 51
179.9999967474
  0
CIRCLE
  5
2CE
330
1F
100
AcDbEntity
  8
0
  6
Continuous
 62
     7
370
    15
100
AcDbCircle
 10
311.2451058409
 20
153.883816335
 30
0.0
 40
16.99999960432413
  0
CIRCLE
  5
2CF
330
1F
100
AcDbEntity
  8
0
  6
Continuous
 62
     7
370
    15
100
AcDbCircle
 10
311.245105981
 20
153.8840068953
 30
0.0
 40
17.49999959232184
  0
SPLINE
  5
2D0
330
1F
100
AcDbEntity
  8
0
  6
Continuous
 62
     7
370
    15
100
AcDbSpline
210
0.0
220
0.0
230
1.0
 70
     8
 71
     3
 72
    17
 73
    13
 74
     0
 42
0.000000001
 43
0.00000001
 40
0.0
 40
0.0
 40
0.0
 40
0.0
 40
0.0839582414805097
 40
0.1804597922322761
 40
0.2796072378936843
 40
0.3792606455055403
 40
0.4814215027435834
 40
0.5884816923873786
 40
0.6985246129311814
 40
0.8071406425184635
 40
0.9194556100140078
 40
0.9999999999999999
 40
0.9999999999999999
 40
0.9999999999999999
 40
0.9999999999999999
 10
293.7522483859638
 20
153.8979591507773
 30
0.0
 10
293.7548912281127
 20
154.2322218673191
 30
0.0
 10
293.7605717513905
 20
154.9506859432029
 30
0.0
 10
293.8657251834189
 20
156.0372272980129
 30
0.0
 10
294.0337451273842
 20
157.1265655221712
 30
0.0
 10
294.2593825432305
 20
158.149425804024
 30
0.0
 10
294.5231818134112
 20
159.0869584642623
 30
0.0
 10
294.8051662285166
 20
159.9159018987639
 30
0.0
 10
295.0728785728198
 20
160.5960274669269
 30
0.0
 10
295.287810589134
 20
161.0888445974068
 30
0.0
 10
295.4169900245394
 20
161.3654682940274
 30
0.0
 10
295.42386603317
 20
161.3800852875287
 30
0.0
 10
295.426737679783
 20
161.3861898231881
 30
0.0
  0
SPLINE
  5
2D1
330
1F
100
AcDbEntity
  8
0
  6
Continuous
 62
     7
370
    15
100
AcDbSpline
210
0.0
220
0.0
230
1.0
 70
     8
 71
     3
 72
    17
 73
    13
 74
     0
 42
0.000000001
 43
0.00000001
 40
0.0
 40
0.0
 40
0.0
 40
0.0
 40
0.0994537180952926
 40
0.201942753333171
 40
0.3013586144543067
 40
0.4034163180388121
 40
0.5076394645771674
 40
0.6145867824575442
 40
0.7239979861833683
 40
0.8368969440395311
 40
0.9406362328763939
 40
1.0
 40
1.0
 40
1.0
 40
1.0
 10
328.7451059108849
 20
153.8981056957705
 30
0.0
 10
328.7372810000928
 20
154.2936569214043
 30
0.0
 10
328.7213923630441
 20
155.0968315549789
 30
0.0
 10
328.5967103437317
 20
156.2599033270568
 30
0.0
 10
328.4100386781921
 20
157.3639787985872
 30
0.0
 10
328.1715789639793
 20
158.3795928271201
 30
0.0
 10
327.8992550242898
 20
159.2991622683819
 30
0.0
 10
327.6183666957095
 20
160.0933520875601
 30
0.0
 10
327.3571014474352
 20
160.7386376565998
 30
0.0
 10
327.1650652041662
 20
161.1699444174235
 30
0.0
 10
327.0619188049621
 20
161.3892501140723
 30
0.0
 10
327.0673087113333
 20
161.3780457399074
 30
0.0
 10
327.0692704473948
 20
161.3739677423815
 30
0.0
  0
SPLINE
  5
2D2
330
1F
100
AcDbEntity
  8
0
  6
Continuous
 62
     7
370
    15
100
AcDbSpline
210
0.0
220
0.0
230
1.0
 70
     8
 71
     3
 72
    11
 73
     7
 74
     0
 42
0.000000001
 43
0.00000001
 40
0.0
 40
0.0
 40
0.0
 40
0.0
 40
0.080810157517002
 40
0.4119773287351173
 40
0.7544224559624689
 40
1.0
 40
1.0
 40
1.0
 40
1.0
 10
295.0006224989933
 20
160.4200173349095
 30
0.0
 10
295.0222568087762
 20
160.4763080334133
 30
0.0
 10
295.1325504330833
 20
160.7632829919433
 30
0.0
 10
295.2855828685775
 20
161.0981147103052
 30
0.0
 10
295.4173729116988
 20
161.3862034198366
 30
0.0
 10
295.4239788312326
 20
161.3996342623267
 30
0.0
 10
295.4267376797847
 20
161.4052434224394
 30
0.0
  0
ARC
  5
2D3
330
1F
100
AcDbEntity
  8
0
  6
Continuous
 62
     7
370
    15
100
AcDbCircle
 10
311.2451069378
 20
153.9293528811
 30
0.0
 40
17.49999914624948
100
AcDbArc
 50
25.3431103336
 51
55.1500975714
  0
ARC
  5
2D4
330
1F
100
AcDbEntity
  8
0
  6
Continuous
 62
     7
370
    15
100
AcDbCircle
 10
311.2451047539
 20
153.9293530035
 30
0.0
 40
17.4999989714633
100
AcDbArc
 50
124.8499023081
 51
158.2291673601
  0
SPLINE
  5
2D5
330
1F
100
AcDbEntity
  8
0
  6
Continuous
 62
     7
370
    15
100
AcDbSpline
210
0.0
220
0.0
230
1.0
 70
     8
 71
     3
 72
    24
 73
    20
 74
     0
 42
0.000000001
 43
0.00000001
 40
0.0
 40
0.0
 40
0.0
 40
0.0
 40
0.0472658437451886
 40
0.1435602807562337
 40
0.192693648305559
 40
0.2399533022986405
 40
0.3359182754460428
 40
0.384681354030693
 40
0.4354355891176359
 40
0.5383687094547726
 40
0.5906279754565267
 40
0.6466143212422721
 40
0.703005513580483
 40
0.7607706068333415
 40
0.8190696675660643
 40
0.8627192332350778
 40
0.951429145719873
 40
0.9966304942013393
 40
1.0
 40
1.0
 40
1.0
 40
1.0
 10
311.2451059108857
 20
171.4066785447948
 30
0.0
 10
310.9917654119105
 20
171.4033604809677
 30
0.0
 10
310.2222957425256
 20
171.3932825444107
 30
0.0
 10
309.1994329801817
 20
171.2991276727027
 30
0.0
 10
308.2139840528599
 20
171.1477229745465
 30
0.0
 10
307.2596758424838
 20
170.9588755652086
 30
0.0
 10
306.3578030765646
 20
170.7213303747162
 30
0.0
 10
305.5074597646322
 20
170.4445333620917
 30
0.0
 10
304.6771465684448
 20
170.1388016288153
 30
0.0
 10
303.9154846428811
 20
169.8071145276784
 30
0.0
 10
303.2317813873236
 20
169.4691193103394
 30
0.0
 10
302.7531702749952
 20
169.2130176607617
 30
0.0
 10
302.3204598842605
 20
168.9644518710513
 30
0.0
 10
301.9491182452521
 20
168.7376732992908
 30
0.0
 10
301.6732014828454
 20
168.5604432850164
 30
0.0
 10
301.4174493134154
 20
168.3905838161616
 30
0.0
 10
301.2835836194723
 20
168.298297899236
 30
0.0
 10
301.2379982939072
 20
168.2668485436075
 30
0.0
 10
301.2462849965092
 20
168.2727090730793
 30
0.0
 10
301.246859869916
 20
168.2731156355812
 30
0.0
  0
SPLINE
  5
2D6
330
1F
100
AcDbEntity
  8
0
  6
Continuous
 62
     7
370
    15
100
AcDbSpline
210
0.0
220
0.0
230
1.0
 70
     8
 71
     3
 72
    24
 73
    20
 74
     0
 42
0.000000001
 43
0.00000001
 40
0.0
 40
0.0
 40
0.0
 40
0.0
 40
0.0273402624865552
 40
0.1168475545648718
 40
0.1624776044900077
 40
0.2059072157195134
 40
0.2939247316546679
 40
0.3385464305799948
 40
0.3886738178683416
 40
0.490290387969795
 40
0.541858383213115
 40
0.5979392081480489
 40
0.6544286757619333
 40
0.7122874092173205
 40
0.7706629639372484
 40
0.8168006058548208
 40
0.9105772870339288
 40
0.9583562790186461
 40
1.0
 40
1.0
 40
1.0
 40
1.0
 10
321.2392298086806
 20
168.2759854853289
 30
0.0
 10
321.2394552828414
 20
168.2757706453803
 30
0.0
 10
321.2404189204185
 20
168.2748524565871
 30
0.0
 10
321.1283818512001
 20
168.3526082054319
 30
0.0
 10
320.9197399872994
 20
168.4926246748716
 30
0.0
 10
320.6482993031938
 20
168.669993201354
 30
0.0
 10
320.2911108597186
 20
168.8929582264254
 30
0.0
 10
319.8373632118197
 20
169.1559691705544
 30
0.0
 10
319.2888912988225
 20
169.4562910434749
 30
0.0
 10
318.623508179607
 20
169.7853339997178
 30
0.0
 10
317.8483434628527
 20
170.1186383668598
 30
0.0
 10
317.1920765873755
 20
170.371567858166
 30
0.0
 10
316.4615496024015
 20
170.6179820345313
 30
0.0
 10
315.6743173841185
 20
170.8443135082142
 30
0.0
 10
314.8938148254925
 20
171.0283723421987
 30
0.0
 10
313.9034773442017
 20
171.2154564156844
 30
0.0
 10
312.9234514722536
 20
171.3379434165181
 30
0.0
 10
311.947759706638
 20
171.3987993821779
 30
0.0
 10
311.4683600098606
 20
171.4041750994831
 30
0.0
 10
311.2451059108857
 20
171.4066785447948
 30
0.0
  0
LWPOLYLINE
  5
2D7
330
1F
100
AcDbEntity
  8
0
  6
Continuous
 62
     7
370
    15
100
AcDbPolyline
 90
       30
 70
   128
 43
0.0
 10
301.245106637
 20
101.9104957631
 10
301.2993712778
 20
101.9100978563
 10
301.478392068
 20
101.9096759992
 10
301.7802349516
 20
101.9092644329
 10
302.2011040792
 20
101.9088683329
 10
302.7357067772
 20
101.9084926806
 10
303.3773201066
 20
101.9081421999
 10
304.1178754075
 20
101.9078212984
 10
304.9480597673
 20
101.9075340116
 10
305.8574331359
 20
101.9072839523
 10
306.8345596158
 20
101.9070742651
 10
307.8671512743
 20
101.9069075869
 10
308.9422226723
 20
101.9067860139
 10
310.0462541632
 20
101.9067110749
 10
311.1653619105
 20
101.9066837122
 10
312.2854724848
 20
101.9067042701
 10
313.3924998458
 20
101.9067724899
 10
314.4725224821
 20
101.9068875137
 10
315.5119584825
 20
101.9070478952
 10
316.4977363361
 20
101.9072516173
 10
317.4174593144
 20
101.9074961181
 10
318.2595613674
 20
101.907778323
 10
319.0134525732
 20
101.908094683
 10
319.6696523123
 20
101.9084412197
 10
320.2199084925
 20
101.9088135753
 10
320.6573013229
 20
101.909207067
 10
320.9763303349
 20
101.9096167466
 10
321.1729835535
 20
101.9100374621
 10
321.2447879506
 20
101.9104639227
 10
321.2451051848
 20
101.9104957631
  0
LWPOLYLINE
  5
2D8
330
1F
100
AcDbEntity
  8
0
  6
Continuous
 62
     7
370
    15
100
AcDbPolyline
 90
       40
 70
   128
 43
0.0
 10
293.2451072178
 20
93.9104975056
 10
293.2743218296
 20
93.9101042382
 10
293.4203568599
 20
93.9095400557
 10
293.6881530002
 20
93.9089823958
 10
294.0758809315
 20
93.9084350677
 10
294.5808920787
 20
93.9079018102
 10
295.1997367037
 20
93.9073862662
 10
295.9281874702
 20
93.9068919572
 10
296.7612683208
 20
93.9064222599
 10
297.6932884686
 20
93.9059803829
 10
298.7178812708
 20
93.9055693445
 10
299.8280477198
 20
93.9051919525
 10
301.0162042529
 20
93.9048507851
 10
302.2742345564
 20
93.9045481726
 10
303.5935450075
 20
93.9042861822
 10
304.9651233782
 20
93.9040666036
 10
306.3796003974
 20
93.9038909367
 10
307.8273137528
 20
93.9037603816
 10
309.2983740943
 20
93.9036758299
 10
310.782732588
 20
93.9036378594
 10
312.2702495604
 20
93.9036467294
 10
313.7507637622
 20
93.9037023793
 10
315.2141617801
 20
93.9038044289
 10
316.6504471219
 20
93.9039521811
 10
318.0498085022
 20
93.9041446267
 10
319.402686864
 20
93.9043804511
 10
320.6998406762
 20
93.9046580432
 10
321.932409063
 20
93.904975507
 10
323.0919723324
 20
93.9053306738
 10
324.1706094917
 20
93.9057211174
 10
325.1609523552
 20
93.9061441707
 10
326.0562358769
 20
93.9065969439
 10
326.8503443628
 20
93.907076344
 10
327.5378532465
 20
93.9075790963
 10
328.1140661453
 20
93.9081017664
 10
328.5750469407
 20
93.9086407839
 10
328.9176466667
 20
93.9091924669
 10
329.1395250195
 20
93.9097530468
 10
329.2391663451
 20
93.9103186942
 10
329.2451046039
 20
93.9104975056
  0
LWPOLYLINE
  5
2D9
330
1F
100
AcDbEntity
  8
0
  6
Continuous
 62
     7
370
    15
100
AcDbPolyline
 90
       40
 70
   128
 43
0.0
 10
293.2451059109
 20
88.9104952548
 10
293.2743218296
 20
88.9101046013
 10
293.4203568599
 20
88.9095404188
 10
293.6881530002
 20
88.9089827588
 10
294.0758809315
 20
88.9084354307
 10
294.5808920787
 20
88.9079021733
 10
295.1997367037
 20
88.9073866292
 10
295.9281874702
 20
88.9068923203
 10
296.7612683208
 20
88.906422623
 10
297.6932884686
 20
88.9059807459
 10
298.7178812708
 20
88.9055697075
 10
299.8280477198
 20
88.9051923156
 10
301.0162042529
 20
88.9048511481
 10
302.2742345564
 20
88.9045485356
 10
303.5935450075
 20
88.9042865452
 10
304.9651233782
 20
88.9040669666
 10
306.3796003974
 20
88.9038912998
 10
307.8273137528
 20
88.9037607446
 10
309.2983740943
 20
88.903676193
 10
310.782732588
 20
88.9036382225
 10
312.2702495604
 20
88.9036470924
 10
313.7507637622
 20
88.9037027423
 10
315.2141617801
 20
88.9038047919
 10
316.6504471219
 20
88.9039525442
 10
318.0498085022
 20
88.9041449898
 10
319.402686864
 20
88.9043808141
 10
320.6998406762
 20
88.9046584063
 10
321.932409063
 20
88.9049758701
 10
323.0919723324
 20
88.9053310368
 10
324.1706094917
 20
88.9057214804
 10
325.1609523552
 20
88.9061445338
 10
326.0562358769
 20
88.9065973069
 10
326.8503443628
 20
88.907076707
 10
327.5378532465
 20
88.9075794593
 10
328.1140661453
 20
88.9081021294
 10
328.5750469407
 20
88.908641147
 10
328.9176466667
 20
88.90919283
 10
329.1395250195
 20
88.9097534098
 10
329.2391663451
 20
88.9103190573
 10
329.2451059109
 20
88.9104952548
  0
SPLINE
  5
2DA
330
1F
100
AcDbEntity
  8
0
  6
Continuous
 62
     7
370
    15
100
AcDbSpline
210
0.0
220
0.0
230
1.0
 70
    11
 71
     3
 72
    45
 73
    41
 74
     0
 42
0.000000001
 43
0.00000001
 40
0.0
 40
0.0
 40
0.0
 40
0.0
 40
0.0263859889317382
 40
0.0535391518744863
 40
0.0799245772102099
 40
0.1070713701257146
 40
0.133526281869939
 40
0.1607455477386653
 40
0.1872437915276879
 40
0.2145146189762257
 40
0.2409370406239464
 40
0.268130355036675
 40
0.2944765622979016
 40
0.3215847790633629
 40
0.3479722821270462
 40
0.3751195092366336
 40
0.4016018881884874
 40
0.4288518006187498
 40
0.4553352575088766
 40
0.4825921645718059
 40
0.508980170902137
 40
0.5361362435557647
 40
0.5624815088384338
 40
0.5895866477821633
 40
0.6160082485150732
 40
0.6431914486985956
 40
0.669689543423784
 40
0.6969581792991569
 40
0.7234138001528101
 40
0.7506421996955709
 40
0.7770031197992465
 40
0.8041288710296155
 40
0.830490037075138
 40
0.8576103526847408
 40
0.8840659734307714
 40
0.9112860152698943
 40
0.9377841496230488
 40
0.9650549130604164
 40
0.982421186941072
 40
1.0
 40
1.0
 40
1.0
 40
1.0
 10
301.2909819223727
 20
91.40478006802971
 30
0.0
 10
301.2946506691476
 20
91.3135507586163
 30
0.0
 10
301.3020948317023
 20
91.12843964283724
 30
0.0
 10
301.3620583174092
 20
90.85980946335611
 30
0.0
 10
301.4571837014665
 20
90.60428636746589
 30
0.0
 10
301.5870540510486
 20
90.37342710201777
 30
0.0
 10
301.7499926082739
 20
90.16958019817622
 30
0.0
 10
301.9394687787052
 20
90.0021139369857
 30
0.0
 10
302.1539402058122
 20
89.87298652822258
 30
0.0
 10
302.3837596866983
 20
89.78838928841768
 30
0.0
 10
302.6266701811567
 20
89.74918084248664
 30
0.0
 10
302.8712464587418
 20
89.75705080701546
 30
0.0
 10
303.115123662248
 20
89.811712132448
 30
0.0
 10
303.3469662135832
 20
89.91048343722422
 30
0.0
 10
303.5643192477968
 20
90.05244751393276
 30
0.0
 10
303.7569776632798
 20
90.23133027002275
 30
0.0
 10
303.9223066478832
 20
90.44542477557818
 30
0.0
 10
304.0520493129303
 20
90.68503013465428
 30
0.0
 10
304.1441776743781
 20
90.94747159118704
 30
0.0
 10
304.1939576552257
 20
91.22026120565852
 30
0.0
 10
304.2008034498558
 20
91.50048745172607
 30
0.0
 10
304.1645715111708
 20
91.77495815725315
 30
0.0
 10
304.085905233623
 20
92.04118257156202
 30
0.0
 10
303.9687476182694
 20
92.28715760876923
 30
0.0
 10
303.8145671248735
 20
92.51052988306928
 30
0.0
 10
303.6306545681771
 20
92.70115675502608
 30
0.0
 10
303.4194118708206
 20
92.85680398165802
 30
0.0
 10
303.1910776120878
 20
92.9700581615457
 30
0.0
 10
302.9486211591559
 20
93.03962365837845
 30
0.0
 10
302.7038635687018
 20
93.06227515549142
 30
0.0
 10
302.4593461006742
 20
93.03799078714242
 30
0.0
 10
302.2263088354661
 20
92.96812013813054
 30
0.0
 10
302.0065745370125
 20
92.8533965998124
 30
0.0
 10
301.809625078072
 20
92.69896869179696
 30
0.0
 10
301.6369943561507
 20
92.50623728495549
 30
0.0
 10
301.4961976622107
 20
92.28378058597173
 30
0.0
 10
301.3882356914418
 20
92.03402858448709
 30
0.0
 10
301.3264717805679
 20
91.79857129704924
 30
0.0
 10
301.295836842953
 20
91.5862735314997
 30
0.0
 10
301.292606777749
 20
91.46552269502136
 30
0.0
 10
301.2909819223727
 20
91.40478006802971
 30
0.0
  0
SPLINE
  5
2DB
330
1F
100
AcDbEntity
  8
0
  6
Continuous
 62
     7
370
    15
100
AcDbSpline
210
0.0
220
0.0
230
1.0
 70
     8
 71
     3
 72
    11
 73
     7
 74
     0
 42
0.000000001
 43
0.00000001
 40
0.0
 40
0.0
 40
0.0
 40
0.0
 40
0.2714154875206912
 40
0.5428032976870181
 40
0.8149088749734579
 40
1.0
 40
1.0
 40
1.0
 40
1.0
 10
329.2101069916943
 20
91.41006753561787
 30
0.0
 10
329.2113209543286
 20
91.22462625769113
 30
0.0
 10
329.2137487558045
 20
90.85376261204794
 30
0.0
 10
329.2288668558165
 20
90.36604615003897
 30
0.0
 10
329.2430913813667
 20
90.0131062802968
 30
0.0
 10
329.24339104847
 20
89.9108029573254
 30
0.0
 10
329.2435123654458
 20
89.86938656685948
 30
0.0
  0
SPLINE
  5
2DC
330
1F
100
AcDbEntity
  8
0
  6
Continuous
 62
     7
370
    15
100
AcDbSpline
210
0.0
220
0.0
230
1.0
 70
     8
 71
     3
 72
    12
 73
     8
 74
     0
 42
0.000000001
 43
0.00000001
 40
0.0
 40
0.0
 40
0.0
 40
0.0
 40
0.0105393922089767
 40
0.2806133280274309
 40
0.5516640090141588
 40
0.8231762761151076
 40
1.0
 40
1.0
 40
1.0
 40
1.0
 10
329.2447976317726
 20
92.96953877336863
 30
0.0
 10
329.2448997847069
 20
92.96834486596211
 30
0.0
 10
329.2476196260678
 20
92.93655685351762
 30
0.0
 10
329.2380544064802
 20
92.70802036123114
 30
0.0
 10
329.2238903220897
 20
92.30314573353766
 30
0.0
 10
329.2118229483636
 20
91.83621183242462
 30
0.0
 10
329.2105923426232
 20
91.53060060849712
 30
0.0
 10
329.2101069916943
 20
91.41006753561787
 30
0.0
  0
SPLINE
  5
2DD
330
1F
100
AcDbEntity
  8
0
  6
Continuous
 62
     7
370
    15
100
AcDbSpline
210
0.0
220
0.0
230
1.0
 70
     8
 71
     3
 72
    11
 73
     7
 74
     0
 42
0.000000001
 43
0.00000001
 40
0.0
 40
0.0
 40
0.0
 40
0.0
 40
0.2732558420412636
 40
0.5544757549144872
 40
0.8277203707235999
 40
1.0
 40
1.0
 40
1.0
 40
1.0
 10
303.6764240682983
 20
91.40646731986581
 30
0.0
 10
303.6799301170805
 20
91.4975531162818
 30
0.0
 10
303.6870443988126
 20
91.68237941442227
 30
0.0
 10
303.7466599363524
 20
91.94948869905318
 30
0.0
 10
303.823824647682
 20
92.17405738361889
 30
0.0
 10
303.8948276332264
 20
92.29520819350789
 30
0.0
 10
303.9222837552267
 20
92.34205596182677
 30
0.0
  0
SPLINE
  5
2DE
330
1F
100
AcDbEntity
  8
0
  6
Continuous
 62
     7
370
    15
100
AcDbSpline
210
0.0
220
0.0
230
1.0
 70
     8
 71
     3
 72
    12
 73
     8
 74
     0
 42
0.000000001
 43
0.00000001
 40
0.0
 40
0.0
 40
0.0
 40
0.0
 40
0.0708156108977422
 40
0.344495595852627
 40
0.6261927329384654
 40
0.8118640216070802
 40
1.0
 40
1.0
 40
1.0
 40
1.0
 10
303.9244641277426
 20
90.46500879147504
 30
0.0
 10
303.9122586829603
 20
90.4836329135498
 30
0.0
 10
303.8528830464363
 20
90.57423338920819
 30
0.0
 10
303.7778584808822
 20
90.76559011490554
 30
0.0
 10
303.713094232391
 20
91.00112646610185
 30
0.0
 10
303.681605857684
 20
91.21817025946883
 30
0.0
 10
303.6781589072234
 20
91.34342634202177
 30
0.0
 10
303.6764240682983
 20
91.40646731986581
 30
0.0
  0
LWPOLYLINE
  5
2DF
330
1F
100
AcDbEntity
  8
0
  6
Continuous
 62
     7
370
    15
100
AcDbPolyline
 90
       51
 70
   128
 43
0.0
 10
318.0526252178
 20
178.9120900243
 10
317.4722825701
 20
178.9124025314
 10
316.7937336265
 20
178.9126848565
 10
316.0276795092
 20
178.9129325472
 10
315.1862013493
 20
178.9131416973
 10
314.28256976
 20
178.9133090084
 10
313.3310355514
 20
178.9134318419
 10
312.3466049862
 20
178.9135082605
 10
311.3448031226
 20
178.9135370592
 10
310.3414289745
 20
178.9135177838
 10
309.3523063514
 20
178.9134507382
 10
308.3930343081
 20
178.9133369799
 10
307.4787411378
 20
178.9131783027
 10
306.6238457898
 20
178.9129772093
 10
305.8418304745
 20
178.9127368709
 10
305.1450280407
 20
178.9124610778
 10
304.5444274788
 20
178.9121541794
 10
304.0495006186
 20
178.9118210158
 10
303.6680527524
 20
178.911466841
 10
303.4060995407
 20
178.9110972408
 10
303.2677721423
 20
178.9107180437
 10
303.2552520629
 20
178.9103352301
 10
303.3687367515
 20
178.9099548372
 10
303.6064364869
 20
178.9095828638
 10
303.9646026022
 20
178.9092251764
 10
304.4375866039
 20
178.9088874158
 10
305.0179292517
 20
178.9085749088
 10
305.6964781953
 20
178.9082925837
 10
306.4625323126
 20
178.9080448929
 10
307.3040104725
 20
178.9078357428
 10
308.2076420617
 20
178.9076684318
 10
309.1591762704
 20
178.9075455983
 10
310.1436068356
 20
178.9074691796
 10
311.1454086991
 20
178.9074403809
 10
312.1487828473
 20
178.9074596564
 10
313.1379054703
 20
178.9075267019
 10
314.0971775136
 20
178.9076404603
 10
315.011470684
 20
178.9077991374
 10
315.866366032
 20
178.9080002309
 10
316.6483813472
 20
178.9082405693
 10
317.3451837811
 20
178.9085163624
 10
317.945784343
 20
178.9088232607
 10
318.4407112031
 20
178.9091564244
 10
318.8221590694
 20
178.9095105991
 10
319.0841122811
 20
178.9098801994
 10
319.2224396795
 20
178.9102593964
 10
319.2349597589
 20
178.91064221
 10
319.1214750703
 20
178.911022603
 10
318.8837753349
 20
178.9113945763
 10
318.5256092195
 20
178.9117522637
 10
318.0526252178
 20
178.9120900243
  0
LWPOLYLINE
  5
2E0
330
1F
100
AcDbEntity
  8
0
  6
Continuous
 62
     7
370
    15
100
AcDbPolyline
 90
       30
 70
   128
 43
0.0
 10
321.2451051848
 20
176.9104903175
 10
321.2447879506
 20
176.9104584771
 10
321.1729835535
 20
176.9100320165
 10
320.9763303349
 20
176.909611301
 10
320.6573013229
 20
176.9092016214
 10
320.2199084925
 20
176.9088081297
 10
319.6696523123
 20
176.9084357741
 10
319.0134525732
 20
176.9080892374
 10
318.2595613674
 20
176.9077728774
 10
317.4174593144
 20
176.9074906725
 10
316.4977363361
 20
176.9072461717
 10
315.5119584825
 20
176.9070424496
 10
314.4725224821
 20
176.9068820681
 10
313.3924998458
 20
176.9067670443
 10
312.2854724848
 20
176.9066988245
 10
311.1653619105
 20
176.9066782666
 10
310.0462541632
 20
176.9067056293
 10
308.9422226723
 20
176.9067805683
 10
307.8671512743
 20
176.9069021413
 10
306.8345596158
 20
176.9070688195
 10
305.8574331359
 20
176.9072785067
 10
304.9480597673
 20
176.907528566
 10
304.1178754075
 20
176.9078158528
 10
303.3773201066
 20
176.9081367543
 10
302.7357067772
 20
176.908487235
 10
302.2011040792
 20
176.9088628873
 10
301.7802349516
 20
176.9092589873
 10
301.478392068
 20
176.9096705536
 10
301.2993712778
 20
176.9100924107
 10
301.245106637
 20
176.9104903175
  0
LWPOLYLINE
  5
2E1
330
1F
100
AcDbEntity
  8
0
  6
Continuous
 62
     7
370
    15
100
AcDbPolyline
 90
       39
 70
   128
 43
0.0
 10
293.2451059109
 20
88.9104952548
 10
293.3065850368
 20
88.9099288186
 10
293.4906024496
 20
88.9093662518
 10
293.795901124
 20
88.9088113972
 10
294.2203955603
 20
88.9082680451
 10
294.7611860311
 20
88.9077399071
 10
295.4145783892
 20
88.9072305909
 10
296.1761093022
 20
88.9067435756
 10
297.0405767418
 20
88.9062821882
 10
298.0020755188
 20
88.9058495802
 10
299.0540376216
 20
88.9054487069
 10
300.1892770825
 20
88.9050823067
 10
301.4000390647
 20
88.9047528823
 10
302.6780528362
 20
88.9044626843
 10
304.0145882671
 20
88.9042136947
 10
305.4005154652
 20
88.9040076146
 10
306.8263671424
 20
88.9038458517
 10
308.2824032858
 20
88.9037295109
 10
309.7586776924
 20
88.903659387
 10
311.2451059109
 20
88.9036359591
 10
312.7315341294
 20
88.903659387
 10
314.2078085359
 20
88.9037295109
 10
315.6638446794
 20
88.9038458517
 10
317.0896963566
 20
88.9040076146
 10
318.4756235546
 20
88.9042136947
 10
319.8121589856
 20
88.9044626843
 10
321.0901727571
 20
88.9047528823
 10
322.3009347393
 20
88.9050823067
 10
323.4361742001
 20
88.9054487069
 10
324.488136303
 20
88.9058495802
 10
325.44963508
 20
88.9062821882
 10
326.3141025196
 20
88.9067435756
 10
327.0756334326
 20
88.9072305909
 10
327.7290257907
 20
88.9077399071
 10
328.2698162615
 20
88.9082680451
 10
328.6943106978
 20
88.9088113972
 10
328.9996093721
 20
88.9093662518
 10
329.183626785
 20
88.9099288186
 10
329.2451059109
 20
88.9104952548
  0
LWPOLYLINE
  5
2E2
330
1F
100
AcDbEntity
  8
0
  6
Continuous
 62
     7
370
    15
100
AcDbPolyline
 90
       39
 70
   128
 43
0.0
 10
293.2451059109
 20
83.9104956178
 10
293.3065850368
 20
83.9099291817
 10
293.4906024496
 20
83.9093666149
 10
293.795901124
 20
83.9088117603
 10
294.2203955603
 20
83.9082684082
 10
294.7611860311
 20
83.9077402701
 10
295.4145783892
 20
83.9072309539
 10
296.1761093022
 20
83.9067439387
 10
297.0405767418
 20
83.9062825512
 10
298.0020755188
 20
83.9058499432
 10
299.0540376216
 20
83.90544907
 10
300.1892770825
 20
83.9050826697
 10
301.4000390647
 20
83.9047532454
 10
302.6780528362
 20
83.9044630473
 10
304.0145882671
 20
83.9042140578
 10
305.4005154652
 20
83.9040079777
 10
306.8263671424
 20
83.9038462147
 10
308.2824032858
 20
83.903729874
 10
309.7586776924
 20
83.9036597501
 10
311.2451059109
 20
83.9036363221
 10
312.7315341294
 20
83.9036597501
 10
314.2078085359
 20
83.903729874
 10
315.6638446794
 20
83.9038462147
 10
317.0896963566
 20
83.9040079777
 10
318.4756235546
 20
83.9042140578
 10
319.8121589856
 20
83.9044630473
 10
321.0901727571
 20
83.9047532454
 10
322.3009347393
 20
83.9050826697
 10
323.4361742001
 20
83.90544907
 10
324.488136303
 20
83.9058499432
 10
325.44963508
 20
83.9062825512
 10
326.3141025196
 20
83.9067439387
 10
327.0756334326
 20
83.9072309539
 10
327.7290257907
 20
83.9077402701
 10
328.2698162615
 20
83.9082684082
 10
328.6943106978
 20
83.9088117603
 10
328.9996093721
 20
83.9093666149
 10
329.183626785
 20
83.9099291817
 10
329.2451059109
 20
83.9104956178
  0
LINE
  5
2E3
330
1F
100
AcDbEntity
  8
0
  6
Continuous
 62
     7
370
    15
100
AcDbLine
 10
303.7210451671
 20
91.9069327066
 30
0.0
 11
304.0848423472
 21
91.9068254379
 31
0.0
  0
LINE
  5
2E4
330
1F
100
AcDbEntity
  8
0
  6
Continuous
 62
     8
370
    15
100
AcDbLine
 10
293.5451059109
 20
147.4400714511
 30
0.0
 11
293.5451059109
 21
147.4009637357
 31
0.0
  0
LINE
  5
2E5
330
1F
100
AcDbEntity
  8
0
  6
Continuous
 62
     8
370
    15
100
AcDbLine
 10
293.5451059109
 20
160.4009637357
 30
0.0
 11
293.5451059109
 21
147.4400714511
 31
0.0
  0
LINE
  5
2E6
330
1F
100
AcDbEntity
  8
0
  6
Continuous
 62
     8
370
    15
100
AcDbLine
 10
293.5451059109
 20
160.4200173349
 30
0.0
 11
293.5451059109
 21
160.4009637357
 31
0.0
  0
ENDSEC
  0
SECTION
  2
OBJECTS
  0
DICTIONARY
  5
C
330
0
100
AcDbDictionary
281
     1
  3
ACAD_GROUP
350
D
  3
ACAD_LAYOUT
350
1A
  3
ACAD_MLINESTYLE
350
17
  3
ACAD_PLOTSETTINGS
350
19
  3
ACAD_PLOTSTYLENAME
350
E
  3
ACAD_SCALELIST
350
47
  0
DICTIONARY
  5
D
102
{ACAD_REACTORS
330
C
102
}
330
C
100
AcDbDictionary
281
     1
  0
DICTIONARY
  5
1A
102
{ACAD_REACTORS
330
C
102
}
330
C
100
AcDbDictionary
281
     1
  3
Layout1
350
1E
  3
Layout2
350
26
  3
Model
350
22
  0
DICTIONARY
  5
17
102
{ACAD_REACTORS
330
C
102
}
330
C
100
AcDbDictionary
281
     1
  3
Standard
350
18
  0
DICTIONARY
  5
19
102
{ACAD_REACTORS
330
C
102
}
330
C
100
AcDbDictionary
281
     1
  0
ACDBDICTIONARYWDFLT
  5
E
102
{ACAD_REACTORS
330
C
102
}
330
C
100
AcDbDictionary
281
     1
  3
Normal
350
F
100
AcDbDictionaryWithDefault
340
F
  0
DICTIONARY
  5
47
102
{ACAD_REACTORS
330
C
102
}
330
C
100
AcDbDictionary
281
     1
  3
A0
350
48
  3
A1
350
49
  3
A2
350
4A
  3
A3
350
4B
  3
A4
350
4C
  3
A5
350
4D
  3
A6
350
4E
  3
A7
350
4F
  3
A8
350
50
  3
A9
350
51
  3
B0
350
52
  3
B1
350
53
  3
B2
350
54
  3
B3
350
55
  3
B4
350
56
  3
B5
350
57
  3
B6
350
58
  3
B7
350
59
  3
B8
350
5A
  3
B9
350
5B
  3
C0
350
5C
  3
C1
350
5D
  3
C2
350
5E
  3
C3
350
5F
  3
C4
350
60
  3
C5
350
61
  3
C6
350
62
  3
C7
350
63
  3
C8
350
64
  3
C9
350
65
  3
D0
350
66
  3
D1
350
67
  3
D2
350
68
  0
LAYOUT
  5
1E
102
{ACAD_REACTORS
330
1A
102
}
330
1A
100
AcDbPlotSettings
  1

  2
none_device
  4

  6

 40
0.0
 41
0.0
 42
0.0
 43
0.0
 44
0.0
 45
0.0
 46
0.0
 47
0.0
 48
0.0
 49
0.0
140
0.0
141
0.0
142
1.0
143
1.0
 70
   688
 72
     1
 73
     0
 74
     5
  7

 75
    16
147
1.0
148
0.0
149
0.0
100
AcDbLayout
  1
Layout1
 70
     1
 71
     1
 10
0.0
 20
0.0
 11
420.0
 21
297.0
 12
0.0
 22
0.0
 32
0.0
 14
1.0000000000E+20
 24
1.0000000000E+20
 34
1.0000000000E+20
 15
-1.0000000000E+20
 25
-1.0000000000E+20
 35
-1.0000000000E+20
146
0.0
 13
0.0
 23
0.0
 33
0.0
 16
1.0
 26
0.0
 36
0.0
 17
0.0
 27
1.0
 37
0.0
 76
     0
330
1B
  0
LAYOUT
  5
26
102
{ACAD_REACTORS
330
1A
102
}
330
1A
100
AcDbPlotSettings
  1

  2
none_device
  4

  6

 40
0.0
 41
0.0
 42
0.0
 43
0.0
 44
0.0
 45
0.0
 46
0.0
 47
0.0
 48
0.0
 49
0.0
140
0.0
141
0.0
142
1.0
143
1.0
 70
   688
 72
     1
 73
     0
 74
     5
  7

 75
    16
147
1.0
148
0.0
149
0.0
100
AcDbLayout
  1
Layout2
 70
     1
 71
     2
 10
0.0
 20
0.0
 11
0.0
 21
0.0
 12
0.0
 22
0.0
 32
0.0
 14
0.0
 24
0.0
 34
0.0
 15
0.0
 25
0.0
 35
0.0
146
0.0
 13
0.0
 23
0.0
 33
0.0
 16
1.0
 26
0.0
 36
0.0
 17
0.0
 27
1.0
 37
0.0
 76
     0
330
23
  0
LAYOUT
  5
22
102
{ACAD_REACTORS
330
1A
102
}
330
1A
100
AcDbPlotSettings
  1

  2
none_device
  4
Letter_(8.50_x_11.00_Inches)
  6

 40
6.35
 41
6.35
 42
6.35000508
 43
6.35000508
 44
215.9
 45
279.4
 46
0.0
 47
0.0
 48
0.0
 49
0.0
140
0.0
141
0.0
142
1.0
143
1.0
 70
  1712
 72
     1
 73
     0
 74
     0
  7

 75
     0
147
1.0
148
0.0
149
0.0
100
AcDbLayout
  1
Model
 70
     1
 71
     0
 10
0.0
 20
0.0
 11
279.4
 21
215.9
 12
0.0
 22
0.0
 32
0.0
 14
0.0
 24
0.0
 34
0.0
 15
279.4
 25
215.9
 35
0.0
146
0.0
 13
0.0
 23
0.0
 33
0.0
 16
1.0
 26
0.0
 36
0.0
 17
0.0
 27
1.0
 37
0.0
 76
     0
330
1F
331
29
  0
MLINESTYLE
  5
18
102
{ACAD_REACTORS
330
17
102
}
330
17
100
AcDbMlineStyle
  2
Standard
 70
     0
  3

 62
   256
 51
90.0
 52
90.0
 71
     2
 49
0.5
 62
   256
  6
BYLAYER
 49
-0.5
 62
   256
  6
BYLAYER
  0
ACDBPLACEHOLDER
  5
F
102
{ACAD_REACTORS
330
E
102
}
330
E
  0
SCALE
  5
48
102
{ACAD_REACTORS
330
47
102
}
330
47
100
AcDbScale
 70
     0
300
1:1
140
1.0
141
1.0
290
     1
  0
SCALE
  5
49
102
{ACAD_REACTORS
330
47
102
}
330
47
100
AcDbScale
 70
     0
300
1:2
140
1.0
141
2.0
290
     0
  0
SCALE
  5
4A
102
{ACAD_REACTORS
330
47
102
}
330
47
100
AcDbScale
 70
     0
300
1:4
140
1.0
141
4.0
290
     0
  0
SCALE
  5
4B
102
{ACAD_REACTORS
330
47
102
}
330
47
100
AcDbScale
 70
     0
300
1:5
140
1.0
141
5.0
290
     0
  0
SCALE
  5
4C
102
{ACAD_REACTORS
330
47
102
}
330
47
100
AcDbScale
 70
     0
300
1:8
140
1.0
141
8.0
290
     0
  0
SCALE
  5
4D
102
{ACAD_REACTORS
330
47
102
}
330
47
100
AcDbScale
 70
     0
300
1:10
140
1.0
141
10.0
290
     0
  0
SCALE
  5
4E
102
{ACAD_REACTORS
330
47
102
}
330
47
100
AcDbScale
 70
     0
300
1:16
140
1.0
141
16.0
290
     0
  0
SCALE
  5
4F
102
{ACAD_REACTORS
330
47
102
}
330
47
100
AcDbScale
 70
     0
300
1:20
140
1.0
141
20.0
290
     0
  0
SCALE
  5
50
102
{ACAD_REACTORS
330
47
102
}
330
47
100
AcDbScale
 70
     0
300
1:30
140
1.0
141
30.0
290
     0
  0
SCALE
  5
51
102
{ACAD_REACTORS
330
47
102
}
330
47
100
AcDbScale
 70
     0
300
1:40
140
1.0
141
40.0
290
     0
  0
SCALE
  5
52
102
{ACAD_REACTORS
330
47
102
}
330
47
100
AcDbScale
 70
     0
300
1:50
140
1.0
141
50.0
290
     0
  0
SCALE
  5
53
102
{ACAD_REACTORS
330
47
102
}
330
47
100
AcDbScale
 70
     0
300
1:100
140
1.0
141
100.0
290
     0
  0
SCALE
  5
54
102
{ACAD_REACTORS
330
47
102
}
330
47
100
AcDbScale
 70
     0
300
2:1
140
2.0
141
1.0
290
     0
  0
SCALE
  5
55
102
{ACAD_REACTORS
330
47
102
}
330
47
100
AcDbScale
 70
     0
300
4:1
140
4.0
141
1.0
290
     0
  0
SCALE
  5
56
102
{ACAD_REACTORS
330
47
102
}
330
47
100
AcDbScale
 70
     0
300
8:1
140
8.0
141
1.0
290
     0
  0
SCALE
  5
57
102
{ACAD_REACTORS
330
47
102
}
330
47
100
AcDbScale
 70
     0
300
10:1
140
10.0
141
1.0
290
     0
  0
SCALE
  5
58
102
{ACAD_REACTORS
330
47
102
}
330
47
100
AcDbScale
 70
     0
300
100:1
140
100.0
141
1.0
290
     0
  0
SCALE
  5
59
102
{ACAD_REACTORS
330
47
102
}
330
47
100
AcDbScale
 70
     0
300
1/128" = 1'-0"
140
0.0078125
141
12.0
290
     0
  0
SCALE
  5
5A
102
{ACAD_REACTORS
330
47
102
}
330
47
100
AcDbScale
 70
     0
300
1/64" = 1'-0"
140
0.015625
141
12.0
290
     0
  0
SCALE
  5
5B
102
{ACAD_REACTORS
330
47
102
}
330
47
100
AcDbScale
 70
     0
300
1/32" = 1'-0"
140
0.03125
141
12.0
290
     0
  0
SCALE
  5
5C
102
{ACAD_REACTORS
330
47
102
}
330
47
100
AcDbScale
 70
     0
300
1/16" = 1'-0"
140
0.0625
141
12.0
290
     0
  0
SCALE
  5
5D
102
{ACAD_REACTORS
330
47
102
}
330
47
100
AcDbScale
 70
     0
300
3/32" = 1'-0"
140
0.09375
141
12.0
290
     0
  0
SCALE
  5
5E
102
{ACAD_REACTORS
330
47
102
}
330
47
100
AcDbScale
 70
     0
300
1/8" = 1'-0"
140
0.125
141
12.0
290
     0
  0
SCALE
  5
5F
102
{ACAD_REACTORS
330
47
102
}
330
47
100
AcDbScale
 70
     0
300
3/16" = 1'-0"
140
0.1875
141
12.0
290
     0
  0
SCALE
  5
60
102
{ACAD_REACTORS
330
47
102
}
330
47
100
AcDbScale
 70
     0
300
1/4" = 1'-0"
140
0.25
141
12.0
290
     0
  0
SCALE
  5
61
102
{ACAD_REACTORS
330
47
102
}
330
47
100
AcDbScale
 70
     0
300
3/8" = 1'-0"
140
0.375
141
12.0
290
     0
  0
SCALE
  5
62
102
{ACAD_REACTORS
330
47
102
}
330
47
100
AcDbScale
 70
     0
300
1/2" = 1'-0"
140
0.5
141
12.0
290
     0
  0
SCALE
  5
63
102
{ACAD_REACTORS
330
47
102
}
330
47
100
AcDbScale
 70
     0
300
3/4" = 1'-0"
140
0.75
141
12.0
290
     0
  0
SCALE
  5
64
102
{ACAD_REACTORS
330
47
102
}
330
47
100
AcDbScale
 70
     0
300
1" = 1'-0"
140
1.0
141
12.0
290
     0
  0
SCALE
  5
65
102
{ACAD_REACTORS
330
47
102
}
330
47
100
AcDbScale
 70
     0
300
1-1/2" = 1'-0"
140
1.5
141
12.0
290
     0
  0
SCALE
  5
66
102
{ACAD_REACTORS
330
47
102
}
330
47
100
AcDbScale
 70
     0
300
3" = 1'-0"
140
3.0
141
12.0
290
     0
  0
SCALE
  5
67
102
{ACAD_REACTORS
330
47
102
}
330
47
100
AcDbScale
 70
     0
300
6" = 1'-0"
140
6.0
141
12.0
290
     0
  0
SCALE
  5
68
102
{ACAD_REACTORS
330
47
102
}
330
47
100
AcDbScale
 70
     0
300
1'-0" = 1'-0"
140
12.0
141
12.0
290
     0
  0
ENDSEC
  0
EOF
