  0
SECTION
  2
HEADER
  9
$ACADVER
  1
AC1015
  9
$ACADMAINTVER
 70
     6
  9
$DWGCODEPAGE
  3
ANSI_1252
  9
$INSBASE
 10
0.0
 20
0.0
 30
0.0
  9
$EXTMIN
 10
0.0
 20
0.0
 30
0.0
  9
$EXTMAX
 10
279.4
 20
215.9
 30
0.0
  9
$LIMMIN
 10
0.0
 20
0.0
  9
$LIMMAX
 10
279.4
 20
215.9
  9
$ORTHOMODE
 70
     0
  9
$REGENMODE
 70
     1
  9
$FILLMODE
 70
     1
  9
$QTEXTMODE
 70
     0
  9
$MIRRTEXT
 70
     1
  9
$LTSCALE
 40
1.0
  9
$ATTMODE
 70
     1
  9
$TEXTSIZE
 40
3.5
  9
$TRACEWID
 40
1.0
  9
$TEXTSTYLE
  7
Standard
  9
$CLAYER
  8
0
  9
$CELTYPE
  6
ByLayer
  9
$CECOLOR
 62
   256
  9
$CELTSCALE
 40
1.0
  9
$DISPSILH
 70
     0
  9
$DIMSCALE
 40
1.0
  9
$DIMASZ
 40
3.302
  9
$DIMEXO
 40
1.0
  9
$DIMDLI
 40
3.75
  9
$DIMRND
 40
0.0
  9
$DIMDLE
 40
0.0
  9
$DIMEXE
 40
1.0
  9
$DIMTP
 40
0.0
  9
$DIMTM
 40
0.0
  9
$DIMTXT
 40
3.5
  9
$DIMCEN
 40
2.5
  9
$DIMTSZ
 40
0.0
  9
$DIMTOL
 70
     0
  9
$DIMLIM
 70
     0
  9
$DIMTIH
 70
     1
  9
$DIMTOH
 70
     1
  9
$DIMSE1
 70
     0
  9
$DIMSE2
 70
     0
  9
$DIMTAD
 70
     1
  9
$DIMZIN
 70
     0
  9
$DIMBLK
  1

  9
$DIMASO
 70
     1
  9
$DIMSHO
 70
     1
  9
$DIMPOST
  1

  9
$DIMAPOST
  1

  9
$DIMALT
 70
     0
  9
$DIMALTD
 70
     3
  9
$DIMALTF
 40
0.0393700787
  9
$DIMLFAC
 40
5.0
  9
$DIMTOFL
 70
     1
  9
$DIMTVP
 40
0.0
  9
$DIMTIX
 70
     0
  9
$DIMSOXD
 70
     0
  9
$DIMSAH
 70
     0
  9
$DIMBLK1
  1

  9
$DIMBLK2
  1

  9
$DIMSTYLE
  2
ISO-25
  9
$DIMCLRD
 70
     0
  9
$DIMCLRE
 70
     0
  9
$DIMCLRT
 70
     0
  9
$DIMTFAC
 40
1.0
  9
$DIMGAP
 40
1.524
  9
$DIMJUST
 70
     0
  9
$DIMSD1
 70
     0
  9
$DIMSD2
 70
     0
  9
$DIMTOLJ
 70
     0
  9
$DIMTZIN
 70
     0
  9
$DIMALTZ
 70
     0
  9
$DIMALTTZ
 70
     0
  9
$DIMUPT
 70
     0
  9
$DIMDEC
 70
     2
  9
$DIMTDEC
 70
     2
  9
$DIMALTU
 70
     2
  9
$DIMALTTD
 70
     3
  9
$DIMTXSTY
  7
Standard
  9
$DIMAUNIT
 70
     0
  9
$DIMADEC
 70
     2
  9
$DIMALTRND
 40
0.0
  9
$DIMAZIN
 70
     0
  9
$DIMDSEP
 70
    44
  9
$DIMATFIT
 70
     3
  9
$DIMFRAC
 70
     0
  9
$DIMLDRBLK
  1

  9
$DIMLUNIT
 70
     2
  9
$DIMLWD
 70
    -2
  9
$DIMLWE
 70
    -2
  9
$DIMTMOVE
 70
     0
  9
$LUNITS
 70
     2
  9
$LUPREC
 70
     2
  9
$SKETCHINC
 40
1.0
  9
$FILLETRAD
 40
10.0
  9
$AUNITS
 70
     0
  9
$AUPREC
 70
     2
  9
$MENU
  1
.
  9
$ELEVATION
 40
0.0
  9
$PELEVATION
 40
0.0
  9
$THICKNESS
 40
0.0
  9
$LIMCHECK
 70
     0
  9
$CHAMFERA
 40
0.0
  9
$CHAMFERB
 40
0.0
  9
$CHAMFERC
 40
0.0
  9
$CHAMFERD
 40
0.0
  9
$SKPOLY
 70
     0
  9
$TDCREATE
 40
2458206.735198125
  9
$TDUCREATE
 40
2458206.693531458
  9
$TDUPDATE
 40
2458206.735198588
  9
$TDUUPDATE
 40
2458206.693531921
  9
$TDINDWG
 40
0.0000000116
  9
$TDUSRTIMER
 40
0.0000000116
  9
$USRTIMER
 70
     1
  9
$ANGBASE
 50
0.0
  9
$ANGDIR
 70
     0
  9
$PDMODE
 70
     0
  9
$PDSIZE
 40
-1.0
  9
$PLINEWID
 40
0.0
  9
$SPLFRAME
 70
     0
  9
$SPLINETYPE
 70
     6
  9
$SPLINESEGS
 70
     8
  9
$HANDSEED
  5
324
  9
$SURFTAB1
 70
     6
  9
$SURFTAB2
 70
     6
  9
$SURFTYPE
 70
     6
  9
$SURFU
 70
     6
  9
$SURFV
 70
     6
  9
$UCSBASE
  2

  9
$UCSNAME
  2

  9
$UCSORG
 10
0.0
 20
0.0
 30
0.0
  9
$UCSXDIR
 10
1.0
 20
0.0
 30
0.0
  9
$UCSYDIR
 10
0.0
 20
1.0
 30
0.0
  9
$UCSORTHOREF
  2

  9
$UCSORTHOVIEW
 70
     0
  9
$UCSORGTOP
 10
0.0
 20
0.0
 30
0.0
  9
$UCSORGBOTTOM
 10
0.0
 20
0.0
 30
0.0
  9
$UCSORGLEFT
 10
0.0
 20
0.0
 30
0.0
  9
$UCSORGRIGHT
 10
0.0
 20
0.0
 30
0.0
  9
$UCSORGFRONT
 10
0.0
 20
0.0
 30
0.0
  9
$UCSORGBACK
 10
0.0
 20
0.0
 30
0.0
  9
$PUCSBASE
  2

  9
$PUCSNAME
  2

  9
$PUCSORG
 10
0.0
 20
0.0
 30
0.0
  9
$PUCSXDIR
 10
1.0
 20
0.0
 30
0.0
  9
$PUCSYDIR
 10
0.0
 20
1.0
 30
0.0
  9
$PUCSORTHOREF
  2

  9
$PUCSORTHOVIEW
 70
     0
  9
$PUCSORGTOP
 10
0.0
 20
0.0
 30
0.0
  9
$PUCSORGBOTTOM
 10
0.0
 20
0.0
 30
0.0
  9
$PUCSORGLEFT
 10
0.0
 20
0.0
 30
0.0
  9
$PUCSORGRIGHT
 10
0.0
 20
0.0
 30
0.0
  9
$PUCSORGFRONT
 10
0.0
 20
0.0
 30
0.0
  9
$PUCSORGBACK
 10
0.0
 20
0.0
 30
0.0
  9
$USERI1
 70
     0
  9
$USERI2
 70
     0
  9
$USERI3
 70
     0
  9
$USERI4
 70
     0
  9
$USERI5
 70
     0
  9
$USERR1
 40
0.0
  9
$USERR2
 40
0.0
  9
$USERR3
 40
0.0
  9
$USERR4
 40
0.0
  9
$USERR5
 40
0.0
  9
$WORLDVIEW
 70
     1
  9
$SHADEDGE
 70
     3
  9
$SHADEDIF
 70
    70
  9
$TILEMODE
 70
     1
  9
$MAXACTVP
 70
    64
  9
$PINSBASE
 10
0.0
 20
0.0
 30
0.0
  9
$PLIMCHECK
 70
     0
  9
$PEXTMIN
 10
1.0000000000E+20
 20
1.0000000000E+20
 30
1.0000000000E+20
  9
$PEXTMAX
 10
-1.0000000000E+20
 20
-1.0000000000E+20
 30
-1.0000000000E+20
  9
$PLIMMIN
 10
0.0
 20
0.0
  9
$PLIMMAX
 10
420.0
 20
297.0
  9
$UNITMODE
 70
     0
  9
$VISRETAIN
 70
     1
  9
$PLINEGEN
 70
     0
  9
$PSLTSCALE
 70
     1
  9
$TREEDEPTH
 70
  3020
  9
$CMLSTYLE
  2
Standard
  9
$CMLJUST
 70
     0
  9
$CMLSCALE
 40
20.0
  9
$PROXYGRAPHICS
 70
     1
  9
$MEASUREMENT
 70
     1
  9
$CELWEIGHT
370
    -1
  9
$ENDCAPS
280
     0
  9
$JOINSTYLE
280
     0
  9
$LWDISPLAY
290
     1
  9
$INSUNITS
 70
     4
  9
$HYPERLINKBASE
  1

  9
$STYLESHEET
  1

  9
$XEDIT
290
     1
  9
$CEPSNTYPE
380
     0
  9
$PSTYLEMODE
290
     1
  9
$FINGERPRINTGUID
  2
{B64C86C6-C5FD-46C9-8EB9-8B8463FAC687}
  9
$VERSIONGUID
  2
{FAEB1C32-E019-11D5-929B-00C0DF256EC4}
  9
$EXTNAMES
290
     1
  9
$PSVPSCALE
 40
0.0
  9
$OLESTARTUP
290
     0
  0
ENDSEC
  0
SECTION
  2
CLASSES
  0
CLASS
  1
ACDBDICTIONARYWDFLT
  2
AcDbDictionaryWithDefault
  3
ObjectDBX Classes
 90
        0
280
     0
281
     0
  0
CLASS
  1
VISUALSTYLE
  2
AcDbVisualStyle
  3
ObjectDBX Classes
 90
     4095
280
     0
281
     0
  0
CLASS
  1
MATERIAL
  2
AcDbMaterial
  3
ObjectDBX Classes
 90
     1153
280
     0
281
     0
  0
CLASS
  1
SCALE
  2
AcDbScale
  3
ObjectDBX Classes
 90
     1153
280
     0
281
     0
  0
CLASS
  1
TABLESTYLE
  2
AcDbTableStyle
  3
ObjectDBX Classes
 90
     4095
280
     0
281
     0
  0
CLASS
  1
MLEADERSTYLE
  2
AcDbMLeaderStyle
  3
ACDB_MLEADERSTYLE_CLASS
 90
     4095
280
     0
281
     0
  0
CLASS
  1
SUN
  2
AcDbSun
  3
SCENEOE
 90
     1153
280
     0
281
     0
  0
CLASS
  1
ACDBPLACEHOLDER
  2
AcDbPlaceHolder
  3
ObjectDBX Classes
 90
        0
280
     0
281
     0
  0
CLASS
  1
LAYOUT
  2
AcDbLayout
  3
ObjectDBX Classes
 90
        0
280
     0
281
     0
  0
ENDSEC
  0
SECTION
  2
TABLES
  0
TABLE
  2
VPORT
  5
8
330
0
100
AcDbSymbolTable
 70
     1
  0
VPORT
  5
29
330
8
100
AcDbSymbolTableRecord
100
AcDbViewportTableRecord
  2
*Active
 70
     0
 10
0.0
 20
0.0
 11
1.0
 21
1.0
 12
139.7
 22
107.95
 13
0.0
 23
0.0
 14
10.0
 24
10.0
 15
10.0
 25
10.0
 16
0.0
 26
0.0
 36
1.0
 17
0.0
 27
0.0
 37
0.0
 40
215.9
 41
1.2941176471
 42
50.0
 43
0.0
 44
0.0
 50
0.0
 51
0.0
 71
     0
 72
  2000
 73
     1
 74
     3
 75
     0
 76
     0
 77
     0
 78
     0
281
     0
 65
     1
110
0.0
120
0.0
130
0.0
111
1.0
121
0.0
131
0.0
112
0.0
122
1.0
132
0.0
 79
     0
146
0.0
  0
ENDTAB
  0
TABLE
  2
LTYPE
  5
5
330
0
100
AcDbSymbolTable
 70
     6
  0
LTYPE
  5
14
330
5
100
AcDbSymbolTableRecord
100
AcDbLinetypeTableRecord
  2
ByBlock
 70
     0
  3

 72
    65
 73
     0
 40
0.0
  0
LTYPE
  5
15
330
5
100
AcDbSymbolTableRecord
100
AcDbLinetypeTableRecord
  2
ByLayer
 70
     0
  3

 72
    65
 73
     0
 40
0.0
  0
LTYPE
  5
16
330
5
100
AcDbSymbolTableRecord
100
AcDbLinetypeTableRecord
  2
Continuous
 70
     0
  3
Solid line
 72
    65
 73
     0
 40
0.0
  0
LTYPE
  5
6E
330
5
100
AcDbSymbolTableRecord
100
AcDbLinetypeTableRecord
  2
HIDDEN
 70
     0
  3
Hidden __ __ __ __ __ __ __ __ __ __ __ __ __ __
 72
    65
 73
     2
 40
1.905
 49
1.27
 74
     0
 49
-0.635
 74
     0
  0
LTYPE
  5
6F
330
5
100
AcDbSymbolTableRecord
100
AcDbLinetypeTableRecord
  2
PHANTOM
 70
     0
  3
Phantom ______  __  __  ______  __  __  ______
 72
    65
 73
     6
 40
12.7
 49
6.35
 74
     0
 49
-1.27
 74
     0
 49
1.27
 74
     0
 49
-1.27
 74
     0
 49
1.27
 74
     0
 49
-1.27
 74
     0
  0
LTYPE
  5
70
330
5
100
AcDbSymbolTableRecord
100
AcDbLinetypeTableRecord
  2
CENTER
 70
     0
  3
Center ____ _ ____ _ ____ _ ____ _ ____ _ ____
 72
    65
 73
     4
 40
10.16
 49
6.35
 74
     0
 49
-1.27
 74
     0
 49
1.27
 74
     0
 49
-1.27
 74
     0
  0
LTYPE
  5
71
330
5
100
AcDbSymbolTableRecord
100
AcDbLinetypeTableRecord
  2
CENTERX2
 70
     0
  3
Center (2x) ________  __  ________  __  _____
 72
    65
 73
     4
 40
20.32
 49
12.7
 74
     0
 49
-2.54
 74
     0
 49
2.54
 74
     0
 49
-2.54
 74
     0
  0
LTYPE
  5
72
330
5
100
AcDbSymbolTableRecord
100
AcDbLinetypeTableRecord
  2
DOT2
 70
     0
  3
Dot (.5x) ........................................
 72
    65
 73
     2
 40
0.635
 49
0.0
 74
     0
 49
-0.635
 74
     0
  0
ENDTAB
  0
TABLE
  2
LAYER
  5
2
330
0
100
AcDbSymbolTable
 70
     1
  0
LAYER
  5
10
330
2
100
AcDbSymbolTableRecord
100
AcDbLayerTableRecord
  2
0
 70
     0
 62
     7
  6
Continuous
370
    -3
390
F
  0
ENDTAB
  0
TABLE
  2
STYLE
  5
3
330
0
100
AcDbSymbolTable
 70
     1
  0
STYLE
  5
11
330
3
100
AcDbSymbolTableRecord
100
AcDbTextStyleTableRecord
  2
Standard
 70
     0
 40
0.0
 41
1.0
 50
0.0
 71
     0
 42
3.5
  3
txt
  4

  0
ENDTAB
  0
TABLE
  2
VIEW
  5
6
330
0
100
AcDbSymbolTable
 70
     0
  0
ENDTAB
  0
TABLE
  2
UCS
  5
7
330
0
100
AcDbSymbolTable
 70
     0
  0
ENDTAB
  0
TABLE
  2
APPID
  5
9
330
0
100
AcDbSymbolTable
 70
     1
  0
APPID
  5
12
330
9
100
AcDbSymbolTableRecord
100
AcDbRegAppTableRecord
  2
ACAD
 70
     0
  0
ENDTAB
  0
TABLE
  2
DIMSTYLE
  5
A
330
0
100
AcDbSymbolTable
 70
     1
100
AcDbDimStyleTable
  0
DIMSTYLE
105
27
330
A
100
AcDbSymbolTableRecord
100
AcDbDimStyleTableRecord
  2
ISO-25
 70
     0
 41
2.5
 42
0.625
 43
3.75
 44
1.25
 73
     0
 74
     0
 77
     1
 78
     8
140
2.5
141
2.5
143
0.0393700787
147
0.625
171
     3
172
     1
178
     0
271
     2
272
     2
274
     3
278
    44
283
     0
284
     8
340
11
  0
ENDTAB
  0
TABLE
  2
BLOCK_RECORD
  5
1
330
0
100
AcDbSymbolTable
 70
     1
  0
BLOCK_RECORD
  5
1F
330
1
100
AcDbSymbolTableRecord
100
AcDbBlockTableRecord
  2
*Model_Space
340
22
  0
BLOCK_RECORD
  5
1B
330
1
100
AcDbSymbolTableRecord
100
AcDbBlockTableRecord
  2
*Paper_Space
340
1E
  0
BLOCK_RECORD
  5
23
330
1
100
AcDbSymbolTableRecord
100
AcDbBlockTableRecord
  2
*Paper_Space0
340
26
  0
ENDTAB
  0
ENDSEC
  0
SECTION
  2
BLOCKS
  0
BLOCK
  5
20
330
1F
100
AcDbEntity
  8
0
100
AcDbBlockBegin
  2
*Model_Space
 70
     0
 10
0.0
 20
0.0
 30
0.0
  3
*Model_Space
  1

  0
ENDBLK
  5
21
330
1F
100
AcDbEntity
  8
0
100
AcDbBlockEnd
  0
BLOCK
  5
1C
330
1B
100
AcDbEntity
 67
     1
  8
0
100
AcDbBlockBegin
  2
*Paper_Space
 70
     0
 10
0.0
 20
0.0
 30
0.0
  3
*Paper_Space
  1

  0
ENDBLK
  5
1D
330
1B
100
AcDbEntity
 67
     1
  8
0
100
AcDbBlockEnd
  0
BLOCK
  5
24
330
23
100
AcDbEntity
  8
0
100
AcDbBlockBegin
  2
*Paper_Space0
 70
     0
 10
0.0
 20
0.0
 30
0.0
  3
*Paper_Space0
  1

  0
ENDBLK
  5
25
330
23
100
AcDbEntity
  8
0
100
AcDbBlockEnd
  0
ENDSEC
  0
SECTION
  2
ENTITIES
  0
LINE
  5
73
330
1F
100
AcDbEntity
  8
0
  6
Continuous
 62
     7
370
    15
100
AcDbLine
 10
113.8904194511
 20
182.4113425006
 30
0.0
 11
113.8904194511
 21
142.9113406827
 31
0.0
  0
LINE
  5
74
330
1F
100
AcDbEntity
  8
0
  6
Continuous
 62
     7
370
    15
100
AcDbLine
 10
113.8904194511
 20
241.9113429402
 30
0.0
 11
113.8904194511
 21
202.4113420536
 31
0.0
  0
LINE
  5
75
330
1F
100
AcDbEntity
  8
0
  6
Continuous
 62
     7
370
    15
100
AcDbLine
 10
148.8904158749
 20
202.4113420536
 30
0.0
 11
148.8904158749
 21
241.9113429402
 31
0.0
  0
LINE
  5
76
330
1F
100
AcDbEntity
  8
0
  6
Continuous
 62
     7
370
    15
100
AcDbLine
 10
148.8904158749
 20
142.9113406827
 30
0.0
 11
148.8904158749
 21
182.4113425006
 31
0.0
  0
LINE
  5
77
330
1F
100
AcDbEntity
  8
0
  6
Continuous
 62
     7
370
    15
100
AcDbLine
 10
148.8904158749
 20
241.9113429402
 30
0.0
 11
148.3904223122
 21
242.4113430222
 31
0.0
  0
LINE
  5
78
330
1F
100
AcDbEntity
  8
0
  6
Continuous
 62
     7
370
    15
100
AcDbLine
 10
114.3904130138
 20
242.4113430222
 30
0.0
 11
113.8904194511
 21
241.9113429402
 31
0.0
  0
LINE
  5
79
330
1F
100
AcDbEntity
  8
0
  6
Continuous
 62
     7
370
    15
100
AcDbLine
 10
113.8904194511
 20
142.9113406827
 30
0.0
 11
114.3904130138
 21
142.4113396694
 31
0.0
  0
LINE
  5
7A
330
1F
100
AcDbEntity
  8
0
  6
Continuous
 62
     7
370
    15
100
AcDbLine
 10
148.3904223122
 20
142.4113396694
 30
0.0
 11
148.8904158749
 21
142.9113406827
 31
0.0
  0
LINE
  5
7B
330
1F
100
AcDbEntity
  8
0
  6
Continuous
 62
     7
370
    15
100
AcDbLine
 10
159.0111057438
 20
182.4113425006
 30
0.0
 11
159.5111142076
 21
182.9113435139
 31
0.0
  0
LINE
  5
7C
330
1F
100
AcDbEntity
  8
0
  6
Continuous
 62
     7
370
    15
100
AcDbLine
 10
159.5111142076
 20
201.911342903
 30
0.0
 11
159.0111057438
 21
202.4113420536
 31
0.0
  0
LINE
  5
7D
330
1F
100
AcDbEntity
  8
0
  6
Continuous
 62
     7
370
    15
100
AcDbLine
 10
-4.988883885
 20
182.4113425006
 30
0.0
 11
9.452576486
 21
182.4113425006
 31
0.0
  0
LINE
  5
7E
330
1F
100
AcDbEntity
  8
0
  6
Continuous
 62
     7
370
    15
100
AcDbLine
 10
44.4525729097
 20
182.4113425006
 30
0.0
 11
113.8904194511
 21
182.4113425006
 31
0.0
  0
LINE
  5
7F
330
1F
100
AcDbEntity
  8
0
  6
Continuous
 62
     7
370
    15
100
AcDbLine
 10
148.8904158749
 20
182.4113425006
 30
0.0
 11
159.0111057438
 21
182.4113425006
 31
0.0
  0
LINE
  5
80
330
1F
100
AcDbEntity
  8
0
  6
Continuous
 62
     7
370
    15
100
AcDbLine
 10
159.0111057438
 20
202.4113420536
 30
0.0
 11
148.8904158749
 21
202.4113420536
 31
0.0
  0
LINE
  5
81
330
1F
100
AcDbEntity
  8
0
  6
Continuous
 62
     7
370
    15
100
AcDbLine
 10
113.8904194511
 20
202.4113420536
 30
0.0
 11
44.4525729097
 21
202.4113420536
 31
0.0
  0
LINE
  5
82
330
1F
100
AcDbEntity
  8
0
  6
Continuous
 62
     7
370
    15
100
AcDbLine
 10
9.452576486
 20
202.4113420536
 30
0.0
 11
-4.988883885
 21
202.4113420536
 31
0.0
  0
LINE
  5
83
330
1F
100
AcDbEntity
  8
0
  6
Continuous
 62
     7
370
    15
100
AcDbLine
 10
-4.988883885
 20
202.4113420536
 30
0.0
 11
-5.4888774477
 21
201.911342903
 31
0.0
  0
LINE
  5
84
330
1F
100
AcDbEntity
  8
0
  6
Continuous
 62
     7
370
    15
100
AcDbLine
 10
-5.4888774477
 20
182.9113435139
 30
0.0
 11
-4.988883885
 21
182.4113425006
 31
0.0
  0
LINE
  5
85
330
1F
100
AcDbEntity
  8
0
  6
Continuous
 62
     7
370
    15
100
AcDbLine
 10
44.4525729097
 20
241.9113429402
 30
0.0
 11
43.952579347
 21
242.4113430222
 31
0.0
  0
LINE
  5
86
330
1F
100
AcDbEntity
  8
0
  6
Continuous
 62
     7
370
    15
100
AcDbLine
 10
9.9525700487
 20
242.4113430222
 30
0.0
 11
9.452576486
 21
241.9113429402
 31
0.0
  0
LINE
  5
87
330
1F
100
AcDbEntity
  8
0
  6
Continuous
 62
     7
370
    15
100
AcDbLine
 10
9.452576486
 20
182.4113425006
 30
0.0
 11
9.452576486
 21
92.4113426497
 31
0.0
  0
LINE
  5
88
330
1F
100
AcDbEntity
  8
0
  6
Continuous
 62
     7
370
    15
100
AcDbLine
 10
9.452576486
 20
241.9113429402
 30
0.0
 11
9.452576486
 21
202.4113420536
 31
0.0
  0
LINE
  5
89
330
1F
100
AcDbEntity
  8
0
  6
Continuous
 62
     7
370
    15
100
AcDbLine
 10
44.4525729097
 20
202.4113420536
 30
0.0
 11
44.4525729097
 21
241.9113429402
 31
0.0
  0
LINE
  5
8A
330
1F
100
AcDbEntity
  8
0
  6
Continuous
 62
     7
370
    15
100
AcDbLine
 10
44.4525729097
 20
92.4113426497
 30
0.0
 11
44.4525729097
 21
182.4113425006
 31
0.0
  0
LWPOLYLINE
  5
8B
330
1F
100
AcDbEntity
  8
0
  6
Continuous
 62
     7
370
    15
100
AcDbPolyline
 90
       23
 70
   128
 43
0.0
 10
113.8906131662
 20
202.4110105028
 10
113.9524678863
 20
202.3023568233
 10
114.140744058
 20
201.9665219029
 10
114.4254903473
 20
201.4423214038
 10
114.7983024992
 20
200.720874234
 10
115.2602533974
 20
199.7551914444
 10
115.7571326174
 20
198.5878605535
 10
116.2693302311
 20
197.1438970556
 10
116.7042057194
 20
195.4829353978
 10
116.9271866955
 20
194.1245902469
 10
117.026517836
 20
192.6786523451
 10
116.9831703581
 20
191.2629973282
 10
116.800497023
 20
189.8391951015
 10
116.5168981232
 20
188.5420154919
 10
116.1490182556
 20
187.3073946824
 10
115.6803469337
 20
186.0429566493
 10
115.1878784574
 20
184.9098537256
 10
114.6854262031
 20
183.8786710193
 10
114.2612944521
 20
183.0755729367
 10
114.0264521517
 20
182.651355504
 10
113.9032046474
 20
182.4337501218
 10
113.8904194511
 20
182.4113425006
 10
113.8904194511
 20
182.4113425006
  0
LWPOLYLINE
  5
8C
330
1F
100
AcDbEntity
  8
0
  6
Continuous
 62
     7
370
    15
100
AcDbPolyline
 90
       23
 70
   128
 43
0.0
 10
148.8902221598
 20
182.4116740515
 10
148.8283674396
 20
182.5203258683
 10
148.640091268
 20
182.856164514
 10
148.3553449787
 20
183.3803650131
 10
147.9825328268
 20
184.1018121829
 10
147.5205819286
 20
185.0674931099
 10
147.0236878075
 20
186.2348240008
 10
146.5114901937
 20
187.6787874987
 10
146.0766296066
 20
189.3397491564
 10
145.8536486305
 20
190.6980943074
 10
145.75431749
 20
192.1440359344
 10
145.7976649679
 20
193.5596909513
 10
145.980338303
 20
194.9834931781
 10
146.2639372028
 20
196.2806727876
 10
146.6318170704
 20
197.5152898719
 10
147.1004883922
 20
198.779727905
 10
147.5929568685
 20
199.9128308286
 10
148.0953942217
 20
200.944013535
 10
148.5195259727
 20
201.7471134802
 10
148.7543831743
 20
202.1713309129
 10
148.8776157774
 20
202.3889344325
 10
148.8904158749
 20
202.4113420536
 10
148.8904158749
 20
202.4113420536
  0
LINE
  5
8D
330
1F
100
AcDbEntity
  8
0
  6
Continuous
 62
     7
370
    15
100
AcDbLine
 10
148.8904158749
 20
241.9113429402
 30
0.0
 11
113.8904194511
 21
241.9113429402
 31
0.0
  0
LINE
  5
8E
330
1F
100
AcDbEntity
  8
0
  6
Continuous
 62
     7
370
    15
100
AcDbLine
 10
113.8904194511
 20
142.9113406827
 30
0.0
 11
148.8904158749
 21
142.9113406827
 31
0.0
  0
LINE
  5
8F
330
1F
100
AcDbEntity
  8
0
  6
Continuous
 62
     7
370
    15
100
AcDbLine
 10
114.3904130138
 20
242.4113430222
 30
0.0
 11
148.3904223122
 21
242.4113430222
 31
0.0
  0
LINE
  5
90
330
1F
100
AcDbEntity
  8
0
  6
Continuous
 62
     7
370
    15
100
AcDbLine
 10
148.3904223122
 20
142.4113396694
 30
0.0
 11
114.3904130138
 21
142.4113396694
 31
0.0
  0
LINE
  5
91
330
1F
100
AcDbEntity
  8
0
  6
Continuous
 62
     7
370
    15
100
AcDbLine
 10
159.5111142076
 20
201.7338756611
 30
0.0
 11
159.5111142076
 21
182.9113435139
 31
0.0
  0
LINE
  5
92
330
1F
100
AcDbEntity
  8
0
  6
Continuous
 62
     7
370
    15
100
AcDbLine
 10
159.5111142076
 20
201.911342903
 30
0.0
 11
159.5111142076
 21
201.7338756611
 31
0.0
  0
LINE
  5
93
330
1F
100
AcDbEntity
  8
0
  6
Continuous
 62
     7
370
    15
100
AcDbLine
 10
159.0111057438
 20
202.2245355089
 30
0.0
 11
159.0111057438
 21
202.4113420536
 31
0.0
  0
LINE
  5
94
330
1F
100
AcDbEntity
  8
0
  6
Continuous
 62
     7
370
    15
100
AcDbLine
 10
159.0111057438
 20
182.4113425006
 30
0.0
 11
159.0111057438
 21
202.2245355089
 31
0.0
  0
LINE
  5
95
330
1F
100
AcDbEntity
  8
0
  6
Continuous
 62
     7
370
    15
100
AcDbLine
 10
-4.988883885
 20
202.2245355089
 30
0.0
 11
-4.988883885
 21
182.4113425006
 31
0.0
  0
LINE
  5
96
330
1F
100
AcDbEntity
  8
0
  6
Continuous
 62
     7
370
    15
100
AcDbLine
 10
-4.988883885
 20
202.4113420536
 30
0.0
 11
-4.988883885
 21
202.2245355089
 31
0.0
  0
LINE
  5
97
330
1F
100
AcDbEntity
  8
0
  6
Continuous
 62
     7
370
    15
100
AcDbLine
 10
-5.4888774477
 20
201.7338756611
 30
0.0
 11
-5.4888774477
 21
201.911342903
 31
0.0
  0
LINE
  5
98
330
1F
100
AcDbEntity
  8
0
  6
Continuous
 62
     7
370
    15
100
AcDbLine
 10
-5.4888774477
 20
182.9113435139
 30
0.0
 11
-5.4888774477
 21
201.7338756611
 31
0.0
  0
CIRCLE
  5
99
330
1F
100
AcDbEntity
  8
0
  6
Continuous
 62
     7
370
    15
100
AcDbCircle
 10
26.9525681403
 20
217.4113427283
 30
0.0
 40
15.49999999999998
  0
CIRCLE
  5
9A
330
1F
100
AcDbEntity
  8
0
  6
Continuous
 62
     7
370
    15
100
AcDbCircle
 10
26.9525681403
 20
217.4113427283
 30
0.0
 40
17.50000000000001
  0
CIRCLE
  5
9B
330
1F
100
AcDbEntity
  8
0
  6
Continuous
 62
     7
370
    15
100
AcDbCircle
 10
131.3904168429
 20
167.4113427283
 30
0.0
 40
15.49999999999999
  0
CIRCLE
  5
9C
330
1F
100
AcDbEntity
  8
0
  6
Continuous
 62
     7
370
    15
100
AcDbCircle
 10
131.3904168429
 20
167.4113427283
 30
0.0
 40
17.5
  0
CIRCLE
  5
9D
330
1F
100
AcDbEntity
  8
0
  6
Continuous
 62
     7
370
    15
100
AcDbCircle
 10
26.9525681403
 20
167.4113427283
 30
0.0
 40
15.49999999999999
  0
CIRCLE
  5
9E
330
1F
100
AcDbEntity
  8
0
  6
Continuous
 62
     7
370
    15
100
AcDbCircle
 10
26.9525681403
 20
167.4113427283
 30
0.0
 40
17.49999999999999
  0
CIRCLE
  5
9F
330
1F
100
AcDbEntity
  8
0
  6
Continuous
 62
     7
370
    15
100
AcDbCircle
 10
131.3904168429
 20
217.4113427283
 30
0.0
 40
15.5
  0
CIRCLE
  5
A0
330
1F
100
AcDbEntity
  8
0
  6
Continuous
 62
     7
370
    15
100
AcDbCircle
 10
131.3904168429
 20
217.4113427283
 30
0.0
 40
17.5
  0
SPLINE
  5
A1
330
1F
100
AcDbEntity
  8
0
  6
Continuous
 62
     7
370
    15
100
AcDbSpline
210
0.0
220
0.0
230
1.0
 70
     8
 71
     3
 72
    12
 73
     8
 74
     0
 42
0.000000001
 43
0.00000001
 40
0.0
 40
0.0
 40
0.0
 40
0.0
 40
0.3143696124138384
 40
0.5871622183837899
 40
0.8110366668285164
 40
0.9077122292516802
 40
1.0
 40
1.0
 40
1.0
 40
1.0
 10
26.9526194013491
 20
102.6646379520477
 30
0.0
 10
26.42902614579226
 20
102.6966773675988
 30
0.0
 10
25.45108754955536
 20
102.7565188203596
 30
0.0
 10
24.16743113939648
 20
103.2268089377946
 30
0.0
 10
23.36409060203967
 20
103.8382847577118
 30
0.0
 10
23.00341415855286
 20
104.4418861792622
 30
0.0
 10
22.96926136831776
 20
104.7572404186043
 30
0.0
 10
22.95258149279503
 20
104.9112562229217
 30
0.0
  0
SPLINE
  5
A2
330
1F
100
AcDbEntity
  8
0
  6
Continuous
 62
     7
370
    15
100
AcDbSpline
210
0.0
220
0.0
230
1.0
 70
     8
 71
     3
 72
    12
 73
     8
 74
     0
 42
0.000000001
 43
0.00000001
 40
0.0
 40
0.0
 40
0.0
 40
0.0
 40
0.0922865265656697
 40
0.1889620508465219
 40
0.4128408775748675
 40
0.6856282657730746
 40
1.0
 40
1.0
 40
1.0
 40
1.0
 10
30.95256790293602
 20
104.9114275862754
 30
0.0
 10
30.93588501121627
 20
104.7574158361971
 30
0.0
 10
30.90172581646997
 20
104.4420677866792
 30
0.0
 10
30.5411092796499
 20
103.8384292473486
 30
0.0
 10
29.73774898570861
 20
103.2269706656916
 30
0.0
 10
28.45415257880537
 20
102.7565555607925
 30
0.0
 10
27.47621721889828
 20
102.6966904301785
 30
0.0
 10
26.9526194013491
 20
102.6646379520477
 30
0.0
  0
SPLINE
  5
A3
330
1F
100
AcDbEntity
  8
0
  6
Continuous
 62
     7
370
    15
100
AcDbSpline
210
0.0
220
0.0
230
1.0
 70
     8
 71
     3
 72
    12
 73
     8
 74
     0
 42
0.000000001
 43
0.00000001
 40
0.0
 40
0.0
 40
0.0
 40
0.0
 40
0.3143706457380608
 40
0.5871592319266766
 40
0.8110335794307505
 40
0.9077108197295799
 40
1.0
 40
1.0
 40
1.0
 40
1.0
 10
26.95252999438194
 20
107.1580458571494
 30
0.0
 10
27.47612485726894
 20
107.1260125660435
 30
0.0
 10
28.45405826708755
 20
107.0661830531521
 30
0.0
 10
29.73768704566995
 20
106.5958626865805
 30
0.0
 10
30.54104033346497
 20
105.984407189236
 30
0.0
 10
30.90169672673229
 20
105.3807960197135
 30
0.0
 10
30.93587540281431
 20
105.0654427519734
 30
0.0
 10
30.95256790293602
 20
104.9114275862754
 30
0.0
  0
SPLINE
  5
A4
330
1F
100
AcDbEntity
  8
0
  6
Continuous
 62
     7
370
    15
100
AcDbSpline
210
0.0
220
0.0
230
1.0
 70
     8
 71
     3
 72
    12
 73
     8
 74
     0
 42
0.000000001
 43
0.00000001
 40
0.0
 40
0.0
 40
0.0
 40
0.0
 40
0.0922878189535552
 40
0.1889631557348653
 40
0.4128369539407796
 40
0.6856288754884773
 40
1.0
 40
1.0
 40
1.0
 40
1.0
 10
22.95258149279503
 20
104.9112562229217
 30
0.0
 10
22.96926394952434
 20
105.0652706578981
 30
0.0
 10
23.00342197497909
 20
105.3806216326188
 30
0.0
 10
23.36403770871934
 20
105.9842531549723
 30
0.0
 10
24.16737670780053
 20
106.5957405469111
 30
0.0
 10
25.45099319539815
 20
107.0661176932241
 30
0.0
 10
26.42893385415682
 20
107.1259898783404
 30
0.0
 10
26.95252999438194
 20
107.1580458571494
 30
0.0
  0
CIRCLE
  5
A5
330
1F
100
AcDbEntity
  8
0
  6
Continuous
 62
     7
370
    15
100
AcDbCircle
 10
26.9525681403
 20
104.9113427283
 30
0.0
 40
7.250000000000008
  0
CIRCLE
  5
A6
330
1F
100
AcDbEntity
  8
0
  6
Continuous
 62
     7
370
    15
100
AcDbCircle
 10
26.9525681403
 20
104.9113427283
 30
0.0
 40
8.249999999999995
  0
LINE
  5
A7
330
1F
100
AcDbEntity
  8
0
  6
Continuous
 62
     7
370
    15
100
AcDbLine
 10
25.3785799421
 20
104.1783128073
 30
0.0
 11
24.0815828718
 21
104.178283005
 31
0.0
  0
SPLINE
  5
A8
330
1F
100
AcDbEntity
  8
0
  6
Continuous
 62
     7
370
    15
100
AcDbSpline
210
0.0
220
0.0
230
1.0
 70
     8
 71
     3
 72
    11
 73
     7
 74
     0
 42
0.000000001
 43
0.00000001
 40
0.0
 40
0.0
 40
0.0
 40
0.0
 40
0.2833420944221654
 40
0.5581074410180457
 40
0.7754938165358624
 40
1.0
 40
1.0
 40
1.0
 40
1.0
 10
25.78848108424095
 20
104.5883182575286
 30
0.0
 10
25.78049703917515
 20
104.5273634067771
 30
0.0
 10
25.76477062559798
 20
104.4072988048691
 30
0.0
 10
25.65514686956702
 20
104.2741143484532
 30
0.0
 10
25.52155473559267
 20
104.1930253587637
 30
0.0
 10
25.42674738777959
 20
104.1832693874357
 30
0.0
 10
25.37857994212059
 20
104.1783128072799
 30
0.0
  0
LINE
  5
A9
330
1F
100
AcDbEntity
  8
0
  6
Continuous
 62
     7
370
    15
100
AcDbLine
 10
25.7884512819
 20
105.6443188479
 30
0.0
 11
25.7884810842
 21
104.5883182575
 31
0.0
  0
LINE
  5
AA
330
1F
100
AcDbEntity
  8
0
  6
Continuous
 62
     7
370
    15
100
AcDbLine
 10
24.6195445932
 20
105.6442890455
 30
0.0
 11
25.7884512819
 21
105.6443188479
 31
0.0
  0
LINE
  5
AB
330
1F
100
AcDbEntity
  8
0
  6
Continuous
 62
     7
370
    15
100
AcDbLine
 10
24.6195743956
 20
105.2801940729
 30
0.0
 11
24.6195445932
 21
105.6442890455
 31
0.0
  0
SPLINE
  5
AC
330
1F
100
AcDbEntity
  8
0
  6
Continuous
 62
     7
370
    15
100
AcDbSpline
210
0.0
220
0.0
230
1.0
 70
     8
 71
     3
 72
    12
 73
     8
 74
     0
 42
0.000000001
 43
0.00000001
 40
0.0
 40
0.0
 40
0.0
 40
0.0
 40
0.3169212765714838
 40
0.5910504630558383
 40
0.81418200964807
 40
0.9095281833920308
 40
1.0
 40
1.0
 40
1.0
 40
1.0
 10
26.9526194013491
 20
102.8131429245056
 30
0.0
 10
26.44933853802792
 20
102.8429912348677
 30
0.0
 10
25.51073198396139
 20
102.8986576068191
 30
0.0
 10
24.27860072485813
 20
103.3362899636934
 30
0.0
 10
23.50447302527961
 20
103.9058303645519
 30
0.0
 10
23.15516158453787
 20
104.4715161577708
 30
0.0
 10
23.12200045974019
 20
104.7672621937273
 30
0.0
 10
23.10585483683489
 20
104.9112562229217
 30
0.0
  0
SPLINE
  5
AD
330
1F
100
AcDbEntity
  8
0
  6
Continuous
 62
     7
370
    15
100
AcDbSpline
210
0.0
220
0.0
230
1.0
 70
     8
 71
     3
 72
    12
 73
     8
 74
     0
 42
0.000000001
 43
0.00000001
 40
0.0
 40
0.0
 40
0.0
 40
0.0
 40
0.0904705037359346
 40
0.18582058282797
 40
0.4089517582492538
 40
0.6830777832473354
 40
1.0
 40
1.0
 40
1.0
 40
1.0
 10
23.10585483683494
 20
104.9112562229217
 30
0.0
 10
23.12198922220429
 20
105.0552502503866
 30
0.0
 10
23.15512820970958
 20
105.3510047007583
 30
0.0
 10
23.5044399901054
 20
105.9166993910663
 30
0.0
 10
24.27852812108553
 20
106.4862859529211
 30
0.0
 10
25.51064782439669
 20
106.9239599525236
 30
0.0
 10
26.44924875948249
 20
106.9796693195097
 30
0.0
 10
26.95252999438194
 20
107.0095408846916
 30
0.0
  0
SPLINE
  5
AE
330
1F
100
AcDbEntity
  8
0
  6
Continuous
 62
     7
370
    15
100
AcDbSpline
210
0.0
220
0.0
230
1.0
 70
     8
 71
     3
 72
    12
 73
     8
 74
     0
 42
0.000000001
 43
0.00000001
 40
0.0
 40
0.0
 40
0.0
 40
0.0
 40
0.3169223164584363
 40
0.5910459759392731
 40
0.814178254674157
 40
0.9095305683696785
 40
1.0
 40
1.0
 40
1.0
 40
1.0
 10
26.95252999438194
 20
107.0095408846916
 30
0.0
 10
27.45581003161032
 20
106.9796928260808
 30
0.0
 10
28.39440483963288
 20
106.9240275288917
 30
0.0
 10
29.62653678600816
 20
106.4863995791406
 30
0.0
 10
30.40063243199834
 20
105.9168448756489
 30
0.0
 10
30.74999612848697
 20
105.3511769545878
 30
0.0
 10
30.78313212132525
 20
105.0554201518336
 30
0.0
 10
30.79926475657371
 20
104.9114275862754
 30
0.0
  0
SPLINE
  5
AF
330
1F
100
AcDbEntity
  8
0
  6
Continuous
 62
     7
370
    15
100
AcDbSpline
210
0.0
220
0.0
230
1.0
 70
     8
 71
     3
 72
    12
 73
     8
 74
     0
 42
0.000000001
 43
0.00000001
 40
0.0
 40
0.0
 40
0.0
 40
0.0
 40
0.0904679484554773
 40
0.1858195229267795
 40
0.4089500234784486
 40
0.6830775130371836
 40
1.0
 40
1.0
 40
1.0
 40
1.0
 10
30.79926475657371
 20
104.9114275862754
 30
0.0
 10
30.78314177962008
 20
104.7674360032458
 30
0.0
 10
30.75002547780451
 20
104.4716799070722
 30
0.0
 10
30.40070958732452
 20
103.9059856975443
 30
0.0
 10
29.6266165208158
 20
103.3364102704673
 30
0.0
 10
28.39450581268779
 20
102.8987088948469
 30
0.0
 10
27.45590143442503
 20
102.8430092268557
 30
0.0
 10
26.9526194013491
 20
102.8131429245056
 30
0.0
  0
LINE
  5
B0
330
1F
100
AcDbEntity
  8
0
  6
Continuous
 62
     7
370
    15
100
AcDbLine
 10
28.9884756483
 20
104.762989669
 30
0.0
 11
29.917861072
 21
104.7630045702
 31
0.0
  0
LINE
  5
B1
330
1F
100
AcDbEntity
  8
0
  6
Continuous
 62
     7
370
    15
100
AcDbLine
 10
29.917861072
 20
104.7630045702
 30
0.0
 11
29.917861072
 21
105.0695065548
 31
0.0
  0
LINE
  5
B2
330
1F
100
AcDbEntity
  8
0
  6
Continuous
 62
     7
370
    15
100
AcDbLine
 10
28.2315860666
 20
104.1783724119
 30
0.0
 11
28.7872801699
 21
104.1783873131
 31
0.0
  0
LINE
  5
B3
330
1F
100
AcDbEntity
  8
0
  6
Continuous
 62
     7
370
    15
100
AcDbLine
 10
26.487971393
 20
104.1783277084
 30
0.0
 11
25.9417842306
 21
104.1783277084
 31
0.0
  0
LINE
  5
B4
330
1F
100
AcDbEntity
  8
0
  6
Continuous
 62
     7
370
    15
100
AcDbLine
 10
26.487971393
 20
105.2802313258
 30
0.0
 11
26.487971393
 21
104.1783277084
 31
0.0
  0
LINE
  5
B5
330
1F
100
AcDbEntity
  8
0
  6
Continuous
 62
     7
370
    15
100
AcDbLine
 10
28.0974756159
 20
104.1783724119
 30
0.0
 11
27.5417815126
 21
104.1783575108
 31
0.0
  0
LINE
  5
B6
330
1F
100
AcDbEntity
  8
0
  6
Continuous
 62
     7
370
    15
100
AcDbLine
 10
28.0974756159
 20
105.2338663628
 30
0.0
 11
28.0974756159
 21
104.1783724119
 31
0.0
  0
LINE
  5
B7
330
1F
100
AcDbEntity
  8
0
  6
Continuous
 62
     7
370
    15
100
AcDbLine
 10
29.917861072
 20
105.0695065548
 30
0.0
 11
28.9884756483
 21
105.0694842031
 31
0.0
  0
SPLINE
  5
B8
330
1F
100
AcDbEntity
  8
0
  6
Continuous
 62
     7
370
    15
100
AcDbSpline
210
0.0
220
0.0
230
1.0
 70
     8
 71
     3
 72
    11
 73
     7
 74
     0
 42
0.000000001
 43
0.00000001
 40
0.0
 40
0.0
 40
0.0
 40
0.0
 40
0.2833136720559146
 40
0.558058333438789
 40
0.7754469189137569
 40
1.0
 40
1.0
 40
1.0
 40
1.0
 10
27.68703803194908
 20
105.644356100756
 30
0.0
 10
27.74806114216463
 20
105.6363570018553
 30
0.0
 10
27.86826167799109
 20
105.6206007421268
 30
0.0
 10
28.00157821029067
 20
105.5108122972415
 30
0.0
 10
28.08272567005029
 20
105.3770318831964
 30
0.0
 10
28.09250611567474
 20
105.2821011895708
 30
0.0
 10
28.09747561587236
 20
105.2338663627685
 30
0.0
  0
LINE
  5
B9
330
1F
100
AcDbEntity
  8
0
  6
Continuous
 62
     7
370
    15
100
AcDbLine
 10
28.9884756483
 20
105.0694842031
 30
0.0
 11
28.9884756483
 21
104.762989669
 31
0.0
  0
LINE
  5
BA
330
1F
100
AcDbEntity
  8
0
  6
Continuous
 62
     7
370
    15
100
AcDbLine
 10
25.232786981
 20
104.5520041277
 30
0.0
 11
25.2327571787
 21
105.2802015235
 31
0.0
  0
LINE
  5
BB
330
1F
100
AcDbEntity
  8
0
  6
Continuous
 62
     7
370
    15
100
AcDbLine
 10
24.2267797865
 20
104.5519892265
 30
0.0
 11
25.232786981
 21
104.5520041277
 31
0.0
  0
LINE
  5
BC
330
1F
100
AcDbEntity
  8
0
  6
Continuous
 62
     7
370
    15
100
AcDbLine
 10
24.2267797865
 20
104.8298809816
 30
0.0
 11
24.2267797865
 21
104.5519892265
 31
0.0
  0
LINE
  5
BD
330
1F
100
AcDbEntity
  8
0
  6
Continuous
 62
     7
370
    15
100
AcDbLine
 10
25.9417842306
 20
104.1783277084
 30
0.0
 11
25.9417544283
 21
105.6443188479
 31
0.0
  0
LINE
  5
BE
330
1F
100
AcDbEntity
  8
0
  6
Continuous
 62
     7
370
    15
100
AcDbLine
 10
25.9417544283
 20
105.6443188479
 30
0.0
 11
27.6870380319
 21
105.6443561008
 31
0.0
  0
LINE
  5
BF
330
1F
100
AcDbEntity
  8
0
  6
Continuous
 62
     7
370
    15
100
AcDbLine
 10
28.2315562643
 20
105.2338738133
 30
0.0
 11
28.2315860666
 21
104.1783724119
 31
0.0
  0
SPLINE
  5
C0
330
1F
100
AcDbEntity
  8
0
  6
Continuous
 62
     7
370
    15
100
AcDbSpline
210
0.0
220
0.0
230
1.0
 70
     8
 71
     3
 72
    11
 73
     7
 74
     0
 42
0.000000001
 43
0.00000001
 40
0.0
 40
0.0
 40
0.0
 40
0.0
 40
0.2832772531457526
 40
0.5580402952459664
 40
0.7754377536051155
 40
1.0
 40
1.0
 40
1.0
 40
1.0
 10
24.08158287180809
 20
104.1782830049575
 30
0.0
 10
24.02056978861941
 20
104.1862804075391
 30
0.0
 10
23.9003774379157
 20
104.2020348419256
 30
0.0
 10
23.76707453082175
 20
104.3118271847748
 30
0.0
 10
23.68592474971789
 20
104.4456068214464
 30
0.0
 10
23.67614449394181
 20
104.5405377810154
 30
0.0
 10
23.67117509020714
 20
104.588772742945
 30
0.0
  0
LINE
  5
C1
330
1F
100
AcDbEntity
  8
0
  6
Continuous
 62
     7
370
    15
100
AcDbLine
 10
30.2339743055
 20
105.2803132822
 30
0.0
 11
30.2339445032
 21
105.6444157054
 31
0.0
  0
LINE
  5
C2
330
1F
100
AcDbEntity
  8
0
  6
Continuous
 62
     7
370
    15
100
AcDbLine
 10
28.7872503675
 20
105.2802834799
 30
0.0
 11
30.2339743055
 21
105.2803132822
 31
0.0
  0
LINE
  5
C3
330
1F
100
AcDbEntity
  8
0
  6
Continuous
 62
     7
370
    15
100
AcDbLine
 10
28.7872801699
 20
104.1783873131
 30
0.0
 11
28.7872503675
 21
105.2802834799
 31
0.0
  0
SPLINE
  5
C4
330
1F
100
AcDbEntity
  8
0
  6
Continuous
 62
     7
370
    15
100
AcDbSpline
210
0.0
220
0.0
230
1.0
 70
     8
 71
     3
 72
    11
 73
     7
 74
     0
 42
0.000000001
 43
0.00000001
 40
0.0
 40
0.0
 40
0.0
 40
0.0
 40
0.283296883745273
 40
0.558066607584242
 40
0.7754737323845814
 40
1.0
 40
1.0
 40
1.0
 40
1.0
 10
28.64205345286278
 20
105.6443784524978
 30
0.0
 10
28.58103069160437
 20
105.6363751962965
 30
0.0
 10
28.46082193776753
 20
105.6206095797501
 30
0.0
 10
28.32749070273735
 20
105.5108200160479
 30
0.0
 10
28.24630301198108
 20
105.3770441112376
 30
0.0
 10
28.23652435526255
 20
105.2821070291701
 30
0.0
 10
28.23155626429466
 20
105.2338738133491
 30
0.0
  0
LINE
  5
C5
330
1F
100
AcDbEntity
  8
0
  6
Continuous
 62
     7
370
    15
100
AcDbLine
 10
30.2339445032
 20
105.6444157054
 30
0.0
 11
28.6420534529
 21
105.6443784525
 31
0.0
  0
LINE
  5
C6
330
1F
100
AcDbEntity
  8
0
  6
Continuous
 62
     7
370
    15
100
AcDbLine
 10
23.6711750902
 20
104.8298735311
 30
0.0
 11
24.2267797865
 21
104.8298809816
 31
0.0
  0
LINE
  5
C7
330
1F
100
AcDbEntity
  8
0
  6
Continuous
 62
     7
370
    15
100
AcDbLine
 10
23.6711750902
 20
104.5887727429
 30
0.0
 11
23.6711750902
 21
104.8298735311
 31
0.0
  0
LINE
  5
C8
330
1F
100
AcDbEntity
  8
0
  6
Continuous
 62
     7
370
    15
100
AcDbLine
 10
27.5417517103
 20
105.2802536776
 30
0.0
 11
26.487971393
 21
105.2802313258
 31
0.0
  0
LINE
  5
C9
330
1F
100
AcDbEntity
  8
0
  6
Continuous
 62
     7
370
    15
100
AcDbLine
 10
25.2327571787
 20
105.2802015235
 30
0.0
 11
24.6195743956
 21
105.2801940729
 31
0.0
  0
LINE
  5
CA
330
1F
100
AcDbEntity
  8
0
  6
Continuous
 62
     7
370
    15
100
AcDbLine
 10
27.5417815126
 20
104.1783575108
 30
0.0
 11
27.5417517103
 21
105.2802536776
 31
0.0
  0
LINE
  5
CB
330
1F
100
AcDbEntity
  8
0
  6
Continuous
 62
     7
370
    15
100
AcDbLine
 10
44.4525729097
 20
241.9113429402
 30
0.0
 11
9.452576486
 21
241.9113429402
 31
0.0
  0
LINE
  5
CC
330
1F
100
AcDbEntity
  8
0
  6
Continuous
 62
     7
370
    15
100
AcDbLine
 10
9.9525700487
 20
242.4113430222
 30
0.0
 11
43.952579347
 21
242.4113430222
 31
0.0
  0
LWPOLYLINE
  5
CD
330
1F
100
AcDbEntity
  8
0
  6
Continuous
 62
     7
370
    15
100
AcDbPolyline
 90
       23
 70
   128
 43
0.0
 10
44.4523642935
 20
182.4116740515
 10
44.3905244745
 20
182.5203258683
 10
44.2022334017
 20
182.856164514
 10
43.9175020136
 20
183.3803650131
 10
43.5446749605
 20
184.1018121829
 10
43.0827389635
 20
185.0674931099
 10
42.5858448423
 20
186.2348240008
 10
42.0736621298
 20
187.6787874987
 10
41.6387866415
 20
189.3397491564
 10
41.4158056654
 20
190.6980943074
 10
41.3164745249
 20
192.1440359344
 10
41.3598071016
 20
193.5596909513
 10
41.5424953379
 20
194.9834931781
 10
41.8260942377
 20
196.2806727876
 10
42.1939741053
 20
197.5152898719
 10
42.6626454271
 20
198.779727905
 10
43.1550990023
 20
199.9128308286
 10
43.6575661577
 20
200.944013535
 10
44.0816830076
 20
201.7471134802
 10
44.316525308
 20
202.1713309129
 10
44.4397877134
 20
202.3889344325
 10
44.4525729097
 20
202.4113420536
 10
44.4525729097
 20
202.4113420536
  0
LWPOLYLINE
  5
CE
330
1F
100
AcDbEntity
  8
0
  6
Continuous
 62
     7
370
    15
100
AcDbPolyline
 90
       23
 70
   128
 43
0.0
 10
9.4527552999
 20
202.4110105028
 10
9.5146249212
 20
202.3023568233
 10
9.7028861917
 20
201.9665219029
 10
9.9876473822
 20
201.4423214038
 10
10.3604446329
 20
200.720874234
 10
10.8224104322
 20
199.7551914444
 10
11.3193045534
 20
198.5878605535
 10
11.831487266
 20
197.1438970556
 10
12.2663627542
 20
195.4829353978
 10
12.4893437303
 20
194.1245902469
 10
12.5886748709
 20
192.6786523451
 10
12.5453124918
 20
191.2629973282
 10
12.3626540579
 20
189.8391951015
 10
12.079055158
 20
188.5420154919
 10
11.7111752905
 20
187.3073946824
 10
11.2425039686
 20
186.0429566493
 10
10.7500205912
 20
184.9098537256
 10
10.247583238
 20
183.8786710193
 10
9.8234663881
 20
183.0755729367
 10
9.5885942854
 20
182.651355504
 10
9.4653616823
 20
182.4337501218
 10
9.452576486
 20
182.4113425006
 10
9.452576486
 20
182.4113425006
  0
SPLINE
  5
CF
330
1F
100
AcDbEntity
  8
0
  6
Continuous
 62
     7
370
    15
100
AcDbSpline
210
0.0
220
0.0
230
1.0
 70
    11
 71
     3
 72
    46
 73
    42
 74
     0
 42
0.000000001
 43
0.00000001
 40
0.0
 40
0.0
 40
0.0
 40
0.0
 40
0.0248140811519124
 40
0.0496349547851719
 40
0.0743779949913575
 40
0.0991306789392699
 40
0.1253223330113164
 40
0.1515156747786784
 40
0.1796061840910175
 40
0.2076765358034267
 40
0.2341026391686068
 40
0.2605198082663009
 40
0.2839908368724953
 40
0.3074722233193797
 40
0.3315007128654515
 40
0.3555382024485779
 40
0.3824388604025963
 40
0.4093357131470358
 40
0.4373544268613155
 40
0.4653562339685858
 40
0.4911219560274834
 40
0.516885271293878
 40
0.5407824675709627
 40
0.564687531015188
 40
0.5893008748446472
 40
0.6139222264970989
 40
0.6408653385512756
 40
0.66780477762959
 40
0.6958571625891323
 40
0.7238866720614414
 40
0.7492745979327629
 40
0.7746621973744637
 40
0.7978825615336437
 40
0.8211138628199236
 40
0.8459070189733073
 40
0.870706497192433
 40
0.8983026933614604
 40
0.9258890790870248
 40
0.9534868245866531
 40
0.9810695500068713
 40
1.0
 40
1.0
 40
1.0
 40
1.0
 10
26.95255979670433
 20
96.41133585472711
 30
0.0
 10
26.50356580747274
 20
96.43247444605818
 30
0.0
 10
25.60545492366087
 20
96.47475741509162
 30
0.0
 10
24.30005647427605
 20
96.80098410076224
 30
0.0
 10
23.07432861870493
 20
97.31004630053766
 30
0.0
 10
21.93057815519597
 20
98.009127753382
 30
0.0
 10
20.90045395951254
 20
98.89152911503967
 30
0.0
 10
19.98659632753383
 20
99.96974052739674
 30
0.0
 10
19.24754740838955
 20
101.2239392364386
 30
0.0
 10
18.7261484410883
 20
102.6059751701862
 30
0.0
 10
18.45862576830962
 20
104.0450057248167
 30
0.0
 10
18.43143696096852
 20
105.4328224652341
 30
0.0
 10
18.62236052646674
 20
106.7472191627164
 30
0.0
 10
18.98664441850376
 20
107.9678956583427
 30
0.0
 10
19.53002896472714
 20
109.1162144125359
 30
0.0
 10
20.26344880005474
 20
110.2136011781551
 30
0.0
 10
21.19389123975815
 20
111.2150746874578
 30
0.0
 10
22.33385861130757
 20
112.0972540797001
 30
0.0
 10
23.63930641657949
 20
112.7846041940628
 30
0.0
 10
25.03989827590489
 20
113.2370441594676
 30
0.0
 10
26.46856387158467
 20
113.4340000411363
 30
0.0
 10
27.83915631174613
 20
113.4017293524032
 30
0.0
 10
29.14672929465564
 20
113.1555819987826
 30
0.0
 10
30.37399168081786
 20
112.7290105267334
 30
0.0
 10
31.5207281507103
 20
112.1177692914011
 30
0.0
 10
32.59699890561954
 20
111.3156008337374
 30
0.0
 10
33.55543172207206
 20
110.324557305042
 30
0.0
 10
34.37611483136702
 20
109.1377369434646
 30
0.0
 10
34.99298920381258
 20
107.7956297590818
 30
0.0
 10
35.36824502203103
 20
106.3762794876338
 30
0.0
 10
35.48774261464175
 20
104.9503702992897
 30
0.0
 10
35.38761845608953
 20
103.6100448130403
 30
0.0
 10
35.08854929849123
 20
102.3510273610304
 30
0.0
 10
34.62091620861415
 20
101.1697603373779
 30
0.0
 10
33.97135880425797
 20
100.0594218624022
 30
0.0
 10
33.11848891427785
 20
99.00582294343002
 30
0.0
 10
32.06678907531415
 20
98.07199659958266
 30
0.0
 10
30.82335386847704
 20
97.29459886096461
 30
0.0
 10
29.44775520111062
 20
96.74529982402713
 30
0.0
 10
28.13625221879238
 20
96.453450694167
 30
0.0
 10
27.2949587708505
 20
96.42351813920533
 30
0.0
 10
26.95255979670433
 20
96.41133585472711
 30
0.0
  0
LINE
  5
D0
330
1F
100
AcDbEntity
  8
0
  6
Continuous
 62
     7
370
    15
100
AcDbLine
 10
44.4525729097
 20
92.4113426497
 30
0.0
 11
9.452576486
 21
92.4113426497
 31
0.0
  0
LINE
  5
D1
330
1F
100
AcDbEntity
  8
0
  6
Continuous
 62
     7
370
    15
100
AcDbLine
 10
225.9821356314
 20
234.9113427242
 30
0.0
 11
223.9821390288
 21
234.9113427242
 31
0.0
  0
LINE
  5
D2
330
1F
100
AcDbEntity
  8
0
  6
Continuous
 62
     7
370
    15
100
AcDbLine
 10
223.9821390288
 20
199.9113425752
 30
0.0
 11
225.9821356314
 21
199.9113425752
 31
0.0
  0
LINE
  5
D3
330
1F
100
AcDbEntity
  8
0
  6
Continuous
 62
     7
370
    15
100
AcDbLine
 10
223.9821390288
 20
225.9113426459
 30
0.0
 11
222.9821370023
 21
224.9113429477
 31
0.0
  0
LINE
  5
D4
330
1F
100
AcDbEntity
  8
0
  6
Continuous
 62
     7
370
    15
100
AcDbLine
 10
222.9821370023
 20
209.9113423516
 30
0.0
 11
223.9821390288
 21
208.9113421877
 31
0.0
  0
LINE
  5
D5
330
1F
100
AcDbEntity
  8
0
  6
Continuous
 62
     7
370
    15
100
AcDbLine
 10
225.9821356314
 20
184.9113438417
 30
0.0
 11
223.9821390288
 21
184.9113438417
 31
0.0
  0
LINE
  5
D6
330
1F
100
AcDbEntity
  8
0
  6
Continuous
 62
     7
370
    15
100
AcDbLine
 10
223.9821390288
 20
149.9113399674
 30
0.0
 11
225.9821356314
 21
149.9113399674
 31
0.0
  0
LINE
  5
D7
330
1F
100
AcDbEntity
  8
0
  6
Continuous
 62
     7
370
    15
100
AcDbLine
 10
223.9821390288
 20
175.9113442292
 30
0.0
 11
222.9821370023
 21
174.9113422026
 31
0.0
  0
LINE
  5
D8
330
1F
100
AcDbEntity
  8
0
  6
Continuous
 62
     7
370
    15
100
AcDbLine
 10
222.9821370023
 20
159.9113453319
 30
0.0
 11
223.9821390288
 21
158.9113433053
 31
0.0
  0
LINE
  5
D9
330
1F
100
AcDbEntity
  8
0
  6
Continuous
 62
     7
370
    15
100
AcDbLine
 10
238.9821358996
 20
199.9113425752
 30
0.0
 11
240.9821362274
 21
201.911342903
 31
0.0
  0
LINE
  5
DA
330
1F
100
AcDbEntity
  8
0
  6
Continuous
 62
     7
370
    15
100
AcDbLine
 10
240.9821362274
 20
232.9113426292
 30
0.0
 11
238.9821358996
 21
234.9113427242
 31
0.0
  0
LINE
  5
DB
330
1F
100
AcDbEntity
  8
0
  6
Continuous
 62
     7
370
    15
100
AcDbLine
 10
238.1821372586
 20
234.9113427242
 30
0.0
 11
237.9821375983
 21
234.7113425982
 31
0.0
  0
LINE
  5
DC
330
1F
100
AcDbEntity
  8
0
  6
Continuous
 62
     7
370
    15
100
AcDbLine
 10
237.9821375983
 20
200.1113422354
 30
0.0
 11
238.1821372586
 21
199.9113425752
 31
0.0
  0
LINE
  5
DD
330
1F
100
AcDbEntity
  8
0
  6
Continuous
 62
     7
370
    15
100
AcDbLine
 10
238.9821358996
 20
234.9113427242
 30
0.0
 11
238.1821372586
 21
234.9113427242
 31
0.0
  0
LINE
  5
DE
330
1F
100
AcDbEntity
  8
0
  6
Continuous
 62
     7
370
    15
100
AcDbLine
 10
238.1821372586
 20
199.9113425752
 30
0.0
 11
238.9821358996
 21
199.9113425752
 31
0.0
  0
LINE
  5
DF
330
1F
100
AcDbEntity
  8
0
  6
Continuous
 62
     7
370
    15
100
AcDbLine
 10
232.9821386414
 20
225.411342564
 30
0.0
 11
230.9821383136
 21
225.411342564
 31
0.0
  0
LINE
  5
E0
330
1F
100
AcDbEntity
  8
0
  6
Continuous
 62
     7
370
    15
100
AcDbLine
 10
230.9821383136
 20
209.411343201
 30
0.0
 11
232.9821386414
 21
209.411343201
 31
0.0
  0
LINE
  5
E1
330
1F
100
AcDbEntity
  8
0
  6
Continuous
 62
     7
370
    15
100
AcDbLine
 10
238.1821372586
 20
184.9113438417
 30
0.0
 11
237.9821375983
 21
184.7113441815
 31
0.0
  0
LINE
  5
E2
330
1F
100
AcDbEntity
  8
0
  6
Continuous
 62
     7
370
    15
100
AcDbLine
 10
237.9821375983
 20
150.111343353
 30
0.0
 11
238.1821372586
 21
149.9113399674
 31
0.0
  0
LINE
  5
E3
330
1F
100
AcDbEntity
  8
0
  6
Continuous
 62
     7
370
    15
100
AcDbLine
 10
238.9821358996
 20
149.9113399674
 30
0.0
 11
240.9821362274
 21
151.9113440206
 31
0.0
  0
LINE
  5
E4
330
1F
100
AcDbEntity
  8
0
  6
Continuous
 62
     7
370
    15
100
AcDbLine
 10
240.9821362274
 20
182.9113435139
 30
0.0
 11
238.9821358996
 21
184.9113438417
 31
0.0
  0
LINE
  5
E5
330
1F
100
AcDbEntity
  8
0
  6
Continuous
 62
     7
370
    15
100
AcDbLine
 10
238.9821358996
 20
184.9113438417
 30
0.0
 11
238.1821372586
 21
184.9113438417
 31
0.0
  0
LINE
  5
E6
330
1F
100
AcDbEntity
  8
0
  6
Continuous
 62
     7
370
    15
100
AcDbLine
 10
238.1821372586
 20
149.9113399674
 30
0.0
 11
238.9821358996
 21
149.9113399674
 31
0.0
  0
LINE
  5
E7
330
1F
100
AcDbEntity
  8
0
  6
Continuous
 62
     7
370
    15
100
AcDbLine
 10
232.9821386414
 20
175.4113432159
 30
0.0
 11
230.9821383136
 21
175.4113432159
 31
0.0
  0
LINE
  5
E8
330
1F
100
AcDbEntity
  8
0
  6
Continuous
 62
     7
370
    15
100
AcDbLine
 10
230.9821383136
 20
159.4113443186
 30
0.0
 11
232.9821386414
 21
159.4113443186
 31
0.0
  0
LINE
  5
E9
330
1F
100
AcDbEntity
  8
0
  6
Continuous
 62
     7
370
    15
100
AcDbLine
 10
225.9821356314
 20
199.9113425752
 30
0.0
 11
226.9821376579
 21
199.9113425752
 31
0.0
  0
LINE
  5
EA
330
1F
100
AcDbEntity
  8
0
  6
Continuous
 62
     7
370
    15
100
AcDbLine
 10
226.9821376579
 20
234.9113427242
 30
0.0
 11
225.9821356314
 21
234.9113427242
 31
0.0
  0
LINE
  5
EB
330
1F
100
AcDbEntity
  8
0
  6
Continuous
 62
     7
370
    15
100
AcDbLine
 10
226.9821376579
 20
207.4113428732
 30
0.0
 11
230.9821383136
 21
207.4113428732
 31
0.0
  0
LINE
  5
EC
330
1F
100
AcDbEntity
  8
0
  6
Continuous
 62
     7
370
    15
100
AcDbLine
 10
230.9821383136
 20
227.411342659
 30
0.0
 11
226.9821376579
 21
227.411342659
 31
0.0
  0
LINE
  5
ED
330
1F
100
AcDbEntity
  8
0
  6
Continuous
 62
     7
370
    15
100
AcDbLine
 10
225.9821356314
 20
149.9113399674
 30
0.0
 11
226.9821376579
 21
149.9113399674
 31
0.0
  0
LINE
  5
EE
330
1F
100
AcDbEntity
  8
0
  6
Continuous
 62
     7
370
    15
100
AcDbLine
 10
226.9821376579
 20
184.9113438417
 30
0.0
 11
225.9821356314
 21
184.9113438417
 31
0.0
  0
LINE
  5
EF
330
1F
100
AcDbEntity
  8
0
  6
Continuous
 62
     7
370
    15
100
AcDbLine
 10
226.9821376579
 20
157.4113402655
 30
0.0
 11
230.9821383136
 21
157.4113402655
 31
0.0
  0
LINE
  5
F0
330
1F
100
AcDbEntity
  8
0
  6
Continuous
 62
     7
370
    15
100
AcDbLine
 10
230.9821383136
 20
177.4113435437
 30
0.0
 11
226.9821376579
 21
177.4113435437
 31
0.0
  0
LINE
  5
F1
330
1F
100
AcDbEntity
  8
0
  6
Continuous
 62
     7
370
    15
100
AcDbLine
 10
237.9821375983
 20
184.9113438417
 30
0.0
 11
236.9821392971
 21
184.9113438417
 31
0.0
  0
LINE
  5
F2
330
1F
100
AcDbEntity
  8
0
  6
Continuous
 62
     7
370
    15
100
AcDbLine
 10
236.9821392971
 20
149.9113399674
 30
0.0
 11
237.9821375983
 21
149.9113399674
 31
0.0
  0
LINE
  5
F3
330
1F
100
AcDbEntity
  8
0
  6
Continuous
 62
     7
370
    15
100
AcDbLine
 10
236.9821392971
 20
177.4113435437
 30
0.0
 11
232.9821386414
 21
177.4113435437
 31
0.0
  0
LINE
  5
F4
330
1F
100
AcDbEntity
  8
0
  6
Continuous
 62
     7
370
    15
100
AcDbLine
 10
232.9821386414
 20
157.4113402655
 30
0.0
 11
236.9821392971
 21
157.4113402655
 31
0.0
  0
LINE
  5
F5
330
1F
100
AcDbEntity
  8
0
  6
Continuous
 62
     7
370
    15
100
AcDbLine
 10
237.9821375983
 20
234.9113427242
 30
0.0
 11
236.9821392971
 21
234.9113427242
 31
0.0
  0
LINE
  5
F6
330
1F
100
AcDbEntity
  8
0
  6
Continuous
 62
     7
370
    15
100
AcDbLine
 10
236.9821392971
 20
199.9113425752
 30
0.0
 11
237.9821375983
 21
199.9113425752
 31
0.0
  0
LINE
  5
F7
330
1F
100
AcDbEntity
  8
0
  6
Continuous
 62
     7
370
    15
100
AcDbLine
 10
236.9821392971
 20
227.411342659
 30
0.0
 11
232.9821386414
 21
227.411342659
 31
0.0
  0
LINE
  5
F8
330
1F
100
AcDbEntity
  8
0
  6
Continuous
 62
     7
370
    15
100
AcDbLine
 10
232.9821386414
 20
207.4113428732
 30
0.0
 11
236.9821392971
 21
207.4113428732
 31
0.0
  0
LINE
  5
F9
330
1F
100
AcDbEntity
  8
0
  6
Continuous
 62
     7
370
    15
100
AcDbLine
 10
187.3807978157
 20
188.4113434841
 30
0.0
 11
187.9821375518
 21
188.4113434841
 31
0.0
  0
LINE
  5
FA
330
1F
100
AcDbEntity
  8
0
  6
Continuous
 62
     7
370
    15
100
AcDbLine
 10
187.9821375518
 20
196.4113410701
 30
0.0
 11
187.3807978157
 21
196.4113410701
 31
0.0
  0
LINE
  5
FB
330
1F
100
AcDbEntity
  8
0
  6
Continuous
 62
     7
370
    15
100
AcDbLine
 10
187.3807978157
 20
196.4113410701
 30
0.0
 11
186.9821375043
 21
195.7208436122
 31
0.0
  0
LINE
  5
FC
330
1F
100
AcDbEntity
  8
0
  6
Continuous
 62
     7
370
    15
100
AcDbLine
 10
186.9821375043
 20
189.1018409421
 30
0.0
 11
187.3807978157
 21
188.4113434841
 31
0.0
  0
LINE
  5
FD
330
1F
100
AcDbEntity
  8
0
  6
Continuous
 62
     7
370
    15
100
AcDbLine
 10
222.8626408654
 20
96.6613475372
 30
0.0
 11
226.9821376579
 21
96.6613475372
 31
0.0
  0
LINE
  5
FE
330
1F
100
AcDbEntity
  8
0
  6
Continuous
 62
     7
370
    15
100
AcDbLine
 10
226.9821376579
 20
113.1613437225
 30
0.0
 11
222.8624993043
 21
113.1613437225
 31
0.0
  0
ARC
  5
FF
330
1F
100
AcDbEntity
  8
0
  6
Continuous
 62
     7
370
    15
100
AcDbCircle
 10
226.9821374702
 20
97.6613427283
 30
0.0
 40
1.0
100
AcDbArc
 50
270.0
 51
0.0
  0
ARC
  5
100
330
1F
100
AcDbEntity
  8
0
  6
Continuous
 62
     7
370
    15
100
AcDbCircle
 10
226.9821374702
 20
112.1613427283
 30
0.0
 40
1.0
100
AcDbArc
 50
0.0
 51
90.0
  0
LINE
  5
101
330
1F
100
AcDbEntity
  8
0
  6
Continuous
 62
     7
370
    15
100
AcDbLine
 10
222.9821370023
 20
241.9113429402
 30
0.0
 11
222.482135989
 21
242.4113430222
 31
0.0
  0
LINE
  5
102
330
1F
100
AcDbEntity
  8
0
  6
Continuous
 62
     7
370
    15
100
AcDbLine
 10
188.4821374009
 20
242.4113430222
 30
0.0
 11
187.9821375518
 21
241.9113429402
 31
0.0
  0
LINE
  5
103
330
1F
100
AcDbEntity
  8
0
  6
Continuous
 62
     7
370
    15
100
AcDbLine
 10
187.9821375518
 20
159.9280569841
 30
0.0
 11
187.9821375518
 21
92.4113426497
 31
0.0
  0
LINE
  5
104
330
1F
100
AcDbEntity
  8
0
  6
Continuous
 62
     7
370
    15
100
AcDbLine
 10
187.9821375518
 20
188.4113434841
 30
0.0
 11
187.9821375518
 21
174.9113422026
 31
0.0
  0
LINE
  5
105
330
1F
100
AcDbEntity
  8
0
  6
Continuous
 62
     7
370
    15
100
AcDbLine
 10
187.9821375518
 20
209.9280577292
 30
0.0
 11
187.9821375518
 21
196.4113410701
 31
0.0
  0
LINE
  5
106
330
1F
100
AcDbEntity
  8
0
  6
Continuous
 62
     7
370
    15
100
AcDbLine
 10
187.9821375518
 20
241.9113429402
 30
0.0
 11
187.9821375518
 21
224.9113429477
 31
0.0
  0
LINE
  5
107
330
1F
100
AcDbEntity
  8
0
  6
Continuous
 62
     7
370
    15
100
AcDbLine
 10
222.9821370023
 20
224.9113429477
 30
0.0
 11
222.9821370023
 21
241.9113429402
 31
0.0
  0
LINE
  5
108
330
1F
100
AcDbEntity
  8
0
  6
Continuous
 62
     7
370
    15
100
AcDbLine
 10
222.9821370023
 20
174.9113422026
 30
0.0
 11
222.9821370023
 21
209.9113423516
 31
0.0
  0
LINE
  5
109
330
1F
100
AcDbEntity
  8
0
  6
Continuous
 62
     7
370
    15
100
AcDbLine
 10
222.9821370023
 20
113.3841160824
 30
0.0
 11
222.9821370023
 21
159.9113453319
 31
0.0
  0
LINE
  5
10A
330
1F
100
AcDbEntity
  8
0
  6
Continuous
 62
     7
370
    15
100
AcDbLine
 10
222.9821370023
 20
92.4113426497
 30
0.0
 11
222.9821370023
 21
96.4113358547
 31
0.0
  0
LINE
  5
10B
330
1F
100
AcDbEntity
  8
0
  6
Continuous
 62
     7
370
    15
100
AcDbLine
 10
187.7821374258
 20
210.9113425155
 30
0.0
 11
188.3847131433
 21
210.9113425155
 31
0.0
  0
LINE
  5
10C
330
1F
100
AcDbEntity
  8
0
  6
Continuous
 62
     7
370
    15
100
AcDbLine
 10
188.3844584266
 20
223.9113427838
 30
0.0
 11
187.7821374258
 21
223.9113427838
 31
0.0
  0
ARC
  5
10D
330
1F
100
AcDbEntity
  8
0
  6
Continuous
 62
     7
370
    15
100
AcDbCircle
 10
187.7821374702
 20
211.7113427283
 30
0.0
 40
0.8000000000000114
100
AcDbArc
 50
180.0
 51
270.0
  0
ARC
  5
10E
330
1F
100
AcDbEntity
  8
0
  6
Continuous
 62
     7
370
    15
100
AcDbCircle
 10
187.7821374702
 20
223.1113427283
 30
0.0
 40
0.799999999999983
100
AcDbArc
 50
90.0
 51
180.0
  0
LINE
  5
10F
330
1F
100
AcDbEntity
  8
0
  6
Continuous
 62
     7
370
    15
100
AcDbLine
 10
187.7821374258
 20
160.9113399078
 30
0.0
 11
188.3847131433
 21
160.9113399078
 31
0.0
  0
LINE
  5
110
330
1F
100
AcDbEntity
  8
0
  6
Continuous
 62
     7
370
    15
100
AcDbLine
 10
188.3844584266
 20
173.9113439014
 30
0.0
 11
187.7821374258
 21
173.9113439014
 31
0.0
  0
ARC
  5
111
330
1F
100
AcDbEntity
  8
0
  6
Continuous
 62
     7
370
    15
100
AcDbCircle
 10
187.7821374702
 20
161.7113427283
 30
0.0
 40
0.799999999999983
100
AcDbArc
 50
180.0
 51
270.0
  0
ARC
  5
112
330
1F
100
AcDbEntity
  8
0
  6
Continuous
 62
     7
370
    15
100
AcDbCircle
 10
187.7821374702
 20
173.1113427283
 30
0.0
 40
0.8000000000000114
100
AcDbArc
 50
90.0
 51
180.0
  0
CIRCLE
  5
113
330
1F
100
AcDbEntity
  8
0
  6
Continuous
 62
     7
370
    15
100
AcDbCircle
 10
205.4821374702
 20
192.4113427283
 30
0.0
 40
9.500000000000014
  0
CIRCLE
  5
114
330
1F
100
AcDbEntity
  8
0
  6
Continuous
 62
     7
370
    15
100
AcDbCircle
 10
205.4821374702
 20
192.4113427283
 30
0.0
 40
10.0
  0
LINE
  5
115
330
1F
100
AcDbEntity
  8
0
  6
Continuous
 62
     7
370
    15
100
AcDbLine
 10
225.9821356314
 20
234.9113427242
 30
0.0
 11
225.9821356314
 21
199.9113425752
 31
0.0
  0
LINE
  5
116
330
1F
100
AcDbEntity
  8
0
  6
Continuous
 62
     7
370
    15
100
AcDbLine
 10
223.9821390288
 20
234.9113427242
 30
0.0
 11
223.9821390288
 21
199.9113425752
 31
0.0
  0
LINE
  5
117
330
1F
100
AcDbEntity
  8
0
  6
Continuous
 62
     7
370
    15
100
AcDbLine
 10
222.9821370023
 20
209.9113423516
 30
0.0
 11
222.9821370023
 21
224.9113429477
 31
0.0
  0
LINE
  5
118
330
1F
100
AcDbEntity
  8
0
  6
Continuous
 62
     7
370
    15
100
AcDbLine
 10
223.9821390288
 20
184.9113438417
 30
0.0
 11
223.9821390288
 21
149.9113399674
 31
0.0
  0
LINE
  5
119
330
1F
100
AcDbEntity
  8
0
  6
Continuous
 62
     7
370
    15
100
AcDbLine
 10
225.9821356314
 20
184.9113438417
 30
0.0
 11
225.9821356314
 21
149.9113399674
 31
0.0
  0
LINE
  5
11A
330
1F
100
AcDbEntity
  8
0
  6
Continuous
 62
     7
370
    15
100
AcDbLine
 10
222.9821370023
 20
159.9113453319
 30
0.0
 11
222.9821370023
 21
174.9113422026
 31
0.0
  0
LINE
  5
11B
330
1F
100
AcDbEntity
  8
0
  6
Continuous
 62
     7
370
    15
100
AcDbLine
 10
240.9821362274
 20
232.9113426292
 30
0.0
 11
240.9821362274
 21
201.911342903
 31
0.0
  0
LINE
  5
11C
330
1F
100
AcDbEntity
  8
0
  6
Continuous
 62
     7
370
    15
100
AcDbLine
 10
238.9821358996
 20
199.9113425752
 30
0.0
 11
238.9821358996
 21
234.9113427242
 31
0.0
  0
LINE
  5
11D
330
1F
100
AcDbEntity
  8
0
  6
Continuous
 62
     7
370
    15
100
AcDbLine
 10
238.1821372586
 20
213.4852033248
 30
0.0
 11
238.1821372586
 21
199.9113425752
 31
0.0
  0
LINE
  5
11E
330
1F
100
AcDbEntity
  8
0
  6
Continuous
 62
     7
370
    15
100
AcDbLine
 10
238.1821372586
 20
234.9113427242
 30
0.0
 11
238.1821372586
 21
213.4852033248
 31
0.0
  0
LINE
  5
11F
330
1F
100
AcDbEntity
  8
0
  6
Continuous
 62
     7
370
    15
100
AcDbLine
 10
238.1821372586
 20
164.6707464149
 30
0.0
 11
238.1821372586
 21
149.9113399674
 31
0.0
  0
LINE
  5
120
330
1F
100
AcDbEntity
  8
0
  6
Continuous
 62
     7
370
    15
100
AcDbLine
 10
238.1821372586
 20
184.9113438417
 30
0.0
 11
238.1821372586
 21
164.6707464149
 31
0.0
  0
LINE
  5
121
330
1F
100
AcDbEntity
  8
0
  6
Continuous
 62
     7
370
    15
100
AcDbLine
 10
240.9821362274
 20
182.9113435139
 30
0.0
 11
240.9821362274
 21
151.9113440206
 31
0.0
  0
LINE
  5
122
330
1F
100
AcDbEntity
  8
0
  6
Continuous
 62
     7
370
    15
100
AcDbLine
 10
238.9821358996
 20
149.9113399674
 30
0.0
 11
238.9821358996
 21
184.9113438417
 31
0.0
  0
LINE
  5
123
330
1F
100
AcDbEntity
  8
0
  6
Continuous
 62
     7
370
    15
100
AcDbLine
 10
226.9821376579
 20
199.9113425752
 30
0.0
 11
226.9821376579
 21
234.9113427242
 31
0.0
  0
LINE
  5
124
330
1F
100
AcDbEntity
  8
0
  6
Continuous
 62
     7
370
    15
100
AcDbLine
 10
230.9821383136
 20
207.4113428732
 30
0.0
 11
230.9821383136
 21
227.411342659
 31
0.0
  0
LINE
  5
125
330
1F
100
AcDbEntity
  8
0
  6
Continuous
 62
     7
370
    15
100
AcDbLine
 10
226.9821376579
 20
149.9113399674
 30
0.0
 11
226.9821376579
 21
184.9113438417
 31
0.0
  0
LINE
  5
126
330
1F
100
AcDbEntity
  8
0
  6
Continuous
 62
     7
370
    15
100
AcDbLine
 10
230.9821383136
 20
157.4113402655
 30
0.0
 11
230.9821383136
 21
177.4113435437
 31
0.0
  0
LINE
  5
127
330
1F
100
AcDbEntity
  8
0
  6
Continuous
 62
     7
370
    15
100
AcDbLine
 10
237.9821375983
 20
184.9113438417
 30
0.0
 11
237.9821375983
 21
149.9113399674
 31
0.0
  0
LINE
  5
128
330
1F
100
AcDbEntity
  8
0
  6
Continuous
 62
     7
370
    15
100
AcDbLine
 10
236.9821392971
 20
184.9113438417
 30
0.0
 11
236.9821392971
 21
149.9113399674
 31
0.0
  0
LINE
  5
129
330
1F
100
AcDbEntity
  8
0
  6
Continuous
 62
     7
370
    15
100
AcDbLine
 10
232.9821386414
 20
177.4113435437
 30
0.0
 11
232.9821386414
 21
157.4113402655
 31
0.0
  0
LINE
  5
12A
330
1F
100
AcDbEntity
  8
0
  6
Continuous
 62
     7
370
    15
100
AcDbLine
 10
236.9821392971
 20
234.9113427242
 30
0.0
 11
236.9821392971
 21
199.9113425752
 31
0.0
  0
LINE
  5
12B
330
1F
100
AcDbEntity
  8
0
  6
Continuous
 62
     7
370
    15
100
AcDbLine
 10
237.9821375983
 20
234.9113427242
 30
0.0
 11
237.9821375983
 21
199.9113425752
 31
0.0
  0
LINE
  5
12C
330
1F
100
AcDbEntity
  8
0
  6
Continuous
 62
     7
370
    15
100
AcDbLine
 10
232.9821386414
 20
227.411342659
 30
0.0
 11
232.9821386414
 21
207.4113428732
 31
0.0
  0
LINE
  5
12D
330
1F
100
AcDbEntity
  8
0
  6
Continuous
 62
     7
370
    15
100
AcDbLine
 10
187.3807978157
 20
192.4113441398
 30
0.0
 11
187.3807978157
 21
196.4113410701
 31
0.0
  0
LINE
  5
12E
330
1F
100
AcDbEntity
  8
0
  6
Continuous
 62
     7
370
    15
100
AcDbLine
 10
187.3807978157
 20
188.4113434841
 30
0.0
 11
187.3807978157
 21
192.4113441398
 31
0.0
  0
LINE
  5
12F
330
1F
100
AcDbEntity
  8
0
  6
Continuous
 62
     7
370
    15
100
AcDbLine
 10
186.9821375043
 20
192.4113441398
 30
0.0
 11
186.9821375043
 21
195.7208436122
 31
0.0
  0
LINE
  5
130
330
1F
100
AcDbEntity
  8
0
  6
Continuous
 62
     7
370
    15
100
AcDbLine
 10
186.9821375043
 20
189.1018409421
 30
0.0
 11
186.9821375043
 21
192.4113441398
 31
0.0
  0
LINE
  5
131
330
1F
100
AcDbEntity
  8
0
  6
Continuous
 62
     7
370
    15
100
AcDbLine
 10
227.9821359592
 20
112.161341696
 30
0.0
 11
227.9821359592
 21
97.6613495638
 31
0.0
  0
LINE
  5
132
330
1F
100
AcDbEntity
  8
0
  6
Continuous
 62
     7
370
    15
100
AcDbLine
 10
222.9821370023
 20
241.9113429402
 30
0.0
 11
187.9821375518
 21
241.9113429402
 31
0.0
  0
LINE
  5
133
330
1F
100
AcDbEntity
  8
0
  6
Continuous
 62
     7
370
    15
100
AcDbLine
 10
188.4821374009
 20
242.4113430222
 30
0.0
 11
222.482135989
 21
242.4113430222
 31
0.0
  0
ARC
  5
134
330
1F
100
AcDbEntity
  8
0
  6
Continuous
 62
     7
370
    15
100
AcDbCircle
 10
171.4507860405
 20
167.4118176377
 30
0.0
 40
18.15291853912312
100
AcDbArc
 50
335.6529830214
 51
24.4016410939
  0
SPLINE
  5
135
330
1F
100
AcDbEntity
  8
0
  6
Continuous
 62
     7
370
    15
100
AcDbSpline
210
0.0
220
0.0
230
1.0
 70
     8
 71
     3
 72
    27
 73
    23
 74
     0
 42
0.000000001
 43
0.00000001
 40
0.0
 40
0.0
 40
0.0
 40
0.0
 40
0.0497365803459579
 40
0.1009923613566677
 40
0.1507106986441664
 40
0.2017501002297885
 40
0.253873610172942
 40
0.3073585100342764
 40
0.3620753707008492
 40
0.4185367485616568
 40
0.4704175670261771
 40
0.52408310941603
 40
0.5718516959646304
 40
0.620955922035617
 40
0.6698657211226094
 40
0.719973727168743
 40
0.7732212255998883
 40
0.827929364765452
 40
0.8823856212872236
 40
0.9386415975287088
 40
0.9894914766344474
 40
1.0
 40
1.0
 40
1.0
 40
1.0
 10
222.9821370022832
 20
209.9113423516334
 30
0.0
 10
222.9743110488599
 20
209.9295098761975
 30
0.0
 10
222.9584200987667
 20
209.9663998512013
 30
0.0
 10
222.8337440076105
 20
210.2616685791706
 30
0.0
 10
222.647076468719
 20
210.7242964940873
 30
0.0
 10
222.408588685952
 20
211.357151056343
 30
0.0
 10
222.1363486862633
 20
212.158291806298
 30
0.0
 10
221.8551744908275
 20
213.120592998231
 30
0.0
 10
221.594994412712
 20
214.2371175151033
 30
0.0
 10
221.3988917787632
 20
215.4478561160073
 30
0.0
 10
221.2920651399371
 20
216.7169534379396
 30
0.0
 10
221.286945039748
 20
217.9422464289572
 30
0.0
 10
221.373159611487
 20
219.1262768347744
 30
0.0
 10
221.5303584208548
 20
220.2252413467954
 30
0.0
 10
221.7469303243505
 20
221.2657447349179
 30
0.0
 10
222.005050000234
 20
222.2352668625176
 30
0.0
 10
222.2847166313687
 20
223.1145161879585
 30
0.0
 10
222.5540869153494
 20
223.8593680272151
 30
0.0
 10
222.7834869597271
 20
224.4395863948228
 30
0.0
 10
222.9274916733772
 20
224.7840301995896
 30
0.0
 10
222.9902600564159
 20
224.9303590882629
 30
0.0
 10
222.9772276166075
 20
224.8998523030322
 30
0.0
 10
222.9749956207811
 20
224.8946275701106
 30
0.0
  0
SPLINE
  5
136
330
1F
100
AcDbEntity
  8
0
  6
Continuous
 62
     7
370
    15
100
AcDbSpline
210
0.0
220
0.0
230
1.0
 70
     8
 71
     3
 72
    27
 73
    23
 74
     0
 42
0.000000001
 43
0.00000001
 40
0.0
 40
0.0
 40
0.0
 40
0.0
 40
0.0497365751462154
 40
0.1009923571560865
 40
0.1507106354701374
 40
0.2017500785465219
 40
0.2538735393562931
 40
0.3073585579647811
 40
0.362075353223191
 40
0.4185368412232743
 40
0.4704175456479412
 40
0.5240831281648644
 40
0.5718516771115661
 40
0.6209559041397725
 40
0.6698657041801945
 40
0.7199737424379284
 40
0.7732212146472579
 40
0.8279293436340941
 40
0.8823856352793112
 40
0.9386416071817105
 40
0.989491478386723
 40
1.0
 40
1.0
 40
1.0
 40
1.0
 10
222.9821370022832
 20
159.9113453318656
 30
0.0
 10
222.974311037759
 20
159.9295119669081
 30
0.0
 10
222.9584200641243
 20
159.9664001380205
 30
0.0
 10
222.8337441771107
 20
160.2616710515565
 30
0.0
 10
222.6470761394949
 20
160.7242924048753
 30
0.0
 10
222.4085890818351
 20
161.3571512960774
 30
0.0
 10
222.1363480213893
 20
162.1582888390526
 30
0.0
 10
221.8551752023452
 20
163.1205939416249
 30
0.0
 10
221.5949938204445
 20
164.2371174380406
 30
0.0
 10
221.3988922460767
 20
165.4478567358438
 30
0.0
 10
221.2920649672161
 20
166.7169538007696
 30
0.0
 10
221.2869450288079
 20
167.942246042669
 30
0.0
 10
221.373159663094
 20
169.1262763564955
 30
0.0
 10
221.5303584013751
 20
170.2252406461933
 30
0.0
 10
221.7469304380547
 20
171.265744054759
 30
0.0
 10
222.0050497974951
 20
172.2352669352636
 30
0.0
 10
222.2847166967067
 20
173.1145155420763
 30
0.0
 10
222.5540870372153
 20
173.8593664571351
 30
0.0
 10
222.7834868604083
 20
174.4395872848153
 30
0.0
 10
222.9274916841027
 20
174.7840315812231
 30
0.0
 10
222.9902600559844
 20
174.9303559233417
 30
0.0
 10
222.9772276165265
 20
174.8998512040949
 30
0.0
 10
222.9749956207811
 20
174.8946268250526
 30
0.0
  0
ARC
  5
137
330
1F
100
AcDbEntity
  8
0
  6
Continuous
 62
     7
370
    15
100
AcDbCircle
 10
171.4507823727
 20
217.411818381
 30
0.0
 40
18.15292188006297
100
AcDbArc
 50
335.6529877991
 51
24.4016363162
  0
SPLINE
  5
138
330
1F
100
AcDbEntity
  8
0
  6
Continuous
 62
     7
370
    15
100
AcDbSpline
210
0.0
220
0.0
230
1.0
 70
     8
 71
     3
 72
    27
 73
    23
 74
     0
 42
0.000000001
 43
0.00000001
 40
0.0
 40
0.0
 40
0.0
 40
0.0
 40
0.0488801363640395
 40
0.0992712818087926
 40
0.1481283446945406
 40
0.1982610791129457
 40
0.2499920913495381
 40
0.3030278282151718
 40
0.3582948368142804
 40
0.4153493959616641
 40
0.4672434585256757
 40
0.5210417809295708
 40
0.5673471588461185
 40
0.6149468139871884
 40
0.6624577508286912
 40
0.7110758316594004
 40
0.7641660119068968
 40
0.8186678872224201
 40
0.8737537507853691
 40
0.9307105700811891
 40
0.9813867355387484
 40
0.9999999999999999
 40
0.9999999999999999
 40
0.9999999999999999
 40
0.9999999999999999
 10
222.9821370022832
 20
96.41133585472711
 30
0.0
 10
222.9723529997632
 20
96.43139352724705
 30
0.0
 10
222.9524825463718
 20
96.47212890585419
 30
0.0
 10
222.7964818803784
 20
96.79766640240948
 30
0.0
 10
222.5625807649341
 20
97.30644632226185
 30
0.0
 10
222.2617243294182
 20
98.00296797950153
 30
0.0
 10
221.9145194968439
 20
98.88672830981068
 30
0.0
 10
221.548228997408
 20
99.95912374986895
 30
0.0
 10
221.2011533537915
 20
101.2155169929769
 30
0.0
 10
220.9330054338442
 20
102.5902327696263
 30
0.0
 10
220.7819140362541
 20
104.0356947364423
 30
0.0
 10
220.7673471365494
 20
105.4183939992452
 30
0.0
 10
220.8718674390138
 20
106.7418759510129
 30
0.0
 10
221.0650576215287
 20
107.9578899347056
 30
0.0
 10
221.3335683564965
 20
109.1124421932075
 30
0.0
 10
221.6588416760947
 20
110.2045724569321
 30
0.0
 10
222.0180140035458
 20
111.2117641810397
 30
0.0
 10
222.3739004236296
 20
112.0877958847454
 30
0.0
 10
222.6845755501959
 20
112.7859829624943
 30
0.0
 10
222.8900785405928
 20
113.2216955481593
 30
0.0
 10
222.9857228370625
 20
113.4187636937627
 30
0.0
 10
222.9724923997144
 20
113.391452662433
 30
0.0
 10
222.9689382987558
 20
113.3841160823882
 30
0.0
  0
LINE
  5
139
330
1F
100
AcDbEntity
  8
0
  6
Continuous
 62
     7
370
    15
100
AcDbLine
 10
222.9821370023
 20
92.4113426497
 30
0.0
 11
187.9821375518
 21
92.4113426497
 31
0.0
  0
LINE
  5
13A
330
1F
100
AcDbEntity
  8
0
  6
Continuous
 62
     7
370
    15
100
AcDbLine
 10
186.9821375043
 20
211.7113430192
 30
0.0
 11
186.9821375043
 21
223.1113427458
 31
0.0
  0
LINE
  5
13B
330
1F
100
AcDbEntity
  8
0
  6
Continuous
 62
     7
370
    15
100
AcDbLine
 10
186.9821375043
 20
161.7113459994
 30
0.0
 11
186.9821375043
 21
173.111341535
 31
0.0
  0
LINE
  5
13C
330
1F
100
AcDbEntity
  8
0
  6
Continuous
 62
     8
370
    15
100
AcDbLine
 10
226.9821376579
 20
96.6613475372
 30
0.0
 11
226.9821376579
 21
113.1613437225
 31
0.0
  0
LINE
  5
13D
330
1F
100
AcDbEntity
  8
0
  6
Continuous
 62
     8
370
    15
100
AcDbLine
 10
187.7821374258
 20
223.9113427838
 30
0.0
 11
187.7821374258
 21
210.9113425155
 31
0.0
  0
LINE
  5
13E
330
1F
100
AcDbEntity
  8
0
  6
Continuous
 62
     8
370
    15
100
AcDbLine
 10
187.7821374258
 20
173.9113439014
 30
0.0
 11
187.7821374258
 21
160.9113399078
 31
0.0
  0
LINE
  5
13F
330
1F
100
AcDbEntity
  8
0
  6
Continuous
 62
     7
370
    15
100
AcDbLine
 10
288.8878941471
 20
142.9113406827
 30
0.0
 11
289.3878877098
 21
142.4113396694
 31
0.0
  0
LINE
  5
140
330
1F
100
AcDbEntity
  8
0
  6
Continuous
 62
     7
370
    15
100
AcDbLine
 10
323.3878970081
 20
142.4113396694
 30
0.0
 11
323.8878905708
 21
142.9113406827
 31
0.0
  0
LINE
  5
141
330
1F
100
AcDbEntity
  8
0
  6
Continuous
 62
     7
370
    15
100
AcDbLine
 10
323.8878905708
 20
241.9113429402
 30
0.0
 11
323.3878970081
 21
242.4113430222
 31
0.0
  0
LINE
  5
142
330
1F
100
AcDbEntity
  8
0
  6
Continuous
 62
     7
370
    15
100
AcDbLine
 10
289.3878877098
 20
242.4113430222
 30
0.0
 11
288.8878941471
 21
241.9113429402
 31
0.0
  0
LINE
  5
143
330
1F
100
AcDbEntity
  8
0
  6
Continuous
 62
     7
370
    15
100
AcDbLine
 10
288.8878941471
 20
182.4113425006
 30
0.0
 11
288.8878941471
 21
142.9113406827
 31
0.0
  0
LINE
  5
144
330
1F
100
AcDbEntity
  8
0
  6
Continuous
 62
     7
370
    15
100
AcDbLine
 10
288.8878941471
 20
241.9113429402
 30
0.0
 11
288.8878941471
 21
202.4113420536
 31
0.0
  0
LINE
  5
145
330
1F
100
AcDbEntity
  8
0
  6
Continuous
 62
     7
370
    15
100
AcDbLine
 10
323.8878905708
 20
202.4113420536
 30
0.0
 11
323.8878905708
 21
241.9113429402
 31
0.0
  0
LINE
  5
146
330
1F
100
AcDbEntity
  8
0
  6
Continuous
 62
     7
370
    15
100
AcDbLine
 10
323.8878905708
 20
142.9113406827
 30
0.0
 11
323.8878905708
 21
182.4113425006
 31
0.0
  0
LINE
  5
147
330
1F
100
AcDbEntity
  8
0
  6
Continuous
 62
     7
370
    15
100
AcDbLine
 10
278.7672042782
 20
202.4113420536
 30
0.0
 11
278.2671958143
 21
201.911342903
 31
0.0
  0
LINE
  5
148
330
1F
100
AcDbEntity
  8
0
  6
Continuous
 62
     7
370
    15
100
AcDbLine
 10
278.2671958143
 20
182.9113435139
 30
0.0
 11
278.7672042782
 21
182.4113425006
 31
0.0
  0
LINE
  5
149
330
1F
100
AcDbEntity
  8
0
  6
Continuous
 62
     7
370
    15
100
AcDbLine
 10
442.767193907
 20
202.4113420536
 30
0.0
 11
428.325733536
 21
202.4113420536
 31
0.0
  0
LINE
  5
14A
330
1F
100
AcDbEntity
  8
0
  6
Continuous
 62
     7
370
    15
100
AcDbLine
 10
393.3257371122
 20
202.4113420536
 30
0.0
 11
323.8878905708
 21
202.4113420536
 31
0.0
  0
LINE
  5
14B
330
1F
100
AcDbEntity
  8
0
  6
Continuous
 62
     7
370
    15
100
AcDbLine
 10
288.8878941471
 20
202.4113420536
 30
0.0
 11
278.7672042782
 21
202.4113420536
 31
0.0
  0
LINE
  5
14C
330
1F
100
AcDbEntity
  8
0
  6
Continuous
 62
     7
370
    15
100
AcDbLine
 10
278.7672042782
 20
182.4113425006
 30
0.0
 11
288.8878941471
 21
182.4113425006
 31
0.0
  0
LINE
  5
14D
330
1F
100
AcDbEntity
  8
0
  6
Continuous
 62
     7
370
    15
100
AcDbLine
 10
323.8878905708
 20
182.4113425006
 30
0.0
 11
393.3257371122
 21
182.4113425006
 31
0.0
  0
LINE
  5
14E
330
1F
100
AcDbEntity
  8
0
  6
Continuous
 62
     7
370
    15
100
AcDbLine
 10
428.325733536
 20
182.4113425006
 30
0.0
 11
442.767193907
 21
182.4113425006
 31
0.0
  0
LINE
  5
14F
330
1F
100
AcDbEntity
  8
0
  6
Continuous
 62
     7
370
    15
100
AcDbLine
 10
442.767193907
 20
182.4113425006
 30
0.0
 11
443.2671874697
 21
182.9113435139
 31
0.0
  0
LINE
  5
150
330
1F
100
AcDbEntity
  8
0
  6
Continuous
 62
     7
370
    15
100
AcDbLine
 10
443.2671874697
 20
201.911342903
 30
0.0
 11
442.767193907
 21
202.4113420536
 31
0.0
  0
LINE
  5
151
330
1F
100
AcDbEntity
  8
0
  6
Continuous
 62
     7
370
    15
100
AcDbLine
 10
428.325733536
 20
241.9113429402
 30
0.0
 11
427.8257399733
 21
242.4113430222
 31
0.0
  0
LINE
  5
152
330
1F
100
AcDbEntity
  8
0
  6
Continuous
 62
     7
370
    15
100
AcDbLine
 10
393.8257306749
 20
242.4113430222
 30
0.0
 11
393.3257371122
 21
241.9113429402
 31
0.0
  0
LINE
  5
153
330
1F
100
AcDbEntity
  8
0
  6
Continuous
 62
     7
370
    15
100
AcDbLine
 10
393.3257371122
 20
182.4113425006
 30
0.0
 11
393.3257371122
 21
92.4113426497
 31
0.0
  0
LINE
  5
154
330
1F
100
AcDbEntity
  8
0
  6
Continuous
 62
     7
370
    15
100
AcDbLine
 10
393.3257371122
 20
241.9113429402
 30
0.0
 11
393.3257371122
 21
202.4113420536
 31
0.0
  0
LINE
  5
155
330
1F
100
AcDbEntity
  8
0
  6
Continuous
 62
     7
370
    15
100
AcDbLine
 10
428.325733536
 20
202.4113420536
 30
0.0
 11
428.325733536
 21
241.9113429402
 31
0.0
  0
LINE
  5
156
330
1F
100
AcDbEntity
  8
0
  6
Continuous
 62
     7
370
    15
100
AcDbLine
 10
428.325733536
 20
92.4113426497
 30
0.0
 11
428.325733536
 21
182.4113425006
 31
0.0
  0
LINE
  5
157
330
1F
100
AcDbEntity
  8
0
  6
Continuous
 62
     7
370
    15
100
AcDbLine
 10
323.3878970081
 20
142.4113396694
 30
0.0
 11
289.3878877098
 21
142.4113396694
 31
0.0
  0
LINE
  5
158
330
1F
100
AcDbEntity
  8
0
  6
Continuous
 62
     7
370
    15
100
AcDbLine
 10
288.8878941471
 20
142.9113406827
 30
0.0
 11
323.8878905708
 21
142.9113406827
 31
0.0
  0
LINE
  5
159
330
1F
100
AcDbEntity
  8
0
  6
Continuous
 62
     7
370
    15
100
AcDbLine
 10
323.8878905708
 20
241.9113429402
 30
0.0
 11
288.8878941471
 21
241.9113429402
 31
0.0
  0
LINE
  5
15A
330
1F
100
AcDbEntity
  8
0
  6
Continuous
 62
     7
370
    15
100
AcDbLine
 10
289.3878877098
 20
242.4113430222
 30
0.0
 11
323.3878970081
 21
242.4113430222
 31
0.0
  0
SPLINE
  5
15B
330
1F
100
AcDbEntity
  8
0
  6
Continuous
 62
     7
370
    15
100
AcDbSpline
210
0.0
220
0.0
230
1.0
 70
     8
 71
     3
 72
    28
 73
    24
 74
     0
 42
0.000000001
 43
0.00000001
 40
0.0
 40
0.0
 40
0.0
 40
0.0
 40
0.0474299381513712
 40
0.0963568569809649
 40
0.1437591416044761
 40
0.1923693398527929
 40
0.2432649592623886
 40
0.2953643642912381
 40
0.3515344590828032
 40
0.4095322471565061
 40
0.4533115698231543
 40
0.4983249778660049
 40
0.5421265022183996
 40
0.5872219535710478
 40
0.6310453804119937
 40
0.6758229306946127
 40
0.7266615761325005
 40
0.7786858324732322
 40
0.8350483521927382
 40
0.8932762229598936
 40
0.9455876007136393
 40
0.9998599255273619
 40
1.0
 40
1.0
 40
1.0
 40
1.0
 10
323.887890570829
 20
182.411342500645
 30
0.0
 10
323.8749501358016
 20
182.4339012484427
 30
0.0
 10
323.8486608405628
 20
182.479730741795
 30
0.0
 10
323.6420995198494
 20
182.8453781935583
 30
0.0
 10
323.3316166092129
 20
183.4144736639462
 30
0.0
 10
322.9282659450016
 20
184.1938393293209
 30
0.0
 10
322.4551507420309
 20
185.1846373457799
 30
0.0
 10
321.9382095046972
 20
186.4063314118646
 30
0.0
 10
321.4279125652241
 20
187.8604648513207
 30
0.0
 10
321.0353760683283
 20
189.3984141967879
 30
0.0
 10
320.8034872411407
 20
190.9224902849028
 30
0.0
 10
320.7254655596332
 20
192.3439237036357
 30
0.0
 10
320.7913902557411
 20
193.7808575748395
 30
0.0
 10
320.990643037709
 20
195.1648890410629
 30
0.0
 10
321.2991018130209
 20
196.4842961859572
 30
0.0
 10
321.6981116403267
 20
197.7608276384875
 30
0.0
 10
322.1685879092722
 20
198.982047815257
 30
0.0
 10
322.6829683142412
 20
200.1299884478792
 30
0.0
 10
323.1773217192605
 20
201.1195004016746
 30
0.0
 10
323.5796655077118
 20
201.865241564184
 30
0.0
 10
323.8185533178532
 20
202.2909459046388
 30
0.0
 10
323.9129075400432
 20
202.4541603152392
 30
0.0
 10
323.8877615892472
 20
202.4111212986149
 30
0.0
 10
323.8876968557335
 20
202.4110105027736
 30
0.0
  0
SPLINE
  5
15C
330
1F
100
AcDbEntity
  8
0
  6
Continuous
 62
     7
370
    15
100
AcDbSpline
210
0.0
220
0.0
230
1.0
 70
     8
 71
     3
 72
    28
 73
    24
 74
     0
 42
0.000000001
 43
0.00000001
 40
0.0
 40
0.0
 40
0.0
 40
0.0
 40
0.0474299372049845
 40
0.0963568550583217
 40
0.1437591387359979
 40
0.19236930748684
 40
0.2432649611209055
 40
0.2953643236939344
 40
0.3515344645606378
 40
0.4095321466045654
 40
0.4533115803437854
 40
0.4983248969060016
 40
0.542126556734145
 40
0.5872220071869874
 40
0.6310454331535086
 40
0.6758228836726433
 40
0.7266616174007209
 40
0.7786858727033938
 40
0.8350483912982781
 40
0.8932761597913893
 40
0.9455876017993498
 40
0.9998599255301568
 40
1.0
 40
1.0
 40
1.0
 40
1.0
 10
288.8878941471077
 20
202.4113420536102
 30
0.0
 10
288.9008345792269
 20
202.3887832923287
 30
0.0
 10
288.9271238685574
 20
202.3429537715834
 30
0.0
 10
289.1336852341795
 20
201.9773065280347
 30
0.0
 10
289.4441679157008
 20
201.4082103907189
 30
0.0
 10
289.8475192209844
 20
200.6288477588681
 30
0.0
 10
290.3206333479332
 20
199.6380467643974
 30
0.0
 10
290.8375760848781
 20
198.4163551008245
 30
0.0
 10
291.3478704584556
 20
196.9622203890627
 30
0.0
 10
291.7404120169624
 20
195.4242723708176
 30
0.0
 10
291.9722902685023
 20
193.9001960098761
 30
0.0
 10
292.0503450238128
 20
192.4787622553194
 30
0.0
 10
291.9843876134144
 20
191.0418285239926
 30
0.0
 10
291.7851434412674
 20
189.6577956094648
 30
0.0
 10
291.4766829847516
 20
188.3383888523523
 30
0.0
 10
291.0776721459355
 20
187.0618598989676
 30
0.0
 10
290.6071970508452
 20
185.8406367514334
 30
0.0
 10
290.0928179358208
 20
184.6926961855393
 30
0.0
 10
289.5984565466082
 20
183.7031851767635
 30
0.0
 10
289.1961445561449
 20
182.9574417752417
 30
0.0
 10
288.9572242923307
 20
182.5317391260101
 30
0.0
 10
288.8628771810496
 20
182.3685242388489
 30
0.0
 10
288.8880231286976
 20
182.4115632556398
 30
0.0
 10
288.8880878622032
 20
182.4116740514816
 30
0.0
  0
SPLINE
  5
15D
330
1F
100
AcDbEntity
  8
0
  6
Continuous
 62
     7
370
    15
100
AcDbSpline
210
0.0
220
0.0
230
1.0
 70
    11
 71
     3
 72
    46
 73
    42
 74
     0
 42
0.000000001
 43
0.00000001
 40
0.0
 40
0.0
 40
0.0
 40
0.0
 40
0.025245380447833
 40
0.050496319618431
 40
0.075682202688199
 40
0.1008763056738345
 40
0.1272790778991925
 40
0.1536820003552258
 40
0.1814842418049031
 40
0.2092716450601208
 40
0.2356602605360311
 40
0.2620432319654888
 40
0.286257474493429
 40
0.3104800305131605
 40
0.3352318204969811
 40
0.359990629281131
 40
0.3869822803607648
 40
0.4139699810586954
 40
0.4416541578467701
 40
0.4693258044872783
 40
0.4951621935626755
 40
0.5209978393604409
 40
0.545455120474724
 40
0.5699195835588232
 40
0.595148953028527
 40
0.620384146629283
 40
0.6475307352273909
 40
0.6746717779046426
 40
0.702300634710125
 40
0.729914049909773
 40
0.7552992841860391
 40
0.7806863828375399
 40
0.80474811606047
 40
0.8288190154018966
 40
0.854383686205573
 40
0.8799520295892155
 40
0.9075516317159845
 40
0.9351415265416294
 40
0.9623018633405251
 40
0.9894524951598582
 40
0.9999999999999999
 40
0.9999999999999999
 40
0.9999999999999999
 40
0.9999999999999999
 10
306.3878923589684
 20
224.9113429476798
 30
0.0
 10
305.9864323303121
 20
224.8922152754899
 30
0.0
 10
305.1834238764314
 20
224.8539557194314
 30
0.0
 10
304.0155158557623
 20
224.5580018763608
 30
0.0
 10
302.9182791907821
 20
224.0950331361313
 30
0.0
 10
301.8982744766001
 20
223.4598061501589
 30
0.0
 10
300.9847970611175
 20
222.6598176581547
 30
0.0
 10
300.1858510900773
 20
221.6925652835403
 30
0.0
 10
299.5492372298443
 20
220.5783136846534
 30
0.0
 10
299.1068975445118
 20
219.3615366513166
 30
0.0
 10
298.8858802139102
 20
218.0981441661625
 30
0.0
 10
298.8742312894708
 20
216.8680798700552
 30
0.0
 10
299.0588138965286
 20
215.6915467428986
 30
0.0
 10
299.4069932622863
 20
214.5881514749141
 30
0.0
 10
299.9225797725433
 20
213.5534001697024
 30
0.0
 10
300.6092670256404
 20
212.5791017696775
 30
0.0
 10
301.4681649812442
 20
211.7054021492087
 30
0.0
 10
302.4985805503718
 20
210.9551297780977
 30
0.0
 10
303.6620142779669
 20
210.3853243944561
 30
0.0
 10
304.8983745367217
 20
210.022978028436
 30
0.0
 10
306.1561899506031
 20
209.8827646440605
 30
0.0
 10
307.3702930271282
 20
209.9429289748991
 30
0.0
 10
308.5316302476637
 20
210.1943169436508
 30
0.0
 10
309.6253214017653
 20
210.6117442942976
 30
0.0
 10
310.642225602713
 20
211.198383370667
 30
0.0
 10
311.5840211591811
 20
211.9565016949249
 30
0.0
 10
312.4075096465072
 20
212.8801622837778
 30
0.0
 10
313.0900129125785
 20
213.9624533404273
 30
0.0
 10
313.5811750477102
 20
215.1639897278163
 30
0.0
 10
313.8583108166642
 20
216.4157241481348
 30
0.0
 10
313.9146057685274
 20
217.6659723814821
 30
0.0
 10
313.7803241017086
 20
218.851775888673
 30
0.0
 10
313.4663336692217
 20
219.9727901425864
 30
0.0
 10
312.9925649870474
 20
221.0290591277854
 30
0.0
 10
312.3503746657368
 20
222.0112150512551
 30
0.0
 10
311.5291204740002
 20
222.9194205539673
 30
0.0
 10
310.5405357911112
 20
223.6994571084903
 30
0.0
 10
309.4057526090626
 20
224.319145996833
 30
0.0
 10
308.1763908554257
 20
224.729762601741
 30
0.0
 10
307.1543619546788
 20
224.8957232809229
 30
0.0
 10
306.555458620278
 20
224.9079281623106
 30
0.0
 10
306.3878923589684
 20
224.9113429476798
 30
0.0
  0
SPLINE
  5
15E
330
1F
100
AcDbEntity
  8
0
  6
Continuous
 62
     7
370
    15
100
AcDbSpline
210
0.0
220
0.0
230
1.0
 70
    11
 71
     3
 72
    46
 73
    42
 74
     0
 42
0.000000001
 43
0.00000001
 40
0.0
 40
0.0
 40
0.0
 40
0.0
 40
0.0252453782356298
 40
0.0504963175617664
 40
0.0756822083057778
 40
0.1008763165134105
 40
0.1272790826219868
 40
0.1536819831572012
 40
0.1814842747008945
 40
0.2092716417677688
 40
0.235660219033953
 40
0.2620432687931199
 40
0.2862575114702131
 40
0.3104800676391487
 40
0.3352317717025329
 40
0.3599906430882103
 40
0.3869823215543969
 40
0.4139699550091858
 40
0.4416541319677874
 40
0.469325811312739
 40
0.4951621961805325
 40
0.5209978460966421
 40
0.5454551028301657
 40
0.5699195798744877
 40
0.5951489877848585
 40
0.6203841575723893
 40
0.6475306894411489
 40
0.6746717484910175
 40
0.7023006411695281
 40
0.7299141135311004
 40
0.7552992894120216
 40
0.7806863882198999
 40
0.8047481402810205
 40
0.828819039770717
 40
0.8543836706746682
 40
0.8799520495500066
 40
0.9075516281577038
 40
0.9351415277413084
 40
0.9623018554444887
 40
0.9894524964042741
 40
0.9999999999999999
 40
0.9999999999999999
 40
0.9999999999999999
 40
0.9999999999999999
 10
306.3878923589684
 20
174.9113422026218
 30
0.0
 10
305.9864323287576
 20
174.8922150973193
 30
0.0
 10
305.1834238341073
 20
174.8539566733664
 30
0.0
 10
304.0155156493814
 20
174.5580026496802
 30
0.0
 10
302.9182792686742
 20
174.0950327457789
 30
0.0
 10
301.8982746543304
 20
173.45980542929
 30
0.0
 10
300.9847974930768
 20
172.6598173733314
 30
0.0
 10
300.1858497727891
 20
171.69256597522
 30
0.0
 10
299.5492384799695
 20
170.5783128069125
 30
0.0
 10
299.1068973560407
 20
169.3615370069613
 30
0.0
 10
298.8858800135366
 20
168.0981443623797
 30
0.0
 10
298.8742311152333
 20
166.8680793924387
 30
0.0
 10
299.0588140952175
 20
165.6915451950017
 30
0.0
 10
299.4069920264857
 20
164.5881506033626
 30
0.0
 10
299.9225820892341
 20
163.5534018740362
 30
0.0
 10
300.6092663150334
 20
162.5791014035097
 30
0.0
 10
301.4681628886118
 20
161.7053990956391
 30
0.0
 10
302.4985822963411
 20
160.9551331840192
 30
0.0
 10
303.6620150758016
 20
160.3853287470644
 30
0.0
 10
304.8983733842169
 20
160.02297369922
 30
0.0
 10
306.1561904645121
 20
159.8827630367062
 30
0.0
 10
307.370292005193
 20
159.9429350729185
 30
0.0
 10
308.5316313382244
 20
160.1943119907349
 30
0.0
 10
309.6253219940419
 20
160.6117438564196
 30
0.0
 10
310.6422241726159
 20
161.1983867712601
 30
0.0
 10
311.5840206287967
 20
161.9565024294793
 30
0.0
 10
312.4075109313295
 20
162.8801600531089
 30
0.0
 10
313.0900129585858
 20
163.9624520628564
 30
0.0
 10
313.5811752565531
 20
165.1639902077004
 30
0.0
 10
313.8583103738817
 20
166.4157253532135
 30
0.0
 10
313.9146058274865
 20
167.6659734818901
 30
0.0
 10
313.780323962111
 20
168.8517763707481
 30
0.0
 10
313.4663337408845
 20
169.9727909067246
 30
0.0
 10
312.9925657233572
 20
171.0290600808379
 30
0.0
 10
312.3503730927794
 20
172.0112139510797
 30
0.0
 10
311.5291220074884
 20
172.9194220595326
 30
0.0
 10
310.5405348282961
 20
173.6994556424797
 30
0.0
 10
309.4057532014946
 20
174.3191468198423
 30
0.0
 10
308.1763901821826
 20
174.7297588361452
 30
0.0
 10
307.1543622310028
 20
174.8957261680779
 30
0.0
 10
306.5554586378161
 20
174.9079282122037
 30
0.0
 10
306.3878923589684
 20
174.9113422026218
 30
0.0
  0
LINE
  5
15F
330
1F
100
AcDbEntity
  8
0
  6
Continuous
 62
     7
370
    15
100
AcDbLine
 10
278.2671958143
 20
182.9113435139
 30
0.0
 11
278.2671958143
 21
201.911342903
 31
0.0
  0
LINE
  5
160
330
1F
100
AcDbEntity
  8
0
  6
Continuous
 62
     7
370
    15
100
AcDbLine
 10
278.7672042782
 20
202.4113420536
 30
0.0
 11
278.7672042782
 21
182.4113425006
 31
0.0
  0
LINE
  5
161
330
1F
100
AcDbEntity
  8
0
  6
Continuous
 62
     7
370
    15
100
AcDbLine
 10
442.767193907
 20
182.4113425006
 30
0.0
 11
442.767193907
 21
202.4113420536
 31
0.0
  0
LINE
  5
162
330
1F
100
AcDbEntity
  8
0
  6
Continuous
 62
     7
370
    15
100
AcDbLine
 10
443.2671874697
 20
201.911342903
 30
0.0
 11
443.2671874697
 21
182.9113435139
 31
0.0
  0
CIRCLE
  5
163
330
1F
100
AcDbEntity
  8
0
  6
Continuous
 62
     7
370
    15
100
AcDbCircle
 10
410.8257418816
 20
192.4113427283
 30
0.0
 40
3.309500000000014
  0
CIRCLE
  5
164
330
1F
100
AcDbEntity
  8
0
  6
Continuous
 62
     7
370
    15
100
AcDbCircle
 10
410.8257418816
 20
192.4113427283
 30
0.0
 40
4.0
  0
LINE
  5
165
330
1F
100
AcDbEntity
  8
0
  6
Continuous
 62
     7
370
    15
100
AcDbLine
 10
409.671029442
 20
194.4113444676
 30
0.0
 11
408.5163384611
 21
192.4113441398
 31
0.0
  0
LINE
  5
166
330
1F
100
AcDbEntity
  8
0
  6
Continuous
 62
     7
370
    15
100
AcDbLine
 10
409.671029442
 20
190.4113438119
 30
0.0
 11
408.5163384611
 21
192.4113441398
 31
0.0
  0
LINE
  5
167
330
1F
100
AcDbEntity
  8
0
  6
Continuous
 62
     7
370
    15
100
AcDbLine
 10
411.9804412062
 20
190.4113438119
 30
0.0
 11
409.671029442
 21
190.4113438119
 31
0.0
  0
LINE
  5
168
330
1F
100
AcDbEntity
  8
0
  6
Continuous
 62
     7
370
    15
100
AcDbLine
 10
411.9804412062
 20
190.4113438119
 30
0.0
 11
413.1351321871
 21
192.4113441398
 31
0.0
  0
LINE
  5
169
330
1F
100
AcDbEntity
  8
0
  6
Continuous
 62
     7
370
    15
100
AcDbLine
 10
411.9804412062
 20
194.4113444676
 30
0.0
 11
413.1351321871
 21
192.4113441398
 31
0.0
  0
LINE
  5
16A
330
1F
100
AcDbEntity
  8
0
  6
Continuous
 62
     7
370
    15
100
AcDbLine
 10
411.9804412062
 20
194.4113444676
 30
0.0
 11
409.671029442
 21
194.4113444676
 31
0.0
  0
CIRCLE
  5
16B
330
1F
100
AcDbEntity
  8
0
  6
Continuous
 62
     7
370
    15
100
AcDbCircle
 10
306.387893179
 20
192.4113427283
 30
0.0
 40
3.309499999999986
  0
CIRCLE
  5
16C
330
1F
100
AcDbEntity
  8
0
  6
Continuous
 62
     7
370
    15
100
AcDbCircle
 10
306.387893179
 20
192.4113427283
 30
0.0
 40
4.0
  0
LINE
  5
16D
330
1F
100
AcDbEntity
  8
0
  6
Continuous
 62
     7
370
    15
100
AcDbLine
 10
308.3878964121
 20
193.5660425713
 30
0.0
 11
306.387892359
 21
194.720744728
 31
0.0
  0
LINE
  5
16E
330
1F
100
AcDbEntity
  8
0
  6
Continuous
 62
     7
370
    15
100
AcDbLine
 10
304.3878883059
 20
193.5660425713
 30
0.0
 11
306.387892359
 21
194.720744728
 31
0.0
  0
LINE
  5
16F
330
1F
100
AcDbEntity
  8
0
  6
Continuous
 62
     7
370
    15
100
AcDbLine
 10
304.3878883059
 20
191.256641983
 30
0.0
 11
304.3878883059
 21
193.5660425713
 31
0.0
  0
LINE
  5
170
330
1F
100
AcDbEntity
  8
0
  6
Continuous
 62
     7
370
    15
100
AcDbLine
 10
304.3878883059
 20
191.256641983
 30
0.0
 11
306.387892359
 21
190.1019398262
 31
0.0
  0
LINE
  5
171
330
1F
100
AcDbEntity
  8
0
  6
Continuous
 62
     7
370
    15
100
AcDbLine
 10
308.3878964121
 20
191.256641983
 30
0.0
 11
306.387892359
 21
190.1019398262
 31
0.0
  0
LINE
  5
172
330
1F
100
AcDbEntity
  8
0
  6
Continuous
 62
     7
370
    15
100
AcDbLine
 10
308.3878964121
 20
191.256641983
 30
0.0
 11
308.3878964121
 21
193.5660425713
 31
0.0
  0
LINE
  5
173
330
1F
100
AcDbEntity
  8
0
  6
Continuous
 62
     7
370
    15
100
AcDbLine
 10
428.325733536
 20
241.9113429402
 30
0.0
 11
393.3257371122
 21
241.9113429402
 31
0.0
  0
LINE
  5
174
330
1F
100
AcDbEntity
  8
0
  6
Continuous
 62
     7
370
    15
100
AcDbLine
 10
393.8257306749
 20
242.4113430222
 30
0.0
 11
427.8257399733
 21
242.4113430222
 31
0.0
  0
SPLINE
  5
175
330
1F
100
AcDbEntity
  8
0
  6
Continuous
 62
     7
370
    15
100
AcDbSpline
210
0.0
220
0.0
230
1.0
 70
    11
 71
     3
 72
    46
 73
    42
 74
     0
 42
0.000000001
 43
0.00000001
 40
0.0
 40
0.0
 40
0.0
 40
0.0
 40
0.025245380369902
 40
0.050496624092951
 40
0.0756822323862811
 40
0.1008766031828249
 40
0.1272793715235202
 40
0.1536820801550739
 40
0.1814843740492037
 40
0.209271848518628
 40
0.2356604280157317
 40
0.2620434774835665
 40
0.286257674358964
 40
0.3104803259576365
 40
0.3352320321135572
 40
0.359990905592377
 40
0.3869825863404701
 40
0.4139702220768234
 40
0.4416544013758759
 40
0.4693260830602219
 40
0.495162470112252
 40
0.5209978100041233
 40
0.545455373328962
 40
0.5699195633463144
 40
0.5951492397387228
 40
0.6203844116596628
 40
0.6475309458234203
 40
0.6746716813104253
 40
0.7023008101526299
 40
0.7299142848486758
 40
0.755299448438512
 40
0.7806865139754138
 40
0.8047483513090714
 40
0.8288192528337485
 40
0.8543838858989619
 40
0.8799520621120932
 40
0.9075516430530893
 40
0.9351415449691747
 40
0.9623021688757858
 40
0.9894531204605107
 40
0.9999999999999999
 40
0.9999999999999999
 40
0.9999999999999999
 40
0.9999999999999999
 10
410.8257502252556
 20
174.9113422026218
 30
0.0
 10
410.4242904423476
 20
174.8922143966777
 30
0.0
 10
409.6212776356915
 20
174.8539543422705
 30
0.0
 10
408.4533656838617
 20
174.5580093247462
 30
0.0
 10
407.3561320308233
 20
174.0950244801433
 30
0.0
 10
406.3361195906999
 20
173.4598103202448
 30
0.0
 10
405.4226400863483
 20
172.6598211086959
 30
0.0
 10
404.6237082911736
 20
171.6925614150306
 30
0.0
 10
403.9870990147145
 20
170.5783102447789
 30
0.0
 10
403.5447384727216
 20
169.3615401664991
 30
0.0
 10
403.3237165929796
 20
168.0981437019297
 30
0.0
 10
403.3121009228436
 20
166.8680815087965
 30
0.0
 10
403.4966461394417
 20
165.6915406627903
 30
0.0
 10
403.8448561736852
 20
164.58815374583
 30
0.0
 10
404.3604380855274
 20
163.5534013795918
 30
0.0
 10
405.0471247326958
 20
162.5791015507692
 30
0.0
 10
405.9060206030726
 20
161.705399048989
 30
0.0
 10
406.9364402003278
 20
160.9551332185748
 30
0.0
 10
408.0998729478616
 20
160.3853286541929
 30
0.0
 10
409.3362311909715
 20
160.0229740254413
 30
0.0
 10
410.5940435963436
 20
159.8827624629457
 30
0.0
 10
411.8081439675394
 20
159.9429385563813
 30
0.0
 10
412.9694817494781
 20
160.1943057940404
 30
0.0
 10
414.0631703150771
 20
160.6117519711732
 30
0.0
 10
415.080081074148
 20
161.1983811721668
 30
0.0
 10
416.0218754339896
 20
161.9565046431633
 30
0.0
 10
416.8453760673298
 20
162.8801501806433
 30
0.0
 10
417.5278282030027
 20
163.9624683773102
 30
0.0
 10
418.0190414826324
 20
165.1639816271266
 30
0.0
 10
418.296173401454
 20
166.4157263589696
 30
0.0
 10
418.3524372392897
 20
167.6659720604541
 30
0.0
 10
418.2181931619978
 20
168.8517803267146
 30
0.0
 10
417.9041703241946
 20
169.9727879967036
 30
0.0
 10
417.4304113599547
 20
171.0290611476358
 30
0.0
 10
416.7882143041674
 20
172.0112086743757
 30
0.0
 10
415.9669810630658
 20
172.9194270856026
 30
0.0
 10
414.9783915418111
 20
173.6994544907961
 30
0.0
 10
413.8436078013695
 20
174.3191504721163
 30
0.0
 10
412.6142324514198
 20
174.7297584157198
 30
0.0
 10
411.5922050547351
 20
174.8957241102857
 30
0.0
 10
410.9933065572923
 20
174.9079278980018
 30
0.0
 10
410.8257502252556
 20
174.9113422026218
 30
0.0
  0
SPLINE
  5
176
330
1F
100
AcDbEntity
  8
0
  6
Continuous
 62
     7
370
    15
100
AcDbSpline
210
0.0
220
0.0
230
1.0
 70
    11
 71
     3
 72
    46
 73
    42
 74
     0
 42
0.000000001
 43
0.00000001
 40
0.0
 40
0.0
 40
0.0
 40
0.0
 40
0.0252453825821086
 40
0.0504966261496202
 40
0.0756822267686262
 40
0.1008765923432263
 40
0.1272793668007073
 40
0.1536820973532485
 40
0.1814843411533616
 40
0.2092718518109977
 40
0.2356604695178341
 40
0.262043440655949
 40
0.2862576373821968
 40
0.3104802888316675
 40
0.335232080908035
 40
0.359990891785325
 40
0.3869825451468663
 40
0.4139702481263703
 40
0.4416544272548995
 40
0.4693260762348028
 40
0.4951624674944403
 40
0.5209978032679241
 40
0.5454553909732204
 40
0.5699195670301905
 40
0.5951492049823343
 40
0.6203844007165047
 40
0.6475309916096187
 40
0.6746717107238162
 40
0.7023008036932937
 40
0.7299142212274139
 40
0.7552994432126364
 40
0.780686508593164
 40
0.8047483270886967
 40
0.8288192284651069
 40
0.854383901430052
 40
0.879952042151206
 40
0.9075516466112794
 40
0.9351415437694081
 40
0.9623021767716368
 40
0.9894531192160122
 40
1.0
 40
1.0
 40
1.0
 40
1.0
 10
410.8257502252556
 20
224.9113429476798
 30
0.0
 10
410.4242904439018
 20
224.892214574849
 30
0.0
 10
409.6212776780151
 20
224.853953388331
 30
0.0
 10
408.4533658902481
 20
224.5580085514207
 30
0.0
 10
407.3561319529229
 20
224.0950248705026
 30
0.0
 10
406.3361194129721
 20
223.4598110411148
 30
0.0
 10
405.4226396543839
 20
222.6598213935165
 30
0.0
 10
404.6237096084559
 20
221.6925607233619
 30
0.0
 10
403.9870977645709
 20
220.5783111225309
 30
0.0
 10
403.5447386611988
 20
219.3615398108515
 30
0.0
 10
403.3237167933243
 20
218.0981435057149
 30
0.0
 10
403.3121010970698
 20
216.8680819864075
 30
0.0
 10
403.4966459407485
 20
215.6915422106878
 30
0.0
 10
403.8448574095185
 20
214.5881546173908
 30
0.0
 10
404.3604357688389
 20
213.5533996752588
 30
0.0
 10
405.0471254433017
 20
212.5791019169365
 30
0.0
 10
405.9060226957046
 20
211.7054021025585
 30
0.0
 10
406.9364384543584
 20
210.9551298126532
 30
0.0
 10
408.099872150027
 20
210.3853243015852
 30
0.0
 10
409.3362323434765
 20
210.0229783546547
 30
0.0
 10
410.5940430824381
 20
209.8827640703185
 30
0.0
 10
411.8081449894597
 20
209.9429324583769
 30
0.0
 10
412.9694806589264
 20
210.1943107469255
 30
0.0
 10
414.0631697228333
 20
210.6117524090226
 30
0.0
 10
415.080082504233
 20
211.1983777715684
 30
0.0
 10
416.0218759643697
 20
211.9565039086134
 30
0.0
 10
416.8453747825416
 20
212.8801524112829
 30
0.0
 10
417.5278281570116
 20
213.9624696548877
 30
0.0
 10
418.0190412737755
 20
215.1639811472411
 30
0.0
 10
418.2961738442004
 20
216.415725153898
 30
0.0
 10
418.3524371803226
 20
217.6659709600399
 30
0.0
 10
418.2181933015872
 20
218.8517798446423
 30
0.0
 10
417.9041702525325
 20
219.972787232563
 30
0.0
 10
417.430410623649
 20
221.0290601945859
 30
0.0
 10
416.7882158771212
 20
222.0112097745366
 30
0.0
 10
415.9669795295783
 20
222.9194255800513
 30
0.0
 10
414.9783925046254
 20
223.6994559568056
 30
0.0
 10
413.8436072089395
 20
224.3191496490975
 30
0.0
 10
412.6142331246625
 20
224.7297621813774
 30
0.0
 10
411.5922047784111
 20
224.8957212230505
 30
0.0
 10
410.9933065397561
 20
224.9079278481227
 30
0.0
 10
410.8257502252556
 20
224.9113429476798
 30
0.0
  0
SPLINE
  5
177
330
1F
100
AcDbEntity
  8
0
  6
Continuous
 62
     7
370
    15
100
AcDbSpline
210
0.0
220
0.0
230
1.0
 70
     8
 71
     3
 72
    28
 73
    24
 74
     0
 42
0.000000001
 43
0.00000001
 40
0.0
 40
0.0
 40
0.0
 40
0.0
 40
0.0474299587109157
 40
0.0963568192076363
 40
0.1437591963241756
 40
0.192369249467812
 40
0.2432649046343936
 40
0.295364407184736
 40
0.3515345497427753
 40
0.40953212913193
 40
0.4533115641893901
 40
0.498324857288046
 40
0.5421264976414751
 40
0.5872219494521841
 40
0.63104537673827
 40
0.6758228286056961
 40
0.7266615638645759
 40
0.7786856830548108
 40
0.8350483297988338
 40
0.8932762011574436
 40
0.9455875794425463
 40
0.9998599048075445
 40
1.0
 40
1.0
 40
1.0
 40
1.0
 10
393.3257371122338
 20
202.4113420536102
 30
0.0
 10
393.3386859366661
 20
202.3887834140258
 30
0.0
 10
393.3649922537849
 20
202.3429541783471
 30
0.0
 10
393.571515632984
 20
201.9773053202817
 30
0.0
 10
393.882036950923
 20
201.4082123680147
 30
0.0
 10
394.2853562714586
 20
200.6288464933315
 30
0.0
 10
394.7584743782155
 20
199.6380449758416
 30
0.0
 10
395.2754368751336
 20
198.4163571784746
 30
0.0
 10
395.7857325472456
 20
196.9622221383098
 30
0.0
 10
396.1782491755677
 20
195.424270469366
 30
0.0
 10
396.410140758332
 20
193.9001966647766
 30
0.0
 10
396.4881619856216
 20
192.4787621316717
 30
0.0
 10
396.4222376562956
 20
191.0418281493448
 30
0.0
 10
396.2229845604911
 20
189.6577956342962
 30
0.0
 10
395.914526375862
 20
188.3383889057725
 30
0.0
 10
395.5155152704718
 20
187.0618596398665
 30
0.0
 10
395.0450391279115
 20
185.8406390288693
 30
0.0
 10
394.5306667879057
 20
184.6926926807296
 30
0.0
 10
394.0363680890586
 20
183.7031857149331
 30
0.0
 10
393.6337103718303
 20
182.9574435335719
 30
0.0
 10
393.395925624128
 20
182.5317359110017
 30
0.0
 10
393.2988017093742
 20
182.3685305649438
 30
0.0
 10
393.3258760204938
 20
182.4115632555821
 30
0.0
 10
393.3259457284905
 20
182.4116740514816
 30
0.0
  0
SPLINE
  5
178
330
1F
100
AcDbEntity
  8
0
  6
Continuous
 62
     7
370
    15
100
AcDbSpline
210
0.0
220
0.0
230
1.0
 70
     8
 71
     3
 72
    28
 73
    24
 74
     0
 42
0.000000001
 43
0.00000001
 40
0.0
 40
0.0
 40
0.0
 40
0.0
 40
0.0474299170405333
 40
0.0963568936339605
 40
0.1437590852133091
 40
0.1923693994731864
 40
0.2432650177693741
 40
0.295364283253802
 40
0.3515343768165731
 40
0.4095322680259633
 40
0.4533115897348817
 40
0.4983249967930053
 40
0.5421265201871844
 40
0.5872219705533108
 40
0.6310453964355621
 40
0.6758229457386138
 40
0.7266615900643398
 40
0.7786859829496743
 40
0.8350483749877013
 40
0.8932762444810461
 40
0.9455876210904122
 40
0.9998599447168569
 40
1.0
 40
1.0
 40
1.0
 40
1.0
 10
428.3257335359551
 20
182.411342500645
 30
0.0
 10
428.3128014931717
 20
182.4339013701374
 30
0.0
 10
428.2865292256095
 20
182.4797311485519
 30
0.0
 10
428.0799299194308
 20
182.8453769858288
 30
0.0
 10
427.7694856416539
 20
183.4144756411557
 30
0.0
 10
427.3661030064548
 20
184.193838064091
 30
0.0
 10
426.8929917289591
 20
185.1846355558821
 30
0.0
 10
426.3760704660417
 20
186.4063334949851
 30
0.0
 10
425.865773950959
 20
187.8604665778556
 30
0.0
 10
425.4732156566371
 20
189.3984123740024
 30
0.0
 10
425.24133106746
 20
190.9224904649527
 30
0.0
 10
425.1633083003493
 20
192.3439236551093
 30
0.0
 10
425.2292332755391
 20
193.7808575925662
 30
0.0
 10
425.428486014482
 20
195.1648890193786
 30
0.0
 10
425.7369446807763
 20
196.4842962535434
 30
0.0
 10
426.1359550157603
 20
197.7608273684966
 30
0.0
 10
426.6064295275013
 20
198.9820501243033
 30
0.0
 10
427.1208188137097
 20
200.1299848225444
 30
0.0
 10
427.6152268034147
 20
201.1195020371414
 30
0.0
 10
428.0172565691065
 20
201.8652420321545
 30
0.0
 10
428.2572479048609
 20
202.2909433778591
 30
0.0
 10
428.3488312509463
 20
202.4541661750808
 30
0.0
 10
428.3256144810562
 20
202.4111212985611
 30
0.0
 10
428.3255547220207
 20
202.4110105027736
 30
0.0
  0
LINE
  5
179
330
1F
100
AcDbEntity
  8
0
  6
Continuous
 62
     7
370
    15
100
AcDbLine
 10
428.325733536
 20
92.4113426497
 30
0.0
 11
393.3257371122
 21
92.4113426497
 31
0.0
  0
CIRCLE
  5
17A
330
1F
100
AcDbEntity
  8
0
  6
Continuous
 62
     7
370
    15
100
AcDbCircle
 10
410.8257418816
 20
217.4113427283
 30
0.0
 40
5.699999999999976
  0
CIRCLE
  5
17B
330
1F
100
AcDbEntity
  8
0
  6
Continuous
 62
     7
370
    15
100
AcDbCircle
 10
410.8257418816
 20
217.4113427283
 30
0.0
 40
6.500000000000021
  0
LINE
  5
17C
330
1F
100
AcDbEntity
  8
0
  6
Continuous
 62
     7
370
    15
100
AcDbLine
 10
411.123296612
 20
213.9484543492
 30
0.0
 11
413.9734715158
 21
215.9375898679
 31
0.0
  0
LINE
  5
17D
330
1F
100
AcDbEntity
  8
0
  6
Continuous
 62
     7
370
    15
100
AcDbLine
 10
413.9734715158
 20
215.9375898679
 30
0.0
 11
413.6759251291
 21
219.400477237
 31
0.0
  0
LINE
  5
17E
330
1F
100
AcDbEntity
  8
0
  6
Continuous
 62
     7
370
    15
100
AcDbLine
 10
410.5281740362
 20
220.8742309501
 30
0.0
 11
413.6759251291
 21
219.400477237
 31
0.0
  0
LINE
  5
17F
330
1F
100
AcDbEntity
  8
0
  6
Continuous
 62
     7
370
    15
100
AcDbLine
 10
407.6780289347
 20
218.8850954314
 30
0.0
 11
410.5281740362
 21
220.8742309501
 31
0.0
  0
LINE
  5
180
330
1F
100
AcDbEntity
  8
0
  6
Continuous
 62
     7
370
    15
100
AcDbLine
 10
407.6780289347
 20
218.8850954314
 30
0.0
 11
407.9755753214
 21
215.4222080623
 31
0.0
  0
LINE
  5
181
330
1F
100
AcDbEntity
  8
0
  6
Continuous
 62
     7
370
    15
100
AcDbLine
 10
411.123296612
 20
213.9484543492
 30
0.0
 11
407.9755753214
 21
215.4222080623
 31
0.0
  0
ARC
  5
182
330
1F
100
AcDbEntity
  8
0
  6
Continuous
 62
     7
370
    15
100
AcDbCircle
 10
410.8257418816
 20
217.4113427283
 30
0.0
 40
3.010000000000029
100
AcDbArc
 50
124.9111950276
 51
184.9111950276
  0
ARC
  5
183
330
1F
100
AcDbEntity
  8
0
  6
Continuous
 62
     7
370
    15
100
AcDbCircle
 10
410.8257418816
 20
217.4113427283
 30
0.0
 40
3.010000000000029
100
AcDbArc
 50
184.9111950276
 51
244.9111950276
  0
ARC
  5
184
330
1F
100
AcDbEntity
  8
0
  6
Continuous
 62
     7
370
    15
100
AcDbCircle
 10
410.8257418816
 20
217.4113427283
 30
0.0
 40
3.01
100
AcDbArc
 50
64.9111950276
 51
124.9111950276
  0
ARC
  5
185
330
1F
100
AcDbEntity
  8
0
  6
Continuous
 62
     7
370
    15
100
AcDbCircle
 10
410.8257418816
 20
217.4113427283
 30
0.0
 40
3.00999999999997
100
AcDbArc
 50
4.9111950276
 51
64.9111950276
  0
ARC
  5
186
330
1F
100
AcDbEntity
  8
0
  6
Continuous
 62
     7
370
    15
100
AcDbCircle
 10
410.8257418816
 20
217.4113427283
 30
0.0
 40
3.01
100
AcDbArc
 50
304.9111950276
 51
4.9111950276
  0
ARC
  5
187
330
1F
100
AcDbEntity
  8
0
  6
Continuous
 62
     7
370
    15
100
AcDbCircle
 10
410.8257418816
 20
217.4113427283
 30
0.0
 40
3.010000000000021
100
AcDbArc
 50
244.9111950276
 51
304.9111950276
  0
CIRCLE
  5
188
330
1F
100
AcDbEntity
  8
0
  6
Continuous
 62
     7
370
    15
100
AcDbCircle
 10
306.387893179
 20
167.4113427283
 30
0.0
 40
5.69999999999993
  0
CIRCLE
  5
189
330
1F
100
AcDbEntity
  8
0
  6
Continuous
 62
     7
370
    15
100
AcDbCircle
 10
306.387893179
 20
167.4113427283
 30
0.0
 40
6.499999999999971
  0
LINE
  5
18A
330
1F
100
AcDbEntity
  8
0
  6
Continuous
 62
     7
370
    15
100
AcDbLine
 10
304.9243152077
 20
170.5638129403
 30
0.0
 11
302.9259800846
 21
167.7200790634
 31
0.0
  0
LINE
  5
18B
330
1F
100
AcDbEntity
  8
0
  6
Continuous
 62
     7
370
    15
100
AcDbLine
 10
302.9259800846
 20
167.7200790634
 30
0.0
 11
304.3895721371
 21
164.5676080277
 31
0.0
  0
LINE
  5
18C
330
1F
100
AcDbEntity
  8
0
  6
Continuous
 62
     7
370
    15
100
AcDbLine
 10
307.8514695103
 20
164.2588708689
 30
0.0
 11
304.3895721371
 21
164.5676080277
 31
0.0
  0
LINE
  5
18D
330
1F
100
AcDbEntity
  8
0
  6
Continuous
 62
     7
370
    15
100
AcDbLine
 10
309.8498046333
 20
167.1026084711
 30
0.0
 11
307.8514695103
 21
164.2588708689
 31
0.0
  0
LINE
  5
18E
330
1F
100
AcDbEntity
  8
0
  6
Continuous
 62
     7
370
    15
100
AcDbLine
 10
309.8498046333
 20
167.1026084711
 30
0.0
 11
308.386227482
 21
170.2550757815
 31
0.0
  0
LINE
  5
18F
330
1F
100
AcDbEntity
  8
0
  6
Continuous
 62
     7
370
    15
100
AcDbLine
 10
304.9243152077
 20
170.5638129403
 30
0.0
 11
308.386227482
 21
170.2550757815
 31
0.0
  0
ARC
  5
190
330
1F
100
AcDbEntity
  8
0
  6
Continuous
 62
     7
370
    15
100
AcDbCircle
 10
306.387893179
 20
167.4113427283
 30
0.0
 40
3.010000000000002
100
AcDbArc
 50
324.9038027302
 51
24.9038027302
  0
ARC
  5
191
330
1F
100
AcDbEntity
  8
0
  6
Continuous
 62
     7
370
    15
100
AcDbCircle
 10
306.387893179
 20
167.4113427283
 30
0.0
 40
3.010000000000035
100
AcDbArc
 50
264.9038027302
 51
324.9038027302
  0
ARC
  5
192
330
1F
100
AcDbEntity
  8
0
  6
Continuous
 62
     7
370
    15
100
AcDbCircle
 10
306.387893179
 20
167.4113427283
 30
0.0
 40
3.010000000000036
100
AcDbArc
 50
204.9038027302
 51
264.9038027302
  0
ARC
  5
193
330
1F
100
AcDbEntity
  8
0
  6
Continuous
 62
     7
370
    15
100
AcDbCircle
 10
306.387893179
 20
167.4113427283
 30
0.0
 40
3.010000000000036
100
AcDbArc
 50
144.9038027302
 51
204.9038027302
  0
ARC
  5
194
330
1F
100
AcDbEntity
  8
0
  6
Continuous
 62
     7
370
    15
100
AcDbCircle
 10
306.387893179
 20
167.4113427283
 30
0.0
 40
3.01
100
AcDbArc
 50
84.9038027302
 51
144.9038027302
  0
ARC
  5
195
330
1F
100
AcDbEntity
  8
0
  6
Continuous
 62
     7
370
    15
100
AcDbCircle
 10
306.387893179
 20
167.4113427283
 30
0.0
 40
3.009999999999968
100
AcDbArc
 50
24.9038027302
 51
84.9038027302
  0
CIRCLE
  5
196
330
1F
100
AcDbEntity
  8
0
  6
Continuous
 62
     7
370
    15
100
AcDbCircle
 10
306.387893179
 20
217.4113427283
 30
0.0
 40
5.700000000000017
  0
CIRCLE
  5
197
330
1F
100
AcDbEntity
  8
0
  6
Continuous
 62
     7
370
    15
100
AcDbCircle
 10
306.387893179
 20
217.4113427283
 30
0.0
 40
6.500000000000015
  0
LINE
  5
198
330
1F
100
AcDbEntity
  8
0
  6
Continuous
 62
     7
370
    15
100
AcDbLine
 10
303.0095159943
 20
216.5948204835
 30
0.0
 11
305.4058313305
 21
214.0773223852
 31
0.0
  0
LINE
  5
199
330
1F
100
AcDbEntity
  8
0
  6
Continuous
 62
     7
370
    15
100
AcDbLine
 10
305.4058313305
 20
214.0773223852
 30
0.0
 11
308.7842076952
 21
214.8938445513
 31
0.0
  0
LINE
  5
19A
330
1F
100
AcDbEntity
  8
0
  6
Continuous
 62
     7
370
    15
100
AcDbLine
 10
309.7662687237
 20
218.2278648158
 30
0.0
 11
308.7842076952
 21
214.8938445513
 31
0.0
  0
LINE
  5
19B
330
1F
100
AcDbEntity
  8
0
  6
Continuous
 62
     7
370
    15
100
AcDbLine
 10
307.3699533874
 20
220.7453629141
 30
0.0
 11
309.7662687237
 21
218.2278648158
 31
0.0
  0
LINE
  5
19C
330
1F
100
AcDbEntity
  8
0
  6
Continuous
 62
     7
370
    15
100
AcDbLine
 10
307.3699533874
 20
220.7453629141
 30
0.0
 11
303.9915770227
 21
219.928840748
 31
0.0
  0
LINE
  5
19D
330
1F
100
AcDbEntity
  8
0
  6
Continuous
 62
     7
370
    15
100
AcDbLine
 10
303.0095159943
 20
216.5948204835
 30
0.0
 11
303.9915770227
 21
219.928840748
 31
0.0
  0
ARC
  5
19E
330
1F
100
AcDbEntity
  8
0
  6
Continuous
 62
     7
370
    15
100
AcDbCircle
 10
306.387893179
 20
217.4113427283
 30
0.0
 40
3.009999999999999
100
AcDbArc
 50
163.5872929349
 51
223.5872929349
  0
ARC
  5
19F
330
1F
100
AcDbEntity
  8
0
  6
Continuous
 62
     7
370
    15
100
AcDbCircle
 10
306.387893179
 20
217.4113427283
 30
0.0
 40
3.010000000000022
100
AcDbArc
 50
43.5872929349
 51
103.5872929349
  0
ARC
  5
1A0
330
1F
100
AcDbEntity
  8
0
  6
Continuous
 62
     7
370
    15
100
AcDbCircle
 10
306.387893179
 20
217.4113427283
 30
0.0
 40
3.010000000000003
100
AcDbArc
 50
343.5872929349
 51
43.5872929349
  0
ARC
  5
1A1
330
1F
100
AcDbEntity
  8
0
  6
Continuous
 62
     7
370
    15
100
AcDbCircle
 10
306.387893179
 20
217.4113427283
 30
0.0
 40
3.010000000000003
100
AcDbArc
 50
283.5872929349
 51
343.5872929349
  0
ARC
  5
1A2
330
1F
100
AcDbEntity
  8
0
  6
Continuous
 62
     7
370
    15
100
AcDbCircle
 10
306.387893179
 20
217.4113427283
 30
0.0
 40
3.009999999999999
100
AcDbArc
 50
223.5872929349
 51
283.5872929349
  0
ARC
  5
1A3
330
1F
100
AcDbEntity
  8
0
  6
Continuous
 62
     7
370
    15
100
AcDbCircle
 10
306.387893179
 20
217.4113427283
 30
0.0
 40
3.010000000000022
100
AcDbArc
 50
103.5872929349
 51
163.5872929349
  0
CIRCLE
  5
1A4
330
1F
100
AcDbEntity
  8
0
  6
Continuous
 62
     7
370
    15
100
AcDbCircle
 10
410.8257418816
 20
167.4113427283
 30
0.0
 40
5.700000000000031
  0
CIRCLE
  5
1A5
330
1F
100
AcDbEntity
  8
0
  6
Continuous
 62
     7
370
    15
100
AcDbCircle
 10
410.8257418816
 20
167.4113427283
 30
0.0
 40
6.500000000000043
  0
LINE
  5
1A6
330
1F
100
AcDbEntity
  8
0
  6
Continuous
 62
     7
370
    15
100
AcDbLine
 10
407.4473589594
 20
166.5948216011
 30
0.0
 11
409.8436742956
 21
164.0773225715
 31
0.0
  0
LINE
  5
1A7
330
1F
100
AcDbEntity
  8
0
  6
Continuous
 62
     7
370
    15
100
AcDbLine
 10
409.8436742956
 20
164.0773225715
 30
0.0
 11
413.2220655615
 21
164.8938466003
 31
0.0
  0
LINE
  5
1A8
330
1F
100
AcDbEntity
  8
0
  6
Continuous
 62
     7
370
    15
100
AcDbLine
 10
414.2041116888
 20
168.2278659334
 30
0.0
 11
413.2220655615
 21
164.8938466003
 31
0.0
  0
LINE
  5
1A9
330
1F
100
AcDbEntity
  8
0
  6
Continuous
 62
     7
370
    15
100
AcDbLine
 10
411.8077963526
 20
170.745364963
 30
0.0
 11
414.2041116888
 21
168.2278659334
 31
0.0
  0
LINE
  5
1AA
330
1F
100
AcDbEntity
  8
0
  6
Continuous
 62
     7
370
    15
100
AcDbLine
 10
411.8077963526
 20
170.745364963
 30
0.0
 11
408.429434889
 21
169.9288409342
 31
0.0
  0
LINE
  5
1AB
330
1F
100
AcDbEntity
  8
0
  6
Continuous
 62
     7
370
    15
100
AcDbLine
 10
407.4473589594
 20
166.5948216011
 30
0.0
 11
408.429434889
 21
169.9288409342
 31
0.0
  0
ARC
  5
1AC
330
1F
100
AcDbEntity
  8
0
  6
Continuous
 62
     7
370
    15
100
AcDbCircle
 10
410.8257418816
 20
167.4113427283
 30
0.0
 40
3.010000000000066
100
AcDbArc
 50
163.5872929349
 51
223.5872929349
  0
ARC
  5
1AD
330
1F
100
AcDbEntity
  8
0
  6
Continuous
 62
     7
370
    15
100
AcDbCircle
 10
410.8257418816
 20
167.4113427283
 30
0.0
 40
3.010000000000036
100
AcDbArc
 50
43.5872929349
 51
103.5872929349
  0
ARC
  5
1AE
330
1F
100
AcDbEntity
  8
0
  6
Continuous
 62
     7
370
    15
100
AcDbCircle
 10
410.8257418816
 20
167.4113427283
 30
0.0
 40
3.010000000000019
100
AcDbArc
 50
343.5872929349
 51
43.5872929349
  0
ARC
  5
1AF
330
1F
100
AcDbEntity
  8
0
  6
Continuous
 62
     7
370
    15
100
AcDbCircle
 10
410.8257418816
 20
167.4113427283
 30
0.0
 40
3.010000000000003
100
AcDbArc
 50
283.5872929349
 51
343.5872929349
  0
ARC
  5
1B0
330
1F
100
AcDbEntity
  8
0
  6
Continuous
 62
     7
370
    15
100
AcDbCircle
 10
410.8257418816
 20
167.4113427283
 30
0.0
 40
3.009999999999999
100
AcDbArc
 50
223.5872929349
 51
283.5872929349
  0
ARC
  5
1B1
330
1F
100
AcDbEntity
  8
0
  6
Continuous
 62
     7
370
    15
100
AcDbCircle
 10
410.8257418816
 20
167.4113427283
 30
0.0
 40
3.010000000000066
100
AcDbArc
 50
103.5872929349
 51
163.5872929349
  0
LINE
  5
1B2
330
1F
100
AcDbEntity
  8
0
  6
Continuous
 62
     7
370
    15
100
AcDbLine
 10
-76.1334960809
 20
159.9113453319
 30
0.0
 11
-76.1334960809
 21
142.9113406827
 31
0.0
  0
LINE
  5
1B3
330
1F
100
AcDbEntity
  8
0
  6
Continuous
 62
     7
370
    15
100
AcDbLine
 10
-76.1334960809
 20
209.9113423516
 30
0.0
 11
-76.1334960809
 21
174.9113422026
 31
0.0
  0
LINE
  5
1B4
330
1F
100
AcDbEntity
  8
0
  6
Continuous
 62
     7
370
    15
100
AcDbLine
 10
-76.1334960809
 20
241.9113429402
 30
0.0
 11
-76.1334960809
 21
224.9113429477
 31
0.0
  0
LINE
  5
1B5
330
1F
100
AcDbEntity
  8
0
  6
Continuous
 62
     7
370
    15
100
AcDbLine
 10
-41.1334966304
 20
224.9113429477
 30
0.0
 11
-41.1334966304
 21
241.9113429402
 31
0.0
  0
LINE
  5
1B6
330
1F
100
AcDbEntity
  8
0
  6
Continuous
 62
     7
370
    15
100
AcDbLine
 10
-41.1334966304
 20
196.4113410701
 30
0.0
 11
-41.1334966304
 21
209.9280577292
 31
0.0
  0
LINE
  5
1B7
330
1F
100
AcDbEntity
  8
0
  6
Continuous
 62
     7
370
    15
100
AcDbLine
 10
-41.1334966304
 20
174.9113422026
 30
0.0
 11
-41.1334966304
 21
188.4113434841
 31
0.0
  0
LINE
  5
1B8
330
1F
100
AcDbEntity
  8
0
  6
Continuous
 62
     7
370
    15
100
AcDbLine
 10
-41.1334966304
 20
142.9113406827
 30
0.0
 11
-41.1334966304
 21
159.9280569841
 31
0.0
  0
LINE
  5
1B9
330
1F
100
AcDbEntity
  8
0
  6
Continuous
 62
     7
370
    15
100
AcDbLine
 10
-41.1334966304
 20
241.9113429402
 30
0.0
 11
-41.6334964795
 21
242.4113430222
 31
0.0
  0
LINE
  5
1BA
330
1F
100
AcDbEntity
  8
0
  6
Continuous
 62
     7
370
    15
100
AcDbLine
 10
-75.6334950676
 20
242.4113430222
 30
0.0
 11
-76.1334960809
 21
241.9113429402
 31
0.0
  0
LINE
  5
1BB
330
1F
100
AcDbEntity
  8
0
  6
Continuous
 62
     7
370
    15
100
AcDbLine
 10
-76.1334960809
 20
142.9113406827
 30
0.0
 11
-75.6334950676
 21
142.4113396694
 31
0.0
  0
LINE
  5
1BC
330
1F
100
AcDbEntity
  8
0
  6
Continuous
 62
     7
370
    15
100
AcDbLine
 10
-41.6334964795
 20
142.4113396694
 30
0.0
 11
-41.1334966304
 21
142.9113406827
 31
0.0
  0
LINE
  5
1BD
330
1F
100
AcDbEntity
  8
0
  6
Continuous
 62
     7
370
    15
100
AcDbLine
 10
-79.13349471
 20
149.9113399674
 30
0.0
 11
-77.1334981075
 21
149.9113399674
 31
0.0
  0
LINE
  5
1BE
330
1F
100
AcDbEntity
  8
0
  6
Continuous
 62
     7
370
    15
100
AcDbLine
 10
-77.1334981075
 20
184.9113438417
 30
0.0
 11
-79.13349471
 21
184.9113438417
 31
0.0
  0
LINE
  5
1BF
330
1F
100
AcDbEntity
  8
0
  6
Continuous
 62
     7
370
    15
100
AcDbLine
 10
-77.1334981075
 20
158.9113433053
 30
0.0
 11
-76.1334960809
 21
159.9113453319
 31
0.0
  0
LINE
  5
1C0
330
1F
100
AcDbEntity
  8
0
  6
Continuous
 62
     7
370
    15
100
AcDbLine
 10
-76.1334960809
 20
174.9113422026
 30
0.0
 11
-77.1334981075
 21
175.9113442292
 31
0.0
  0
LINE
  5
1C1
330
1F
100
AcDbEntity
  8
0
  6
Continuous
 62
     7
370
    15
100
AcDbLine
 10
-79.13349471
 20
199.9113425752
 30
0.0
 11
-77.1334981075
 21
199.9113425752
 31
0.0
  0
LINE
  5
1C2
330
1F
100
AcDbEntity
  8
0
  6
Continuous
 62
     7
370
    15
100
AcDbLine
 10
-77.1334981075
 20
234.9113427242
 30
0.0
 11
-79.13349471
 21
234.9113427242
 31
0.0
  0
LINE
  5
1C3
330
1F
100
AcDbEntity
  8
0
  6
Continuous
 62
     7
370
    15
100
AcDbLine
 10
-77.1334981075
 20
208.9113421877
 30
0.0
 11
-76.1334960809
 21
209.9113423516
 31
0.0
  0
LINE
  5
1C4
330
1F
100
AcDbEntity
  8
0
  6
Continuous
 62
     7
370
    15
100
AcDbLine
 10
-76.1334960809
 20
224.9113429477
 30
0.0
 11
-77.1334981075
 21
225.9113426459
 31
0.0
  0
LINE
  5
1C5
330
1F
100
AcDbEntity
  8
0
  6
Continuous
 62
     7
370
    15
100
AcDbLine
 10
-92.1334949782
 20
184.9113438417
 30
0.0
 11
-94.1334953061
 21
182.9113435139
 31
0.0
  0
LINE
  5
1C6
330
1F
100
AcDbEntity
  8
0
  6
Continuous
 62
     7
370
    15
100
AcDbLine
 10
-94.1334953061
 20
151.9113440206
 30
0.0
 11
-92.1334949782
 21
149.9113399674
 31
0.0
  0
LINE
  5
1C7
330
1F
100
AcDbEntity
  8
0
  6
Continuous
 62
     7
370
    15
100
AcDbLine
 10
-92.1334949782
 20
149.9113399674
 30
0.0
 11
-91.3334963372
 21
149.9113399674
 31
0.0
  0
LINE
  5
1C8
330
1F
100
AcDbEntity
  8
0
  6
Continuous
 62
     7
370
    15
100
AcDbLine
 10
-91.3334963372
 20
184.9113438417
 30
0.0
 11
-92.1334949782
 21
184.9113438417
 31
0.0
  0
LINE
  5
1C9
330
1F
100
AcDbEntity
  8
0
  6
Continuous
 62
     7
370
    15
100
AcDbLine
 10
-91.3334963372
 20
149.9113399674
 30
0.0
 11
-91.133496677
 21
150.111343353
 31
0.0
  0
LINE
  5
1CA
330
1F
100
AcDbEntity
  8
0
  6
Continuous
 62
     7
370
    15
100
AcDbLine
 10
-91.133496677
 20
184.7113441815
 30
0.0
 11
-91.3334963372
 21
184.9113438417
 31
0.0
  0
LINE
  5
1CB
330
1F
100
AcDbEntity
  8
0
  6
Continuous
 62
     7
370
    15
100
AcDbLine
 10
-86.13349772
 20
159.4113443186
 30
0.0
 11
-84.1334973922
 21
159.4113443186
 31
0.0
  0
LINE
  5
1CC
330
1F
100
AcDbEntity
  8
0
  6
Continuous
 62
     7
370
    15
100
AcDbLine
 10
-84.1334973922
 20
175.4113432159
 30
0.0
 11
-86.13349772
 21
175.4113432159
 31
0.0
  0
LINE
  5
1CD
330
1F
100
AcDbEntity
  8
0
  6
Continuous
 62
     7
370
    15
100
AcDbLine
 10
-92.1334949782
 20
234.9113427242
 30
0.0
 11
-94.1334953061
 21
232.9113426292
 31
0.0
  0
LINE
  5
1CE
330
1F
100
AcDbEntity
  8
0
  6
Continuous
 62
     7
370
    15
100
AcDbLine
 10
-94.1334953061
 20
201.911342903
 30
0.0
 11
-92.1334949782
 21
199.9113425752
 31
0.0
  0
LINE
  5
1CF
330
1F
100
AcDbEntity
  8
0
  6
Continuous
 62
     7
370
    15
100
AcDbLine
 10
-91.3334963372
 20
199.9113425752
 30
0.0
 11
-91.133496677
 21
200.1113422354
 31
0.0
  0
LINE
  5
1D0
330
1F
100
AcDbEntity
  8
0
  6
Continuous
 62
     7
370
    15
100
AcDbLine
 10
-91.133496677
 20
234.7113425982
 30
0.0
 11
-91.3334963372
 21
234.9113427242
 31
0.0
  0
LINE
  5
1D1
330
1F
100
AcDbEntity
  8
0
  6
Continuous
 62
     7
370
    15
100
AcDbLine
 10
-92.1334949782
 20
199.9113425752
 30
0.0
 11
-91.3334963372
 21
199.9113425752
 31
0.0
  0
LINE
  5
1D2
330
1F
100
AcDbEntity
  8
0
  6
Continuous
 62
     7
370
    15
100
AcDbLine
 10
-91.3334963372
 20
234.9113427242
 30
0.0
 11
-92.1334949782
 21
234.9113427242
 31
0.0
  0
LINE
  5
1D3
330
1F
100
AcDbEntity
  8
0
  6
Continuous
 62
     7
370
    15
100
AcDbLine
 10
-86.13349772
 20
209.411343201
 30
0.0
 11
-84.1334973922
 21
209.411343201
 31
0.0
  0
LINE
  5
1D4
330
1F
100
AcDbEntity
  8
0
  6
Continuous
 62
     7
370
    15
100
AcDbLine
 10
-84.1334973922
 20
225.411342564
 30
0.0
 11
-86.13349772
 21
225.411342564
 31
0.0
  0
LINE
  5
1D5
330
1F
100
AcDbEntity
  8
0
  6
Continuous
 62
     7
370
    15
100
AcDbLine
 10
-79.13349471
 20
234.9113427242
 30
0.0
 11
-80.1334967366
 21
234.9113427242
 31
0.0
  0
LINE
  5
1D6
330
1F
100
AcDbEntity
  8
0
  6
Continuous
 62
     7
370
    15
100
AcDbLine
 10
-80.1334967366
 20
199.9113425752
 30
0.0
 11
-79.13349471
 21
199.9113425752
 31
0.0
  0
LINE
  5
1D7
330
1F
100
AcDbEntity
  8
0
  6
Continuous
 62
     7
370
    15
100
AcDbLine
 10
-80.1334967366
 20
227.411342659
 30
0.0
 11
-84.1334973922
 21
227.411342659
 31
0.0
  0
LINE
  5
1D8
330
1F
100
AcDbEntity
  8
0
  6
Continuous
 62
     7
370
    15
100
AcDbLine
 10
-84.1334973922
 20
207.4113428732
 30
0.0
 11
-80.1334967366
 21
207.4113428732
 31
0.0
  0
LINE
  5
1D9
330
1F
100
AcDbEntity
  8
0
  6
Continuous
 62
     7
370
    15
100
AcDbLine
 10
-91.133496677
 20
199.9113425752
 30
0.0
 11
-90.1334983757
 21
199.9113425752
 31
0.0
  0
LINE
  5
1DA
330
1F
100
AcDbEntity
  8
0
  6
Continuous
 62
     7
370
    15
100
AcDbLine
 10
-90.1334983757
 20
234.9113427242
 30
0.0
 11
-91.133496677
 21
234.9113427242
 31
0.0
  0
LINE
  5
1DB
330
1F
100
AcDbEntity
  8
0
  6
Continuous
 62
     7
370
    15
100
AcDbLine
 10
-90.1334983757
 20
207.4113428732
 30
0.0
 11
-86.13349772
 21
207.4113428732
 31
0.0
  0
LINE
  5
1DC
330
1F
100
AcDbEntity
  8
0
  6
Continuous
 62
     7
370
    15
100
AcDbLine
 10
-86.13349772
 20
227.411342659
 30
0.0
 11
-90.1334983757
 21
227.411342659
 31
0.0
  0
LINE
  5
1DD
330
1F
100
AcDbEntity
  8
0
  6
Continuous
 62
     7
370
    15
100
AcDbLine
 10
-79.13349471
 20
184.9113438417
 30
0.0
 11
-80.1334967366
 21
184.9113438417
 31
0.0
  0
LINE
  5
1DE
330
1F
100
AcDbEntity
  8
0
  6
Continuous
 62
     7
370
    15
100
AcDbLine
 10
-80.1334967366
 20
149.9113399674
 30
0.0
 11
-79.13349471
 21
149.9113399674
 31
0.0
  0
LINE
  5
1DF
330
1F
100
AcDbEntity
  8
0
  6
Continuous
 62
     7
370
    15
100
AcDbLine
 10
-80.1334967366
 20
177.4113435437
 30
0.0
 11
-84.1334973922
 21
177.4113435437
 31
0.0
  0
LINE
  5
1E0
330
1F
100
AcDbEntity
  8
0
  6
Continuous
 62
     7
370
    15
100
AcDbLine
 10
-84.1334973922
 20
157.4113402655
 30
0.0
 11
-80.1334967366
 21
157.4113402655
 31
0.0
  0
LINE
  5
1E1
330
1F
100
AcDbEntity
  8
0
  6
Continuous
 62
     7
370
    15
100
AcDbLine
 10
-91.133496677
 20
149.9113399674
 30
0.0
 11
-90.1334983757
 21
149.9113399674
 31
0.0
  0
LINE
  5
1E2
330
1F
100
AcDbEntity
  8
0
  6
Continuous
 62
     7
370
    15
100
AcDbLine
 10
-90.1334983757
 20
184.9113438417
 30
0.0
 11
-91.133496677
 21
184.9113438417
 31
0.0
  0
LINE
  5
1E3
330
1F
100
AcDbEntity
  8
0
  6
Continuous
 62
     7
370
    15
100
AcDbLine
 10
-90.1334983757
 20
157.4113402655
 30
0.0
 11
-86.13349772
 21
157.4113402655
 31
0.0
  0
LINE
  5
1E4
330
1F
100
AcDbEntity
  8
0
  6
Continuous
 62
     7
370
    15
100
AcDbLine
 10
-86.13349772
 20
177.4113435437
 30
0.0
 11
-90.1334983757
 21
177.4113435437
 31
0.0
  0
LINE
  5
1E5
330
1F
100
AcDbEntity
  8
0
  6
Continuous
 62
     7
370
    15
100
AcDbLine
 10
-40.5321568944
 20
196.4113410701
 30
0.0
 11
-41.1334966304
 21
196.4113410701
 31
0.0
  0
LINE
  5
1E6
330
1F
100
AcDbEntity
  8
0
  6
Continuous
 62
     7
370
    15
100
AcDbLine
 10
-41.1334966304
 20
188.4113434841
 30
0.0
 11
-40.5321568944
 21
188.4113434841
 31
0.0
  0
LINE
  5
1E7
330
1F
100
AcDbEntity
  8
0
  6
Continuous
 62
     7
370
    15
100
AcDbLine
 10
-40.5321568944
 20
188.4113434841
 30
0.0
 11
-40.1334965829
 21
189.1018409421
 31
0.0
  0
LINE
  5
1E8
330
1F
100
AcDbEntity
  8
0
  6
Continuous
 62
     7
370
    15
100
AcDbLine
 10
-40.1334965829
 20
195.7208436122
 30
0.0
 11
-40.5321568944
 21
196.4113410701
 31
0.0
  0
LINE
  5
1E9
330
1F
100
AcDbEntity
  8
0
  6
Continuous
 62
     7
370
    15
100
AcDbLine
 10
-76.0135789862
 20
113.1613437225
 30
0.0
 11
-80.1334967366
 21
113.1613437225
 31
0.0
  0
LINE
  5
1EA
330
1F
100
AcDbEntity
  8
0
  6
Continuous
 62
     7
370
    15
100
AcDbLine
 10
-80.1334967366
 20
96.6613475372
 30
0.0
 11
-76.0139775923
 21
96.6613475372
 31
0.0
  0
ARC
  5
1EB
330
1F
100
AcDbEntity
  8
0
  6
Continuous
 62
     7
370
    15
100
AcDbCircle
 10
-80.1334965489
 20
112.1613427283
 30
0.0
 40
1.0
100
AcDbArc
 50
90.0
 51
180.0
  0
ARC
  5
1EC
330
1F
100
AcDbEntity
  8
0
  6
Continuous
 62
     7
370
    15
100
AcDbCircle
 10
-80.1334965489
 20
97.6613427283
 30
0.0
 40
1.0
100
AcDbArc
 50
180.0
 51
270.0
  0
LINE
  5
1ED
330
1F
100
AcDbEntity
  8
0
  6
Continuous
 62
     7
370
    15
100
AcDbLine
 10
-76.1334960809
 20
96.4113358547
 30
0.0
 11
-76.1334960809
 21
92.4113426497
 31
0.0
  0
LINE
  5
1EE
330
1F
100
AcDbEntity
  8
0
  6
Continuous
 62
     7
370
    15
100
AcDbLine
 10
-76.1334960809
 20
142.9113406827
 30
0.0
 11
-76.1334960809
 21
113.3841160824
 31
0.0
  0
LINE
  5
1EF
330
1F
100
AcDbEntity
  8
0
  6
Continuous
 62
     7
370
    15
100
AcDbLine
 10
-41.1334966304
 20
92.4113426497
 30
0.0
 11
-41.1334966304
 21
142.9113406827
 31
0.0
  0
ARC
  5
1F0
330
1F
100
AcDbEntity
  8
0
  6
Continuous
 62
     7
370
    15
100
AcDbCircle
 10
-40.9334965489
 20
173.1113427283
 30
0.0
 40
0.8000000000000114
100
AcDbArc
 50
0.0
 51
90.0
  0
ARC
  5
1F1
330
1F
100
AcDbEntity
  8
0
  6
Continuous
 62
     7
370
    15
100
AcDbCircle
 10
-40.9334965489
 20
161.7113427283
 30
0.0
 40
0.8000000000000114
100
AcDbArc
 50
270.0
 51
0.0
  0
LINE
  5
1F2
330
1F
100
AcDbEntity
  8
0
  6
Continuous
 62
     7
370
    15
100
AcDbLine
 10
-40.9334965045
 20
173.9113439014
 30
0.0
 11
-41.5362489404
 21
173.9113439014
 31
0.0
  0
LINE
  5
1F3
330
1F
100
AcDbEntity
  8
0
  6
Continuous
 62
     7
370
    15
100
AcDbLine
 10
-41.5372086683
 20
160.9113399078
 30
0.0
 11
-40.9334965045
 21
160.9113399078
 31
0.0
  0
ARC
  5
1F4
330
1F
100
AcDbEntity
  8
0
  6
Continuous
 62
     7
370
    15
100
AcDbCircle
 10
-40.9334965489
 20
223.1113427283
 30
0.0
 40
0.8000000000000398
100
AcDbArc
 50
0.0
 51
90.0
  0
ARC
  5
1F5
330
1F
100
AcDbEntity
  8
0
  6
Continuous
 62
     7
370
    15
100
AcDbCircle
 10
-40.9334965489
 20
211.7113427283
 30
0.0
 40
0.8000000000000398
100
AcDbArc
 50
270.0
 51
0.0
  0
LINE
  5
1F6
330
1F
100
AcDbEntity
  8
0
  6
Continuous
 62
     7
370
    15
100
AcDbLine
 10
-40.9334965045
 20
223.9113427838
 30
0.0
 11
-41.5362489404
 21
223.9113427838
 31
0.0
  0
LINE
  5
1F7
330
1F
100
AcDbEntity
  8
0
  6
Continuous
 62
     7
370
    15
100
AcDbLine
 10
-41.5372086683
 20
210.9113425155
 30
0.0
 11
-40.9334965045
 21
210.9113425155
 31
0.0
  0
LINE
  5
1F8
330
1F
100
AcDbEntity
  8
0
  6
Continuous
 62
     7
370
    15
100
AcDbLine
 10
-58.6334960064
 20
241.9113429402
 30
0.0
 11
-76.1334960809
 21
241.9113429402
 31
0.0
  0
LINE
  5
1F9
330
1F
100
AcDbEntity
  8
0
  6
Continuous
 62
     7
370
    15
100
AcDbLine
 10
-41.1334966304
 20
241.9113429402
 30
0.0
 11
-58.6334960064
 21
241.9113429402
 31
0.0
  0
SPLINE
  5
1FA
330
1F
100
AcDbEntity
  8
0
  6
Continuous
 62
     7
370
    15
100
AcDbSpline
210
0.0
220
0.0
230
1.0
 70
     8
 71
     3
 72
    27
 73
    23
 74
     0
 42
0.000000001
 43
0.00000001
 40
0.0
 40
0.0
 40
0.0
 40
0.0
 40
0.0497371692704884
 40
0.100992923772594
 40
0.1507112196336219
 40
0.2017505874224612
 40
0.2538736051860885
 40
0.3073584763911854
 40
0.3620756240745133
 40
0.4185369622155078
 40
0.4704176375182473
 40
0.5240831447356271
 40
0.5718515647938649
 40
0.620955947884302
 40
0.6698654820636885
 40
0.7199738490964477
 40
0.7732208566979046
 40
0.8279294339022781
 40
0.882385107189207
 40
0.9386416387473886
 40
0.9894908608426908
 40
0.9999999999999999
 40
0.9999999999999999
 40
0.9999999999999999
 40
0.9999999999999999
 10
-41.13349663039627
 20
224.9113429476798
 30
0.0
 10
-41.14132166976944
 20
224.8931757151769
 30
0.0
 10
-41.15721066418796
 20
224.856286564583
 30
0.0
 10
-41.28189201628009
 20
224.561017312713
 30
0.0
 10
-41.46855951543217
 20
224.0983895485826
 30
0.0
 10
-41.70704066046301
 20
223.4655380392482
 30
0.0
 10
-41.97928837580257
 20
222.6643896755031
 30
0.0
 10
-42.26045810024054
 20
221.7020885583112
 30
0.0
 10
-42.52064109496896
 20
220.5855721974288
 30
0.0
 10
-42.71674246324628
 20
219.3748305474571
 30
0.0
 10
-42.82357018607087
 20
218.1057297611391
 30
0.0
 10
-42.82868839717883
 20
216.8804417361108
 30
0.0
 10
-42.74247470124163
 20
215.6964037580852
 30
0.0
 10
-42.5852769596771
 20
214.5974526782525
 30
0.0
 10
-42.36870090969437
 20
213.5569306171268
 30
0.0
 10
-42.11058529203626
 20
212.5874289385949
 30
0.0
 10
-41.83091177961096
 20
211.7081578309488
 30
0.0
 10
-41.56155092949574
 20
210.9633277932002
 30
0.0
 10
-41.33214279818691
 20
210.3830915401941
 30
0.0
 10
-41.18814218796357
 20
210.0386598976636
 30
0.0
 10
-41.12537442159562
 20
209.8923294711017
 30
0.0
 10
-41.13840682187246
 20
209.9228332086044
 30
0.0
 10
-41.140638943221
 20
209.9280577292026
 30
0.0
  0
ARC
  5
1FB
330
1F
100
AcDbEntity
  8
0
  6
Continuous
 62
     7
370
    15
100
AcDbCircle
 10
-92.664846361
 20
167.4108670075
 30
0.0
 40
18.15291622427958
100
AcDbArc
 50
335.5983656054
 51
24.3470173884
  0
ARC
  5
1FC
330
1F
100
AcDbEntity
  8
0
  6
Continuous
 62
     7
370
    15
100
AcDbCircle
 10
-92.6648744396
 20
217.4108659014
 30
0.0
 40
18.15294256897139
100
AcDbArc
 50
335.5983968321
 51
24.3469861753
  0
SPLINE
  5
1FD
330
1F
100
AcDbEntity
  8
0
  6
Continuous
 62
     7
370
    15
100
AcDbSpline
210
0.0
220
0.0
230
1.0
 70
     8
 71
     3
 72
    27
 73
    23
 74
     0
 42
0.000000001
 43
0.00000001
 40
0.0
 40
0.0
 40
0.0
 40
0.0
 40
0.0497371615564966
 40
0.1009929190744359
 40
0.1507112208841136
 40
0.2017506073356382
 40
0.2538735858679966
 40
0.3073584406988611
 40
0.3620756531571171
 40
0.4185369531983001
 40
0.4704176652401361
 40
0.5240832098716283
 40
0.571851474313707
 40
0.6209560036412008
 40
0.6698653640445846
 40
0.7199738544594028
 40
0.7732208604070636
 40
0.8279293459517717
 40
0.8823851197342795
 40
0.9386416495451924
 40
0.9894908611690936
 40
1.0
 40
1.0
 40
1.0
 40
1.0
 10
-41.13349663039627
 20
174.9113422026218
 30
0.0
 10
-41.14132167282812
 20
174.8931757937713
 30
0.0
 10
-41.15721067518253
 20
174.8562883116253
 30
0.0
 10
-41.28189201141931
 20
174.5610177383826
 30
0.0
 10
-41.46855956928279
 20
174.0983899315825
 30
0.0
 10
-41.70704047974533
 20
173.4655370587312
 30
0.0
 10
-41.97928843947191
 20
172.664390451641
 30
0.0
 10
-42.26045836579846
 20
171.7020893269083
 30
0.0
 10
-42.52064077863941
 20
170.5855719513951
 30
0.0
 10
-42.71674265457046
 20
169.3748302601142
 30
0.0
 10
-42.82357008752167
 20
168.1057290112944
 30
0.0
 10
-42.82868864196773
 20
166.8804414692972
 30
0.0
 10
-42.7424741006968
 20
165.6964037971067
 30
0.0
 10
-42.5852778817963
 20
164.5974526879539
 30
0.0
 10
-42.36869990767059
 20
163.5569324306931
 30
0.0
 10
-42.11058579626485
 20
162.5874286133499
 30
0.0
 10
-41.83091203513565
 20
161.7081564149163
 30
0.0
 10
-41.5615503512661
 20
160.9633324607771
 30
0.0
 10
-41.33214310090217
 20
160.3830874703349
 30
0.0
 10
-41.18814214575324
 20
160.0386569186975
 30
0.0
 10
-41.12537442450764
 20
159.8923288148932
 30
0.0
 10
-41.13840682202211
 20
159.9228324758923
 30
0.0
 10
-41.140638943221
 20
159.9280569841445
 30
0.0
  0
LINE
  5
1FE
330
1F
100
AcDbEntity
  8
0
  6
Continuous
 62
     7
370
    15
100
AcDbLine
 10
-58.6334960064
 20
142.9113406827
 30
0.0
 11
-41.1334966304
 21
142.9113406827
 31
0.0
  0
LINE
  5
1FF
330
1F
100
AcDbEntity
  8
0
  6
Continuous
 62
     7
370
    15
100
AcDbLine
 10
-76.1334960809
 20
142.9113406827
 30
0.0
 11
-58.6334960064
 21
142.9113406827
 31
0.0
  0
LINE
  5
200
330
1F
100
AcDbEntity
  8
0
  6
Continuous
 62
     7
370
    15
100
AcDbLine
 10
-58.6334960064
 20
242.4113430222
 30
0.0
 11
-41.6334964795
 21
242.4113430222
 31
0.0
  0
LINE
  5
201
330
1F
100
AcDbEntity
  8
0
  6
Continuous
 62
     7
370
    15
100
AcDbLine
 10
-75.6334950676
 20
242.4113430222
 30
0.0
 11
-58.6334960064
 21
242.4113430222
 31
0.0
  0
LINE
  5
202
330
1F
100
AcDbEntity
  8
0
  6
Continuous
 62
     7
370
    15
100
AcDbLine
 10
-58.6334960064
 20
142.4113396694
 30
0.0
 11
-75.6334950676
 21
142.4113396694
 31
0.0
  0
LINE
  5
203
330
1F
100
AcDbEntity
  8
0
  6
Continuous
 62
     7
370
    15
100
AcDbLine
 10
-41.6334964795
 20
142.4113396694
 30
0.0
 11
-58.6334960064
 21
142.4113396694
 31
0.0
  0
CIRCLE
  5
204
330
1F
100
AcDbEntity
  8
0
  6
Continuous
 62
     7
370
    15
100
AcDbCircle
 10
-58.6334965489
 20
192.4113427283
 30
0.0
 40
9.500000000000037
  0
CIRCLE
  5
205
330
1F
100
AcDbEntity
  8
0
  6
Continuous
 62
     7
370
    15
100
AcDbCircle
 10
-58.6334965489
 20
192.4113427283
 30
0.0
 40
9.999999999999996
  0
LINE
  5
206
330
1F
100
AcDbEntity
  8
0
  6
Continuous
 62
     7
370
    15
100
AcDbLine
 10
-79.13349471
 20
182.0618022372
 30
0.0
 11
-79.13349471
 21
184.9113438417
 31
0.0
  0
LINE
  5
207
330
1F
100
AcDbEntity
  8
0
  6
Continuous
 62
     7
370
    15
100
AcDbLine
 10
-79.13349471
 20
149.9113399674
 30
0.0
 11
-79.13349471
 21
182.0618022372
 31
0.0
  0
LINE
  5
208
330
1F
100
AcDbEntity
  8
0
  6
Continuous
 62
     7
370
    15
100
AcDbLine
 10
-77.1334981075
 20
182.0618022372
 30
0.0
 11
-77.1334981075
 21
184.9113438417
 31
0.0
  0
LINE
  5
209
330
1F
100
AcDbEntity
  8
0
  6
Continuous
 62
     7
370
    15
100
AcDbLine
 10
-77.1334981075
 20
149.9113399674
 30
0.0
 11
-77.1334981075
 21
182.0618022372
 31
0.0
  0
LINE
  5
20A
330
1F
100
AcDbEntity
  8
0
  6
Continuous
 62
     7
370
    15
100
AcDbLine
 10
-76.1334960809
 20
173.6901100864
 30
0.0
 11
-76.1334960809
 21
159.9113453319
 31
0.0
  0
LINE
  5
20B
330
1F
100
AcDbEntity
  8
0
  6
Continuous
 62
     7
370
    15
100
AcDbLine
 10
-76.1334960809
 20
174.9113422026
 30
0.0
 11
-76.1334960809
 21
173.6901100864
 31
0.0
  0
LINE
  5
20C
330
1F
100
AcDbEntity
  8
0
  6
Continuous
 62
     7
370
    15
100
AcDbLine
 10
-77.1334981075
 20
232.061802051
 30
0.0
 11
-77.1334981075
 21
234.9113427242
 31
0.0
  0
LINE
  5
20D
330
1F
100
AcDbEntity
  8
0
  6
Continuous
 62
     7
370
    15
100
AcDbLine
 10
-77.1334981075
 20
199.9113425752
 30
0.0
 11
-77.1334981075
 21
232.061802051
 31
0.0
  0
LINE
  5
20E
330
1F
100
AcDbEntity
  8
0
  6
Continuous
 62
     7
370
    15
100
AcDbLine
 10
-79.13349471
 20
232.061802051
 30
0.0
 11
-79.13349471
 21
234.9113427242
 31
0.0
  0
LINE
  5
20F
330
1F
100
AcDbEntity
  8
0
  6
Continuous
 62
     7
370
    15
100
AcDbLine
 10
-79.13349471
 20
199.9113425752
 30
0.0
 11
-79.13349471
 21
232.061802051
 31
0.0
  0
LINE
  5
210
330
1F
100
AcDbEntity
  8
0
  6
Continuous
 62
     7
370
    15
100
AcDbLine
 10
-76.1334960809
 20
223.6901108315
 30
0.0
 11
-76.1334960809
 21
209.9113423516
 31
0.0
  0
LINE
  5
211
330
1F
100
AcDbEntity
  8
0
  6
Continuous
 62
     7
370
    15
100
AcDbLine
 10
-76.1334960809
 20
224.9113429477
 30
0.0
 11
-76.1334960809
 21
223.6901108315
 31
0.0
  0
LINE
  5
212
330
1F
100
AcDbEntity
  8
0
  6
Continuous
 62
     7
370
    15
100
AcDbLine
 10
-94.1334953061
 20
151.9113440206
 30
0.0
 11
-94.1334953061
 21
182.9113435139
 31
0.0
  0
LINE
  5
213
330
1F
100
AcDbEntity
  8
0
  6
Continuous
 62
     7
370
    15
100
AcDbLine
 10
-92.1334949782
 20
184.9113438417
 30
0.0
 11
-92.1334949782
 21
149.9113399674
 31
0.0
  0
LINE
  5
214
330
1F
100
AcDbEntity
  8
0
  6
Continuous
 62
     7
370
    15
100
AcDbLine
 10
-91.3334963372
 20
182.9849068214
 30
0.0
 11
-91.3334963372
 21
184.9113438417
 31
0.0
  0
LINE
  5
215
330
1F
100
AcDbEntity
  8
0
  6
Continuous
 62
     7
370
    15
100
AcDbLine
 10
-91.3334963372
 20
149.9113399674
 30
0.0
 11
-91.3334963372
 21
182.9849068214
 31
0.0
  0
LINE
  5
216
330
1F
100
AcDbEntity
  8
0
  6
Continuous
 62
     7
370
    15
100
AcDbLine
 10
-94.1334953061
 20
207.1480915089
 30
0.0
 11
-94.1334953061
 21
232.9113426292
 31
0.0
  0
LINE
  5
217
330
1F
100
AcDbEntity
  8
0
  6
Continuous
 62
     7
370
    15
100
AcDbLine
 10
-94.1334953061
 20
201.911342903
 30
0.0
 11
-94.1334953061
 21
207.1480915089
 31
0.0
  0
LINE
  5
218
330
1F
100
AcDbEntity
  8
0
  6
Continuous
 62
     7
370
    15
100
AcDbLine
 10
-92.1334949782
 20
205.8238010993
 30
0.0
 11
-92.1334949782
 21
199.9113425752
 31
0.0
  0
LINE
  5
219
330
1F
100
AcDbEntity
  8
0
  6
Continuous
 62
     7
370
    15
100
AcDbLine
 10
-92.1334949782
 20
234.9113427242
 30
0.0
 11
-92.1334949782
 21
205.8238010993
 31
0.0
  0
LINE
  5
21A
330
1F
100
AcDbEntity
  8
0
  6
Continuous
 62
     7
370
    15
100
AcDbLine
 10
-91.3334963372
 20
199.9113425752
 30
0.0
 11
-91.3334963372
 21
234.9113427242
 31
0.0
  0
LINE
  5
21B
330
1F
100
AcDbEntity
  8
0
  6
Continuous
 62
     7
370
    15
100
AcDbLine
 10
-79.13349471
 20
234.9113427242
 30
0.0
 11
-79.13349471
 21
199.9113425752
 31
0.0
  0
LINE
  5
21C
330
1F
100
AcDbEntity
  8
0
  6
Continuous
 62
     7
370
    15
100
AcDbLine
 10
-80.1334967366
 20
234.9113427242
 30
0.0
 11
-80.1334967366
 21
199.9113425752
 31
0.0
  0
LINE
  5
21D
330
1F
100
AcDbEntity
  8
0
  6
Continuous
 62
     7
370
    15
100
AcDbLine
 10
-84.1334973922
 20
227.411342659
 30
0.0
 11
-84.1334973922
 21
207.4113428732
 31
0.0
  0
LINE
  5
21E
330
1F
100
AcDbEntity
  8
0
  6
Continuous
 62
     7
370
    15
100
AcDbLine
 10
-90.1334983757
 20
232.061802051
 30
0.0
 11
-90.1334983757
 21
234.9113427242
 31
0.0
  0
LINE
  5
21F
330
1F
100
AcDbEntity
  8
0
  6
Continuous
 62
     7
370
    15
100
AcDbLine
 10
-90.1334983757
 20
199.9113425752
 30
0.0
 11
-90.1334983757
 21
232.061802051
 31
0.0
  0
LINE
  5
220
330
1F
100
AcDbEntity
  8
0
  6
Continuous
 62
     7
370
    15
100
AcDbLine
 10
-91.133496677
 20
232.061802051
 30
0.0
 11
-91.133496677
 21
234.9113427242
 31
0.0
  0
LINE
  5
221
330
1F
100
AcDbEntity
  8
0
  6
Continuous
 62
     7
370
    15
100
AcDbLine
 10
-91.133496677
 20
199.9113425752
 30
0.0
 11
-91.133496677
 21
232.061802051
 31
0.0
  0
LINE
  5
222
330
1F
100
AcDbEntity
  8
0
  6
Continuous
 62
     7
370
    15
100
AcDbLine
 10
-86.13349772
 20
225.7830338692
 30
0.0
 11
-86.13349772
 21
227.411342659
 31
0.0
  0
LINE
  5
223
330
1F
100
AcDbEntity
  8
0
  6
Continuous
 62
     7
370
    15
100
AcDbLine
 10
-86.13349772
 20
207.4113428732
 30
0.0
 11
-86.13349772
 21
225.7830338692
 31
0.0
  0
LINE
  5
224
330
1F
100
AcDbEntity
  8
0
  6
Continuous
 62
     7
370
    15
100
AcDbLine
 10
-79.13349471
 20
184.9113438417
 30
0.0
 11
-79.13349471
 21
149.9113399674
 31
0.0
  0
LINE
  5
225
330
1F
100
AcDbEntity
  8
0
  6
Continuous
 62
     7
370
    15
100
AcDbLine
 10
-80.1334967366
 20
184.9113438417
 30
0.0
 11
-80.1334967366
 21
149.9113399674
 31
0.0
  0
LINE
  5
226
330
1F
100
AcDbEntity
  8
0
  6
Continuous
 62
     7
370
    15
100
AcDbLine
 10
-84.1334973922
 20
177.4113435437
 30
0.0
 11
-84.1334973922
 21
157.4113402655
 31
0.0
  0
LINE
  5
227
330
1F
100
AcDbEntity
  8
0
  6
Continuous
 62
     7
370
    15
100
AcDbLine
 10
-90.1334983757
 20
182.0618022372
 30
0.0
 11
-90.1334983757
 21
184.9113438417
 31
0.0
  0
LINE
  5
228
330
1F
100
AcDbEntity
  8
0
  6
Continuous
 62
     7
370
    15
100
AcDbLine
 10
-90.1334983757
 20
149.9113399674
 30
0.0
 11
-90.1334983757
 21
182.0618022372
 31
0.0
  0
LINE
  5
229
330
1F
100
AcDbEntity
  8
0
  6
Continuous
 62
     7
370
    15
100
AcDbLine
 10
-91.133496677
 20
182.0618022372
 30
0.0
 11
-91.133496677
 21
184.9113438417
 31
0.0
  0
LINE
  5
22A
330
1F
100
AcDbEntity
  8
0
  6
Continuous
 62
     7
370
    15
100
AcDbLine
 10
-91.133496677
 20
149.9113399674
 30
0.0
 11
-91.133496677
 21
182.0618022372
 31
0.0
  0
LINE
  5
22B
330
1F
100
AcDbEntity
  8
0
  6
Continuous
 62
     7
370
    15
100
AcDbLine
 10
-86.13349772
 20
175.7830340554
 30
0.0
 11
-86.13349772
 21
177.4113435437
 31
0.0
  0
LINE
  5
22C
330
1F
100
AcDbEntity
  8
0
  6
Continuous
 62
     7
370
    15
100
AcDbLine
 10
-86.13349772
 20
157.4113402655
 30
0.0
 11
-86.13349772
 21
175.7830340554
 31
0.0
  0
LINE
  5
22D
330
1F
100
AcDbEntity
  8
0
  6
Continuous
 62
     7
370
    15
100
AcDbLine
 10
-40.5321568944
 20
196.4113410701
 30
0.0
 11
-40.5321568944
 21
188.4113434841
 31
0.0
  0
LINE
  5
22E
330
1F
100
AcDbEntity
  8
0
  6
Continuous
 62
     7
370
    15
100
AcDbLine
 10
-40.1334965829
 20
195.7208436122
 30
0.0
 11
-40.1334965829
 21
189.1018409421
 31
0.0
  0
LINE
  5
22F
330
1F
100
AcDbEntity
  8
0
  6
Continuous
 62
     7
370
    15
100
AcDbLine
 10
-81.1334950378
 20
112.161341696
 30
0.0
 11
-81.1334950378
 21
97.6613495638
 31
0.0
  0
LINE
  5
230
330
1F
100
AcDbEntity
  8
0
  6
Continuous
 62
     7
370
    15
100
AcDbLine
 10
-58.6334960064
 20
92.4113426497
 30
0.0
 11
-76.1334960809
 21
92.4113426497
 31
0.0
  0
LINE
  5
231
330
1F
100
AcDbEntity
  8
0
  6
Continuous
 62
     7
370
    15
100
AcDbLine
 10
-41.1334966304
 20
92.4113426497
 30
0.0
 11
-58.6334960064
 21
92.4113426497
 31
0.0
  0
LWPOLYLINE
  5
232
330
1F
100
AcDbEntity
  8
0
  6
Continuous
 62
     7
370
    15
100
AcDbPolyline
 90
       22
 70
   128
 43
0.0
 10
-76.1202973774
 20
113.3841160824
 10
-76.1095499149
 20
113.3619282534
 10
-75.9987299791
 20
113.1303046038
 10
-75.8011294058
 20
112.7041313936
 10
-75.5353671959
 20
112.0997551968
 10
-75.2169927111
 20
111.3154325773
 10
-74.8566789082
 20
110.3142757108
 10
-74.5020573488
 20
109.131674855
 10
-74.2014711252
 20
107.8030277183
 10
-73.9953098348
 20
106.3203696301
 10
-73.9306834987
 20
104.9737740447
 10
-73.9885037294
 20
103.5785857727
 10
-74.1391060403
 20
102.3767922213
 10
-74.3718286505
 20
101.2106422474
 10
-74.6719343117
 20
100.0914458324
 10
-75.0089128962
 20
99.0671698143
 10
-75.3721957555
 20
98.1154624512
 10
-75.7049945643
 20
97.3326895525
 10
-75.9532143822
 20
96.788990884
 10
-76.1035000434
 20
96.4732650806
 10
-76.1334960809
 20
96.4113358547
 10
-76.1334960809
 20
96.4113358547
  0
LINE
  5
233
330
1F
100
AcDbEntity
  8
0
  6
Continuous
 62
     7
370
    15
100
AcDbLine
 10
-40.1334965829
 20
173.111341535
 30
0.0
 11
-40.1334965829
 21
161.7113459994
 31
0.0
  0
LINE
  5
234
330
1F
100
AcDbEntity
  8
0
  6
Continuous
 62
     7
370
    15
100
AcDbLine
 10
-40.1334965829
 20
222.9518174333
 30
0.0
 11
-40.1334965829
 21
211.7113430192
 31
0.0
  0
LINE
  5
235
330
1F
100
AcDbEntity
  8
0
  6
Continuous
 62
     7
370
    15
100
AcDbLine
 10
-40.1334965829
 20
223.1113427458
 30
0.0
 11
-40.1334965829
 21
222.9518174333
 31
0.0
  0
LINE
  5
236
330
1F
100
AcDbEntity
  8
0
  6
Continuous
 62
     8
370
    15
100
AcDbLine
 10
-80.1334967366
 20
113.1613437225
 30
0.0
 11
-80.1334967366
 21
96.6613475372
 31
0.0
  0
LINE
  5
237
330
1F
100
AcDbEntity
  8
0
  6
Continuous
 62
     8
370
    15
100
AcDbLine
 10
-40.9334965045
 20
160.9113399078
 30
0.0
 11
-40.9334965045
 21
173.9113439014
 31
0.0
  0
LINE
  5
238
330
1F
100
AcDbEntity
  8
0
  6
Continuous
 62
     8
370
    15
100
AcDbLine
 10
-40.9334965045
 20
223.7294280109
 30
0.0
 11
-40.9334965045
 21
223.9113427838
 31
0.0
  0
LINE
  5
239
330
1F
100
AcDbEntity
  8
0
  6
Continuous
 62
     8
370
    15
100
AcDbLine
 10
-40.9334965045
 20
210.9113425155
 30
0.0
 11
-40.9334965045
 21
223.7294280109
 31
0.0
  0
LINE
  5
23A
330
1F
100
AcDbEntity
  8
0
  6
Continuous
 62
     7
370
    15
100
AcDbLine
 10
-4.988883885
 20
303.8290056681
 30
0.0
 11
-5.4888774477
 21
303.3290065175
 31
0.0
  0
LINE
  5
23B
330
1F
100
AcDbEntity
  8
0
  6
Continuous
 62
     7
370
    15
100
AcDbLine
 10
-5.4888774477
 20
284.3290061971
 30
0.0
 11
-4.988883885
 21
283.8290061152
 31
0.0
  0
LINE
  5
23C
330
1F
100
AcDbEntity
  8
0
  6
Continuous
 62
     7
370
    15
100
AcDbLine
 10
-4.988883885
 20
283.8290061152
 30
0.0
 11
12.5911484636
 21
283.8290061152
 31
0.0
  0
LINE
  5
23D
330
1F
100
AcDbEntity
  8
0
  6
Continuous
 62
     7
370
    15
100
AcDbLine
 10
41.3139711298
 20
283.8290061152
 30
0.0
 11
117.0290063299
 21
283.8290061152
 31
0.0
  0
LINE
  5
23E
330
1F
100
AcDbEntity
  8
0
  6
Continuous
 62
     7
370
    15
100
AcDbLine
 10
145.7518289961
 20
283.8290061152
 30
0.0
 11
159.0111057438
 21
283.8290061152
 31
0.0
  0
LINE
  5
23F
330
1F
100
AcDbEntity
  8
0
  6
Continuous
 62
     7
370
    15
100
AcDbLine
 10
159.0111057438
 20
303.8290056681
 30
0.0
 11
145.7518289961
 21
303.8290056681
 31
0.0
  0
LINE
  5
240
330
1F
100
AcDbEntity
  8
0
  6
Continuous
 62
     7
370
    15
100
AcDbLine
 10
117.0290063299
 20
303.8290056681
 30
0.0
 11
41.3139711298
 21
303.8290056681
 31
0.0
  0
LINE
  5
241
330
1F
100
AcDbEntity
  8
0
  6
Continuous
 62
     7
370
    15
100
AcDbLine
 10
12.5911484636
 20
303.8290056681
 30
0.0
 11
-4.988883885
 21
303.8290056681
 31
0.0
  0
LINE
  5
242
330
1F
100
AcDbEntity
  8
0
  6
Continuous
 62
     7
370
    15
100
AcDbLine
 10
159.0111057438
 20
283.8290061152
 30
0.0
 11
159.5111142076
 21
284.3290061971
 31
0.0
  0
LINE
  5
243
330
1F
100
AcDbEntity
  8
0
  6
Continuous
 62
     7
370
    15
100
AcDbLine
 10
159.5111142076
 20
303.3290065175
 30
0.0
 11
159.0111057438
 21
303.8290056681
 31
0.0
  0
LINE
  5
244
330
1F
100
AcDbEntity
  8
0
  6
Continuous
 62
     7
370
    15
100
AcDbLine
 10
113.8904194511
 20
314.3290045952
 30
0.0
 11
113.8904194511
 21
312.3290079927
 31
0.0
  0
LINE
  5
245
330
1F
100
AcDbEntity
  8
0
  6
Continuous
 62
     7
370
    15
100
AcDbLine
 10
148.8904158749
 20
312.3290079927
 30
0.0
 11
148.8904158749
 21
314.3290045952
 31
0.0
  0
LINE
  5
246
330
1F
100
AcDbEntity
  8
0
  6
Continuous
 62
     7
370
    15
100
AcDbLine
 10
122.890422789
 20
312.3290079927
 30
0.0
 11
123.8904099144
 21
311.3290059661
 31
0.0
  0
LINE
  5
247
330
1F
100
AcDbEntity
  8
0
  6
Continuous
 62
     7
370
    15
100
AcDbLine
 10
138.8904105104
 20
311.3290059661
 30
0.0
 11
139.890412537
 21
312.3290079927
 31
0.0
  0
LINE
  5
248
330
1F
100
AcDbEntity
  8
0
  6
Continuous
 62
     7
370
    15
100
AcDbLine
 10
123.8904099144
 20
311.3290059661
 30
0.0
 11
123.8904099144
 21
309.6403952038
 31
0.0
  0
LINE
  5
249
330
1F
100
AcDbEntity
  8
0
  6
Continuous
 62
     7
370
    15
100
AcDbLine
 10
138.8904105104
 20
309.6403952038
 30
0.0
 11
138.8904105104
 21
311.3290059661
 31
0.0
  0
LINE
  5
24A
330
1F
100
AcDbEntity
  8
0
  6
Continuous
 62
     7
370
    15
100
AcDbLine
 10
9.452576486
 20
314.3290045952
 30
0.0
 11
9.452576486
 21
312.3290079927
 31
0.0
  0
LINE
  5
24B
330
1F
100
AcDbEntity
  8
0
  6
Continuous
 62
     7
370
    15
100
AcDbLine
 10
44.4525729097
 20
312.3290079927
 30
0.0
 11
44.4525729097
 21
314.3290045952
 31
0.0
  0
LINE
  5
24C
330
1F
100
AcDbEntity
  8
0
  6
Continuous
 62
     7
370
    15
100
AcDbLine
 10
18.4525798239
 20
312.3290079927
 30
0.0
 11
18.7025617041
 21
312.0790074861
 31
0.0
  0
LINE
  5
24D
330
1F
100
AcDbEntity
  8
0
  6
Continuous
 62
     7
370
    15
100
AcDbLine
 10
35.2025578894
 20
312.0790074861
 30
0.0
 11
35.4525695719
 21
312.3290079927
 31
0.0
  0
LINE
  5
24E
330
1F
100
AcDbEntity
  8
0
  6
Continuous
 62
     7
370
    15
100
AcDbLine
 10
113.8904194511
 20
327.3290048635
 30
0.0
 11
113.8904194511
 21
326.5290062224
 31
0.0
  0
LINE
  5
24F
330
1F
100
AcDbEntity
  8
0
  6
Continuous
 62
     7
370
    15
100
AcDbLine
 10
148.8904158749
 20
326.5290062224
 30
0.0
 11
148.8904158749
 21
327.3290048635
 31
0.0
  0
LINE
  5
250
330
1F
100
AcDbEntity
  8
0
  6
Continuous
 62
     7
370
    15
100
AcDbLine
 10
113.8904194511
 20
326.5290062224
 30
0.0
 11
114.0904228367
 21
326.3290065622
 31
0.0
  0
LINE
  5
251
330
1F
100
AcDbEntity
  8
0
  6
Continuous
 62
     7
370
    15
100
AcDbLine
 10
148.6904124893
 20
326.3290065622
 30
0.0
 11
148.8904158749
 21
326.5290062224
 31
0.0
  0
LINE
  5
252
330
1F
100
AcDbEntity
  8
0
  6
Continuous
 62
     7
370
    15
100
AcDbLine
 10
148.8904158749
 20
327.3290048635
 30
0.0
 11
146.8904118217
 21
329.3290051913
 31
0.0
  0
LINE
  5
253
330
1F
100
AcDbEntity
  8
0
  6
Continuous
 62
     7
370
    15
100
AcDbLine
 10
115.8904235042
 20
329.3290051913
 30
0.0
 11
113.8904194511
 21
327.3290048635
 31
0.0
  0
LINE
  5
254
330
1F
100
AcDbEntity
  8
0
  6
Continuous
 62
     7
370
    15
100
AcDbLine
 10
123.3904163517
 20
321.3290076053
 30
0.0
 11
123.3904163517
 21
319.3290072774
 31
0.0
  0
LINE
  5
255
330
1F
100
AcDbEntity
  8
0
  6
Continuous
 62
     7
370
    15
100
AcDbLine
 10
139.3904189743
 20
319.3290072774
 30
0.0
 11
139.3904189743
 21
321.3290076053
 31
0.0
  0
LINE
  5
256
330
1F
100
AcDbEntity
  8
0
  6
Continuous
 62
     7
370
    15
100
AcDbLine
 10
44.4525729097
 20
327.3290048635
 30
0.0
 11
42.4525688566
 21
329.3290051913
 31
0.0
  0
LINE
  5
257
330
1F
100
AcDbEntity
  8
0
  6
Continuous
 62
     7
370
    15
100
AcDbLine
 10
11.4525805391
 20
329.3290051913
 30
0.0
 11
9.452576486
 21
327.3290048635
 31
0.0
  0
LINE
  5
258
330
1F
100
AcDbEntity
  8
0
  6
Continuous
 62
     7
370
    15
100
AcDbLine
 10
9.452576486
 20
326.5290062224
 30
0.0
 11
9.6525798715
 21
326.3290065622
 31
0.0
  0
LINE
  5
259
330
1F
100
AcDbEntity
  8
0
  6
Continuous
 62
     7
370
    15
100
AcDbLine
 10
44.2525695242
 20
326.3290065622
 30
0.0
 11
44.4525729097
 21
326.5290062224
 31
0.0
  0
LINE
  5
25A
330
1F
100
AcDbEntity
  8
0
  6
Continuous
 62
     7
370
    15
100
AcDbLine
 10
9.452576486
 20
327.3290048635
 30
0.0
 11
9.452576486
 21
326.5290062224
 31
0.0
  0
LINE
  5
25B
330
1F
100
AcDbEntity
  8
0
  6
Continuous
 62
     7
370
    15
100
AcDbLine
 10
44.4525729097
 20
326.5290062224
 30
0.0
 11
44.4525729097
 21
327.3290048635
 31
0.0
  0
LINE
  5
25C
330
1F
100
AcDbEntity
  8
0
  6
Continuous
 62
     7
370
    15
100
AcDbLine
 10
18.9525733866
 20
321.3290076053
 30
0.0
 11
18.9525733866
 21
319.3290072774
 31
0.0
  0
LINE
  5
25D
330
1F
100
AcDbEntity
  8
0
  6
Continuous
 62
     7
370
    15
100
AcDbLine
 10
34.9525760092
 20
319.3290072774
 30
0.0
 11
34.9525760092
 21
321.3290076053
 31
0.0
  0
LINE
  5
25E
330
1F
100
AcDbEntity
  8
0
  6
Continuous
 62
     7
370
    15
100
AcDbLine
 10
44.4525729097
 20
314.3290045952
 30
0.0
 11
44.4525729097
 21
315.3290066218
 31
0.0
  0
LINE
  5
25F
330
1F
100
AcDbEntity
  8
0
  6
Continuous
 62
     7
370
    15
100
AcDbLine
 10
9.452576486
 20
315.3290066218
 30
0.0
 11
9.452576486
 21
314.3290045952
 31
0.0
  0
LINE
  5
260
330
1F
100
AcDbEntity
  8
0
  6
Continuous
 62
     7
370
    15
100
AcDbLine
 10
36.9525800623
 20
315.3290066218
 30
0.0
 11
36.9525800623
 21
319.3290072774
 31
0.0
  0
LINE
  5
261
330
1F
100
AcDbEntity
  8
0
  6
Continuous
 62
     7
370
    15
100
AcDbLine
 10
16.9525693334
 20
319.3290072774
 30
0.0
 11
16.9525693334
 21
315.3290066218
 31
0.0
  0
LINE
  5
262
330
1F
100
AcDbEntity
  8
0
  6
Continuous
 62
     7
370
    15
100
AcDbLine
 10
9.452576486
 20
326.3290065622
 30
0.0
 11
9.452576486
 21
325.3290082609
 31
0.0
  0
LINE
  5
263
330
1F
100
AcDbEntity
  8
0
  6
Continuous
 62
     7
370
    15
100
AcDbLine
 10
44.4525729097
 20
325.3290082609
 30
0.0
 11
44.4525729097
 21
326.3290065622
 31
0.0
  0
LINE
  5
264
330
1F
100
AcDbEntity
  8
0
  6
Continuous
 62
     7
370
    15
100
AcDbLine
 10
16.9525693334
 20
325.3290082609
 30
0.0
 11
16.9525693334
 21
321.3290076053
 31
0.0
  0
LINE
  5
265
330
1F
100
AcDbEntity
  8
0
  6
Continuous
 62
     7
370
    15
100
AcDbLine
 10
36.9525800623
 20
321.3290076053
 30
0.0
 11
36.9525800623
 21
325.3290082609
 31
0.0
  0
LINE
  5
266
330
1F
100
AcDbEntity
  8
0
  6
Continuous
 62
     7
370
    15
100
AcDbLine
 10
148.8904158749
 20
314.3290045952
 30
0.0
 11
148.8904158749
 21
315.3290066218
 31
0.0
  0
LINE
  5
267
330
1F
100
AcDbEntity
  8
0
  6
Continuous
 62
     7
370
    15
100
AcDbLine
 10
113.8904194511
 20
315.3290066218
 30
0.0
 11
113.8904194511
 21
314.3290045952
 31
0.0
  0
LINE
  5
268
330
1F
100
AcDbEntity
  8
0
  6
Continuous
 62
     7
370
    15
100
AcDbLine
 10
141.3904230274
 20
315.3290066218
 30
0.0
 11
141.3904230274
 21
319.3290072774
 31
0.0
  0
LINE
  5
269
330
1F
100
AcDbEntity
  8
0
  6
Continuous
 62
     7
370
    15
100
AcDbLine
 10
121.3904122986
 20
319.3290072774
 30
0.0
 11
121.3904122986
 21
315.3290066218
 31
0.0
  0
LINE
  5
26A
330
1F
100
AcDbEntity
  8
0
  6
Continuous
 62
     7
370
    15
100
AcDbLine
 10
113.8904194511
 20
326.3290065622
 30
0.0
 11
113.8904194511
 21
325.3290082609
 31
0.0
  0
LINE
  5
26B
330
1F
100
AcDbEntity
  8
0
  6
Continuous
 62
     7
370
    15
100
AcDbLine
 10
148.8904158749
 20
325.3290082609
 30
0.0
 11
148.8904158749
 21
326.3290065622
 31
0.0
  0
LINE
  5
26C
330
1F
100
AcDbEntity
  8
0
  6
Continuous
 62
     7
370
    15
100
AcDbLine
 10
121.3904122986
 20
325.3290082609
 30
0.0
 11
121.3904122986
 21
321.3290076053
 31
0.0
  0
LINE
  5
26D
330
1F
100
AcDbEntity
  8
0
  6
Continuous
 62
     7
370
    15
100
AcDbLine
 10
141.3904230274
 20
321.3290076053
 30
0.0
 11
141.3904230274
 21
325.3290082609
 31
0.0
  0
ARC
  5
26E
330
1F
100
AcDbEntity
  8
0
  6
Continuous
 62
     7
370
    15
100
AcDbCircle
 10
34.2025681403
 20
315.3290064341
 30
0.0
 40
1.0
100
AcDbArc
 50
0.0
 51
90.0
  0
ARC
  5
26F
330
1F
100
AcDbEntity
  8
0
  6
Continuous
 62
     7
370
    15
100
AcDbCircle
 10
19.7025681403
 20
315.3290064341
 30
0.0
 40
1.0
100
AcDbArc
 50
90.0
 51
180.0
  0
LINE
  5
270
330
1F
100
AcDbEntity
  8
0
  6
Continuous
 62
     7
370
    15
100
AcDbLine
 10
35.2025578894
 20
309.2623303926
 30
0.0
 11
35.2025578894
 21
315.3290066218
 31
0.0
  0
LINE
  5
271
330
1F
100
AcDbEntity
  8
0
  6
Continuous
 62
     7
370
    15
100
AcDbLine
 10
18.7025617041
 20
315.3290066218
 30
0.0
 11
18.7025617041
 21
309.2623303926
 31
0.0
  0
ARC
  5
272
330
1F
100
AcDbEntity
  8
0
  6
Continuous
 62
     7
370
    15
100
AcDbCircle
 10
137.0904168429
 20
276.1290064341
 30
0.0
 40
0.8000000000000114
100
AcDbArc
 50
270.0
 51
0.0
  0
ARC
  5
273
330
1F
100
AcDbEntity
  8
0
  6
Continuous
 62
     7
370
    15
100
AcDbCircle
 10
125.6904168429
 20
276.1290064341
 30
0.0
 40
0.8000000000000114
100
AcDbArc
 50
180.0
 51
270.0
  0
LINE
  5
274
330
1F
100
AcDbEntity
  8
0
  6
Continuous
 62
     7
370
    15
100
AcDbLine
 10
137.890423385
 20
276.1290063897
 30
0.0
 11
137.890423385
 21
277.5809296688
 31
0.0
  0
LINE
  5
275
330
1F
100
AcDbEntity
  8
0
  6
Continuous
 62
     7
370
    15
100
AcDbLine
 10
124.8904119409
 20
277.5809296688
 30
0.0
 11
124.8904119409
 21
276.1290063897
 31
0.0
  0
LINE
  5
276
330
1F
100
AcDbEntity
  8
0
  6
Continuous
 62
     7
370
    15
100
AcDbLine
 10
33.4525655188
 20
276.1290063897
 30
0.0
 11
33.4525655188
 21
277.5809296688
 31
0.0
  0
LINE
  5
277
330
1F
100
AcDbEntity
  8
0
  6
Continuous
 62
     7
370
    15
100
AcDbLine
 10
20.4525540747
 20
277.5809296688
 30
0.0
 11
20.4525540747
 21
276.1290063897
 31
0.0
  0
ARC
  5
278
330
1F
100
AcDbEntity
  8
0
  6
Continuous
 62
     7
370
    15
100
AcDbCircle
 10
32.6525681403
 20
276.1290064341
 30
0.0
 40
0.8000000000000256
100
AcDbArc
 50
270.0
 51
0.0
  0
ARC
  5
279
330
1F
100
AcDbEntity
  8
0
  6
Continuous
 62
     7
370
    15
100
AcDbCircle
 10
21.2525681403
 20
276.1290064341
 30
0.0
 40
0.8000000000000256
100
AcDbArc
 50
180.0
 51
270.0
  0
CIRCLE
  5
27A
330
1F
100
AcDbEntity
  8
0
  6
Continuous
 62
     7
370
    15
100
AcDbCircle
 10
131.3904168429
 20
293.8290064341
 30
0.0
 40
17.00000000000003
  0
CIRCLE
  5
27B
330
1F
100
AcDbEntity
  8
0
  6
Continuous
 62
     7
370
    15
100
AcDbCircle
 10
131.3904168429
 20
293.8290064341
 30
0.0
 40
17.50000000000003
  0
LINE
  5
27C
330
1F
100
AcDbEntity
  8
0
  6
Continuous
 62
     7
370
    15
100
AcDbLine
 10
-4.988883885
 20
303.8290056681
 30
0.0
 11
-4.988883885
 21
283.8290061152
 31
0.0
  0
LINE
  5
27D
330
1F
100
AcDbEntity
  8
0
  6
Continuous
 62
     7
370
    15
100
AcDbLine
 10
-5.4888774477
 20
284.3290061971
 30
0.0
 11
-5.4888774477
 21
303.3290065175
 31
0.0
  0
LINE
  5
27E
330
1F
100
AcDbEntity
  8
0
  6
Continuous
 62
     7
370
    15
100
AcDbLine
 10
159.0111057438
 20
283.8290061152
 30
0.0
 11
159.0111057438
 21
303.8290056681
 31
0.0
  0
LINE
  5
27F
330
1F
100
AcDbEntity
  8
0
  6
Continuous
 62
     7
370
    15
100
AcDbLine
 10
159.5111142076
 20
303.3290065175
 30
0.0
 11
159.5111142076
 21
284.3290061971
 31
0.0
  0
LINE
  5
280
330
1F
100
AcDbEntity
  8
0
  6
Continuous
 62
     7
370
    15
100
AcDbLine
 10
113.8904194511
 20
312.3290079927
 30
0.0
 11
148.8904158749
 21
312.3290079927
 31
0.0
  0
LINE
  5
281
330
1F
100
AcDbEntity
  8
0
  6
Continuous
 62
     7
370
    15
100
AcDbLine
 10
113.8904194511
 20
314.3290045952
 30
0.0
 11
148.8904158749
 21
314.3290045952
 31
0.0
  0
LINE
  5
282
330
1F
100
AcDbEntity
  8
0
  6
Continuous
 62
     7
370
    15
100
AcDbLine
 10
138.8904105104
 20
311.3290059661
 30
0.0
 11
123.8904099144
 21
311.3290059661
 31
0.0
  0
LINE
  5
283
330
1F
100
AcDbEntity
  8
0
  6
Continuous
 62
     7
370
    15
100
AcDbLine
 10
9.452576486
 20
312.3290079927
 30
0.0
 11
18.7025617041
 21
312.3290079927
 31
0.0
  0
LINE
  5
284
330
1F
100
AcDbEntity
  8
0
  6
Continuous
 62
     7
370
    15
100
AcDbLine
 10
35.2025578894
 20
312.3290079927
 30
0.0
 11
44.4525729097
 21
312.3290079927
 31
0.0
  0
LINE
  5
285
330
1F
100
AcDbEntity
  8
0
  6
Continuous
 62
     7
370
    15
100
AcDbLine
 10
9.452576486
 20
314.3290045952
 30
0.0
 11
18.7025617041
 21
314.3290045952
 31
0.0
  0
LINE
  5
286
330
1F
100
AcDbEntity
  8
0
  6
Continuous
 62
     7
370
    15
100
AcDbLine
 10
35.2025578894
 20
314.3290045952
 30
0.0
 11
44.4525729097
 21
314.3290045952
 31
0.0
  0
LINE
  5
287
330
1F
100
AcDbEntity
  8
0
  6
Continuous
 62
     7
370
    15
100
AcDbLine
 10
113.8904194511
 20
326.5290062224
 30
0.0
 11
148.8904158749
 21
326.5290062224
 31
0.0
  0
LINE
  5
288
330
1F
100
AcDbEntity
  8
0
  6
Continuous
 62
     7
370
    15
100
AcDbLine
 10
123.4082977451
 20
327.3290048635
 30
0.0
 11
113.8904194511
 21
327.3290048635
 31
0.0
  0
LINE
  5
289
330
1F
100
AcDbEntity
  8
0
  6
Continuous
 62
     7
370
    15
100
AcDbLine
 10
148.8904158749
 20
327.3290048635
 30
0.0
 11
123.4082977451
 21
327.3290048635
 31
0.0
  0
LINE
  5
28A
330
1F
100
AcDbEntity
  8
0
  6
Continuous
 62
     7
370
    15
100
AcDbLine
 10
124.3205468334
 20
329.3290051913
 30
0.0
 11
146.8904118217
 21
329.3290051913
 31
0.0
  0
LINE
  5
28B
330
1F
100
AcDbEntity
  8
0
  6
Continuous
 62
     7
370
    15
100
AcDbLine
 10
115.8904235042
 20
329.3290051913
 30
0.0
 11
124.3205468334
 21
329.3290051913
 31
0.0
  0
LINE
  5
28C
330
1F
100
AcDbEntity
  8
0
  6
Continuous
 62
     7
370
    15
100
AcDbLine
 10
11.4525805391
 20
329.3290051913
 30
0.0
 11
42.4525688566
 21
329.3290051913
 31
0.0
  0
LINE
  5
28D
330
1F
100
AcDbEntity
  8
0
  6
Continuous
 62
     7
370
    15
100
AcDbLine
 10
44.4525729097
 20
327.3290048635
 30
0.0
 11
9.452576486
 21
327.3290048635
 31
0.0
  0
LINE
  5
28E
330
1F
100
AcDbEntity
  8
0
  6
Continuous
 62
     7
370
    15
100
AcDbLine
 10
9.6684943117
 20
326.5290062224
 30
0.0
 11
44.4525729097
 21
326.5290062224
 31
0.0
  0
LINE
  5
28F
330
1F
100
AcDbEntity
  8
0
  6
Continuous
 62
     7
370
    15
100
AcDbLine
 10
9.452576486
 20
326.5290062224
 30
0.0
 11
9.6684943117
 21
326.5290062224
 31
0.0
  0
LINE
  5
290
330
1F
100
AcDbEntity
  8
0
  6
Continuous
 62
     7
370
    15
100
AcDbLine
 10
44.4525729097
 20
315.3290066218
 30
0.0
 11
35.2025578894
 21
315.3290066218
 31
0.0
  0
LINE
  5
291
330
1F
100
AcDbEntity
  8
0
  6
Continuous
 62
     7
370
    15
100
AcDbLine
 10
18.7025617041
 20
315.3290066218
 30
0.0
 11
9.452576486
 21
315.3290066218
 31
0.0
  0
LINE
  5
292
330
1F
100
AcDbEntity
  8
0
  6
Continuous
 62
     7
370
    15
100
AcDbLine
 10
36.9525800623
 20
319.3290072774
 30
0.0
 11
16.9525693334
 21
319.3290072774
 31
0.0
  0
LINE
  5
293
330
1F
100
AcDbEntity
  8
0
  6
Continuous
 62
     7
370
    15
100
AcDbLine
 10
42.7270184435
 20
326.3290065622
 30
0.0
 11
44.4525729097
 21
326.3290065622
 31
0.0
  0
LINE
  5
294
330
1F
100
AcDbEntity
  8
0
  6
Continuous
 62
     7
370
    15
100
AcDbLine
 10
9.452576486
 20
326.3290065622
 30
0.0
 11
42.7270184435
 21
326.3290065622
 31
0.0
  0
LINE
  5
295
330
1F
100
AcDbEntity
  8
0
  6
Continuous
 62
     7
370
    15
100
AcDbLine
 10
42.7270184435
 20
325.3290082609
 30
0.0
 11
44.4525729097
 21
325.3290082609
 31
0.0
  0
LINE
  5
296
330
1F
100
AcDbEntity
  8
0
  6
Continuous
 62
     7
370
    15
100
AcDbLine
 10
9.452576486
 20
325.3290082609
 30
0.0
 11
42.7270184435
 21
325.3290082609
 31
0.0
  0
LINE
  5
297
330
1F
100
AcDbEntity
  8
0
  6
Continuous
 62
     7
370
    15
100
AcDbLine
 10
35.9665404238
 20
321.3290076053
 30
0.0
 11
36.9525800623
 21
321.3290076053
 31
0.0
  0
LINE
  5
298
330
1F
100
AcDbEntity
  8
0
  6
Continuous
 62
     7
370
    15
100
AcDbLine
 10
16.9525693334
 20
321.3290076053
 30
0.0
 11
35.9665404238
 21
321.3290076053
 31
0.0
  0
LINE
  5
299
330
1F
100
AcDbEntity
  8
0
  6
Continuous
 62
     7
370
    15
100
AcDbLine
 10
148.8904158749
 20
315.3290066218
 30
0.0
 11
113.8904194511
 21
315.3290066218
 31
0.0
  0
LINE
  5
29A
330
1F
100
AcDbEntity
  8
0
  6
Continuous
 62
     7
370
    15
100
AcDbLine
 10
141.3904230274
 20
319.3290072774
 30
0.0
 11
121.3904122986
 21
319.3290072774
 31
0.0
  0
LINE
  5
29B
330
1F
100
AcDbEntity
  8
0
  6
Continuous
 62
     7
370
    15
100
AcDbLine
 10
113.8904194511
 20
325.3290082609
 30
0.0
 11
148.8904158749
 21
325.3290082609
 31
0.0
  0
LINE
  5
29C
330
1F
100
AcDbEntity
  8
0
  6
Continuous
 62
     7
370
    15
100
AcDbLine
 10
113.8904194511
 20
326.3290065622
 30
0.0
 11
148.8904158749
 21
326.3290065622
 31
0.0
  0
LINE
  5
29D
330
1F
100
AcDbEntity
  8
0
  6
Continuous
 62
     7
370
    15
100
AcDbLine
 10
121.3904122986
 20
321.3290076053
 30
0.0
 11
141.3904230274
 21
321.3290076053
 31
0.0
  0
LINE
  5
29E
330
1F
100
AcDbEntity
  8
0
  6
Continuous
 62
     7
370
    15
100
AcDbLine
 10
19.7025786318
 20
316.3290049231
 30
0.0
 11
34.202570764
 21
316.3290049231
 31
0.0
  0
CIRCLE
  5
29F
330
1F
100
AcDbEntity
  8
0
  6
Continuous
 62
     7
370
    15
100
AcDbCircle
 10
26.9525681403
 20
293.8290064341
 30
0.0
 40
17.50000000000001
  0
LINE
  5
2A0
330
1F
100
AcDbEntity
  8
0
  6
Continuous
 62
     7
370
    15
100
AcDbLine
 10
137.0904098429
 20
275.3290064681
 30
0.0
 11
125.690410582
 21
275.3290064681
 31
0.0
  0
LINE
  5
2A1
330
1F
100
AcDbEntity
  8
0
  6
Continuous
 62
     7
370
    15
100
AcDbLine
 10
32.6525817789
 20
275.3290064681
 30
0.0
 11
21.2525676168
 21
275.3290064681
 31
0.0
  0
LINE
  5
2A2
330
1F
100
AcDbEntity
  8
0
  6
Continuous
 62
     8
370
    15
100
AcDbLine
 10
35.2025578894
 20
315.3290066218
 30
0.0
 11
18.7025617041
 21
315.3290066218
 31
0.0
  0
LINE
  5
2A3
330
1F
100
AcDbEntity
  8
0
  6
Continuous
 62
     8
370
    15
100
AcDbLine
 10
124.8904119409
 20
276.1290063897
 30
0.0
 11
137.890423385
 21
276.1290063897
 31
0.0
  0
LINE
  5
2A4
330
1F
100
AcDbEntity
  8
0
  6
Continuous
 62
     8
370
    15
100
AcDbLine
 10
20.4525540747
 20
276.1290063897
 30
0.0
 11
33.4525655188
 21
276.1290063897
 31
0.0
  0
LINE
  5
2A5
330
1F
100
AcDbEntity
  8
0
  6
Continuous
 62
     7
370
    15
100
AcDbLine
 10
-4.988883885
 20
61.9535336532
 30
0.0
 11
-5.4888774477
 21
61.4535335712
 31
0.0
  0
LINE
  5
2A6
330
1F
100
AcDbEntity
  8
0
  6
Continuous
 62
     7
370
    15
100
AcDbLine
 10
-5.4888774477
 20
42.4535332508
 30
0.0
 11
-4.988883885
 21
41.9535341002
 31
0.0
  0
LINE
  5
2A7
330
1F
100
AcDbEntity
  8
0
  6
Continuous
 62
     7
370
    15
100
AcDbLine
 10
-4.988883885
 20
41.9535341002
 30
0.0
 11
12.5911484636
 21
41.9535341002
 31
0.0
  0
LINE
  5
2A8
330
1F
100
AcDbEntity
  8
0
  6
Continuous
 62
     7
370
    15
100
AcDbLine
 10
41.3139711298
 20
41.9535341002
 30
0.0
 11
117.0290063299
 21
41.9535341002
 31
0.0
  0
LINE
  5
2A9
330
1F
100
AcDbEntity
  8
0
  6
Continuous
 62
     7
370
    15
100
AcDbLine
 10
145.7518289961
 20
41.9535341002
 30
0.0
 11
159.0111057438
 21
41.9535341002
 31
0.0
  0
LINE
  5
2AA
330
1F
100
AcDbEntity
  8
0
  6
Continuous
 62
     7
370
    15
100
AcDbLine
 10
159.0111057438
 20
61.9535336532
 30
0.0
 11
145.7518289961
 21
61.9535336532
 31
0.0
  0
LINE
  5
2AB
330
1F
100
AcDbEntity
  8
0
  6
Continuous
 62
     7
370
    15
100
AcDbLine
 10
117.0290063299
 20
61.9535336532
 30
0.0
 11
41.3139711298
 21
61.9535336532
 31
0.0
  0
LINE
  5
2AC
330
1F
100
AcDbEntity
  8
0
  6
Continuous
 62
     7
370
    15
100
AcDbLine
 10
12.5911484636
 20
61.9535336532
 30
0.0
 11
-4.988883885
 21
61.9535336532
 31
0.0
  0
LINE
  5
2AD
330
1F
100
AcDbEntity
  8
0
  6
Continuous
 62
     7
370
    15
100
AcDbLine
 10
159.0111057438
 20
41.9535341002
 30
0.0
 11
159.5111142076
 21
42.4535332508
 31
0.0
  0
LINE
  5
2AE
330
1F
100
AcDbEntity
  8
0
  6
Continuous
 62
     7
370
    15
100
AcDbLine
 10
159.5111142076
 20
61.4535335712
 30
0.0
 11
159.0111057438
 21
61.9535336532
 31
0.0
  0
LINE
  5
2AF
330
1F
100
AcDbEntity
  8
0
  6
Continuous
 62
     7
370
    15
100
AcDbLine
 10
44.4525729097
 20
31.4535351731
 30
0.0
 11
44.4525729097
 21
33.4535317756
 31
0.0
  0
LINE
  5
2B0
330
1F
100
AcDbEntity
  8
0
  6
Continuous
 62
     7
370
    15
100
AcDbLine
 10
9.452576486
 20
33.4535317756
 30
0.0
 11
9.452576486
 21
31.4535351731
 31
0.0
  0
LINE
  5
2B1
330
1F
100
AcDbEntity
  8
0
  6
Continuous
 62
     7
370
    15
100
AcDbLine
 10
35.4525695719
 20
33.4535317756
 30
0.0
 11
34.4525824465
 21
34.4535338022
 31
0.0
  0
LINE
  5
2B2
330
1F
100
AcDbEntity
  8
0
  6
Continuous
 62
     7
370
    15
100
AcDbLine
 10
19.4525669493
 20
34.4535338022
 30
0.0
 11
18.4525798239
 21
33.4535317756
 31
0.0
  0
LINE
  5
2B3
330
1F
100
AcDbEntity
  8
0
  6
Continuous
 62
     7
370
    15
100
AcDbLine
 10
34.4525824465
 20
34.4535338022
 30
0.0
 11
34.4525824465
 21
36.1421445645
 31
0.0
  0
LINE
  5
2B4
330
1F
100
AcDbEntity
  8
0
  6
Continuous
 62
     7
370
    15
100
AcDbLine
 10
19.4525669493
 20
36.1421445645
 30
0.0
 11
19.4525669493
 21
34.4535338022
 31
0.0
  0
LINE
  5
2B5
330
1F
100
AcDbEntity
  8
0
  6
Continuous
 62
     7
370
    15
100
AcDbLine
 10
148.8904158749
 20
31.4535351731
 30
0.0
 11
148.8904158749
 21
33.4535317756
 31
0.0
  0
LINE
  5
2B6
330
1F
100
AcDbEntity
  8
0
  6
Continuous
 62
     7
370
    15
100
AcDbLine
 10
113.8904194511
 20
33.4535317756
 30
0.0
 11
113.8904194511
 21
31.4535351731
 31
0.0
  0
LINE
  5
2B7
330
1F
100
AcDbEntity
  8
0
  6
Continuous
 62
     7
370
    15
100
AcDbLine
 10
139.890412537
 20
33.4535317756
 30
0.0
 11
138.8904105104
 21
34.4535338022
 31
0.0
  0
LINE
  5
2B8
330
1F
100
AcDbEntity
  8
0
  6
Continuous
 62
     7
370
    15
100
AcDbLine
 10
123.8904099144
 20
34.4535338022
 30
0.0
 11
122.890422789
 21
33.4535317756
 31
0.0
  0
LINE
  5
2B9
330
1F
100
AcDbEntity
  8
0
  6
Continuous
 62
     7
370
    15
100
AcDbLine
 10
138.8904105104
 20
34.4535338022
 30
0.0
 11
138.8904105104
 21
36.1421445645
 31
0.0
  0
LINE
  5
2BA
330
1F
100
AcDbEntity
  8
0
  6
Continuous
 62
     7
370
    15
100
AcDbLine
 10
123.8904099144
 20
36.1421445645
 30
0.0
 11
123.8904099144
 21
34.4535338022
 31
0.0
  0
LINE
  5
2BB
330
1F
100
AcDbEntity
  8
0
  6
Continuous
 62
     7
370
    15
100
AcDbLine
 10
44.4525729097
 20
19.2535335459
 30
0.0
 11
44.2525695242
 21
19.4535332061
 31
0.0
  0
LINE
  5
2BC
330
1F
100
AcDbEntity
  8
0
  6
Continuous
 62
     7
370
    15
100
AcDbLine
 10
9.6525798715
 20
19.4535332061
 30
0.0
 11
9.452576486
 21
19.2535335459
 31
0.0
  0
LINE
  5
2BD
330
1F
100
AcDbEntity
  8
0
  6
Continuous
 62
     7
370
    15
100
AcDbLine
 10
44.4525729097
 20
18.4535349049
 30
0.0
 11
44.4525729097
 21
19.2535335459
 31
0.0
  0
LINE
  5
2BE
330
1F
100
AcDbEntity
  8
0
  6
Continuous
 62
     7
370
    15
100
AcDbLine
 10
9.452576486
 20
19.2535335459
 30
0.0
 11
9.452576486
 21
18.4535349049
 31
0.0
  0
LINE
  5
2BF
330
1F
100
AcDbEntity
  8
0
  6
Continuous
 62
     7
370
    15
100
AcDbLine
 10
9.452576486
 20
18.4535349049
 30
0.0
 11
11.4525805391
 21
16.453534577
 31
0.0
  0
LINE
  5
2C0
330
1F
100
AcDbEntity
  8
0
  6
Continuous
 62
     7
370
    15
100
AcDbLine
 10
42.4525688566
 20
16.453534577
 30
0.0
 11
44.4525729097
 21
18.4535349049
 31
0.0
  0
LINE
  5
2C1
330
1F
100
AcDbEntity
  8
0
  6
Continuous
 62
     7
370
    15
100
AcDbLine
 10
34.9525760092
 20
24.4535321631
 30
0.0
 11
34.9525760092
 21
26.4535324909
 31
0.0
  0
LINE
  5
2C2
330
1F
100
AcDbEntity
  8
0
  6
Continuous
 62
     7
370
    15
100
AcDbLine
 10
18.9525733866
 20
26.4535324909
 30
0.0
 11
18.9525733866
 21
24.4535321631
 31
0.0
  0
LINE
  5
2C3
330
1F
100
AcDbEntity
  8
0
  6
Continuous
 62
     7
370
    15
100
AcDbLine
 10
148.8904158749
 20
19.2535335459
 30
0.0
 11
148.6904124893
 21
19.4535332061
 31
0.0
  0
LINE
  5
2C4
330
1F
100
AcDbEntity
  8
0
  6
Continuous
 62
     7
370
    15
100
AcDbLine
 10
114.0904228367
 20
19.4535332061
 30
0.0
 11
113.8904194511
 21
19.2535335459
 31
0.0
  0
LINE
  5
2C5
330
1F
100
AcDbEntity
  8
0
  6
Continuous
 62
     7
370
    15
100
AcDbLine
 10
148.8904158749
 20
18.4535349049
 30
0.0
 11
148.8904158749
 21
19.2535335459
 31
0.0
  0
LINE
  5
2C6
330
1F
100
AcDbEntity
  8
0
  6
Continuous
 62
     7
370
    15
100
AcDbLine
 10
113.8904194511
 20
19.2535335459
 30
0.0
 11
113.8904194511
 21
18.4535349049
 31
0.0
  0
LINE
  5
2C7
330
1F
100
AcDbEntity
  8
0
  6
Continuous
 62
     7
370
    15
100
AcDbLine
 10
113.8904194511
 20
18.4535349049
 30
0.0
 11
115.8904235042
 21
16.453534577
 31
0.0
  0
LINE
  5
2C8
330
1F
100
AcDbEntity
  8
0
  6
Continuous
 62
     7
370
    15
100
AcDbLine
 10
146.8904118217
 20
16.453534577
 30
0.0
 11
148.8904158749
 21
18.4535349049
 31
0.0
  0
LINE
  5
2C9
330
1F
100
AcDbEntity
  8
0
  6
Continuous
 62
     7
370
    15
100
AcDbLine
 10
139.3904189743
 20
24.4535321631
 30
0.0
 11
139.3904189743
 21
26.4535324909
 31
0.0
  0
LINE
  5
2CA
330
1F
100
AcDbEntity
  8
0
  6
Continuous
 62
     7
370
    15
100
AcDbLine
 10
123.3904163517
 20
26.4535324909
 30
0.0
 11
123.3904163517
 21
24.4535321631
 31
0.0
  0
LINE
  5
2CB
330
1F
100
AcDbEntity
  8
0
  6
Continuous
 62
     7
370
    15
100
AcDbLine
 10
9.452576486
 20
31.4535351731
 30
0.0
 11
9.452576486
 21
30.4535331465
 31
0.0
  0
LINE
  5
2CC
330
1F
100
AcDbEntity
  8
0
  6
Continuous
 62
     7
370
    15
100
AcDbLine
 10
44.4525729097
 20
30.4535331465
 30
0.0
 11
44.4525729097
 21
31.4535351731
 31
0.0
  0
LINE
  5
2CD
330
1F
100
AcDbEntity
  8
0
  6
Continuous
 62
     7
370
    15
100
AcDbLine
 10
16.9525693334
 20
30.4535331465
 30
0.0
 11
16.9525693334
 21
26.4535324909
 31
0.0
  0
LINE
  5
2CE
330
1F
100
AcDbEntity
  8
0
  6
Continuous
 62
     7
370
    15
100
AcDbLine
 10
36.9525800623
 20
26.4535324909
 30
0.0
 11
36.9525800623
 21
30.4535331465
 31
0.0
  0
LINE
  5
2CF
330
1F
100
AcDbEntity
  8
0
  6
Continuous
 62
     7
370
    15
100
AcDbLine
 10
113.8904194511
 20
31.4535351731
 30
0.0
 11
113.8904194511
 21
30.4535331465
 31
0.0
  0
LINE
  5
2D0
330
1F
100
AcDbEntity
  8
0
  6
Continuous
 62
     7
370
    15
100
AcDbLine
 10
148.8904158749
 20
30.4535331465
 30
0.0
 11
148.8904158749
 21
31.4535351731
 31
0.0
  0
LINE
  5
2D1
330
1F
100
AcDbEntity
  8
0
  6
Continuous
 62
     7
370
    15
100
AcDbLine
 10
121.3904122986
 20
30.4535331465
 30
0.0
 11
121.3904122986
 21
26.4535324909
 31
0.0
  0
LINE
  5
2D2
330
1F
100
AcDbEntity
  8
0
  6
Continuous
 62
     7
370
    15
100
AcDbLine
 10
141.3904230274
 20
26.4535324909
 30
0.0
 11
141.3904230274
 21
30.4535331465
 31
0.0
  0
LINE
  5
2D3
330
1F
100
AcDbEntity
  8
0
  6
Continuous
 62
     7
370
    15
100
AcDbLine
 10
148.8904158749
 20
19.4535332061
 30
0.0
 11
148.8904158749
 21
20.4535315074
 31
0.0
  0
LINE
  5
2D4
330
1F
100
AcDbEntity
  8
0
  6
Continuous
 62
     7
370
    15
100
AcDbLine
 10
113.8904194511
 20
20.4535315074
 30
0.0
 11
113.8904194511
 21
19.4535332061
 31
0.0
  0
LINE
  5
2D5
330
1F
100
AcDbEntity
  8
0
  6
Continuous
 62
     7
370
    15
100
AcDbLine
 10
141.3904230274
 20
20.4535315074
 30
0.0
 11
141.3904230274
 21
24.4535321631
 31
0.0
  0
LINE
  5
2D6
330
1F
100
AcDbEntity
  8
0
  6
Continuous
 62
     7
370
    15
100
AcDbLine
 10
121.3904122986
 20
24.4535321631
 30
0.0
 11
121.3904122986
 21
20.4535315074
 31
0.0
  0
LINE
  5
2D7
330
1F
100
AcDbEntity
  8
0
  6
Continuous
 62
     7
370
    15
100
AcDbLine
 10
44.4525729097
 20
19.4535332061
 30
0.0
 11
44.4525729097
 21
20.4535315074
 31
0.0
  0
LINE
  5
2D8
330
1F
100
AcDbEntity
  8
0
  6
Continuous
 62
     7
370
    15
100
AcDbLine
 10
9.452576486
 20
20.4535315074
 30
0.0
 11
9.452576486
 21
19.4535332061
 31
0.0
  0
LINE
  5
2D9
330
1F
100
AcDbEntity
  8
0
  6
Continuous
 62
     7
370
    15
100
AcDbLine
 10
36.9525800623
 20
20.4535315074
 30
0.0
 11
36.9525800623
 21
24.4535321631
 31
0.0
  0
LINE
  5
2DA
330
1F
100
AcDbEntity
  8
0
  6
Continuous
 62
     7
370
    15
100
AcDbLine
 10
16.9525693334
 20
24.4535321631
 30
0.0
 11
16.9525693334
 21
20.4535315074
 31
0.0
  0
LINE
  5
2DB
330
1F
100
AcDbEntity
  8
0
  6
Continuous
 62
     7
370
    15
100
AcDbLine
 10
18.7025617041
 20
36.5202093758
 30
0.0
 11
18.7025617041
 21
33.7035322823
 31
0.0
  0
LINE
  5
2DC
330
1F
100
AcDbEntity
  8
0
  6
Continuous
 62
     7
370
    15
100
AcDbLine
 10
35.2025578894
 20
33.7035322823
 30
0.0
 11
35.2025578894
 21
36.5202093758
 31
0.0
  0
ARC
  5
2DD
330
1F
100
AcDbEntity
  8
0
  6
Continuous
 62
     7
370
    15
100
AcDbCircle
 10
21.2525681403
 20
69.6535333342
 30
0.0
 40
0.800000000000022
100
AcDbArc
 50
90.0
 51
180.0
  0
ARC
  5
2DE
330
1F
100
AcDbEntity
  8
0
  6
Continuous
 62
     7
370
    15
100
AcDbCircle
 10
32.6525681403
 20
69.6535333342
 30
0.0
 40
0.8000000000000256
100
AcDbArc
 50
360.0
 51
90.0
  0
LINE
  5
2DF
330
1F
100
AcDbEntity
  8
0
  6
Continuous
 62
     7
370
    15
100
AcDbLine
 10
20.4525540747
 20
69.6535333786
 30
0.0
 11
20.4525540747
 21
68.2016100995
 31
0.0
  0
LINE
  5
2E0
330
1F
100
AcDbEntity
  8
0
  6
Continuous
 62
     7
370
    15
100
AcDbLine
 10
33.4525655188
 20
68.2016100995
 30
0.0
 11
33.4525655188
 21
69.6535333786
 31
0.0
  0
ARC
  5
2E1
330
1F
100
AcDbEntity
  8
0
  6
Continuous
 62
     7
370
    15
100
AcDbCircle
 10
125.6904168429
 20
69.6535333342
 30
0.0
 40
0.7999999999999972
100
AcDbArc
 50
90.0
 51
180.0
  0
ARC
  5
2E2
330
1F
100
AcDbEntity
  8
0
  6
Continuous
 62
     7
370
    15
100
AcDbCircle
 10
137.0904168429
 20
69.6535333342
 30
0.0
 40
0.7999999999999972
100
AcDbArc
 50
360.0
 51
90.0
  0
LINE
  5
2E3
330
1F
100
AcDbEntity
  8
0
  6
Continuous
 62
     7
370
    15
100
AcDbLine
 10
124.8904119409
 20
69.6535333786
 30
0.0
 11
124.8904119409
 21
68.2016100995
 31
0.0
  0
LINE
  5
2E4
330
1F
100
AcDbEntity
  8
0
  6
Continuous
 62
     7
370
    15
100
AcDbLine
 10
137.890423385
 20
68.2016100995
 30
0.0
 11
137.890423385
 21
69.6535333786
 31
0.0
  0
CIRCLE
  5
2E5
330
1F
100
AcDbEntity
  8
0
  6
Continuous
 62
     7
370
    15
100
AcDbCircle
 10
131.3904168429
 20
51.9535333342
 30
0.0
 40
17.50000000000003
  0
CIRCLE
  5
2E6
330
1F
100
AcDbEntity
  8
0
  6
Continuous
 62
     7
370
    15
100
AcDbCircle
 10
131.3904168429
 20
51.9535333342
 30
0.0
 40
17.0
  0
LINE
  5
2E7
330
1F
100
AcDbEntity
  8
0
  6
Continuous
 62
     7
370
    15
100
AcDbLine
 10
-4.988883885
 20
50.0296673067
 30
0.0
 11
-4.988883885
 21
41.9535341002
 31
0.0
  0
LINE
  5
2E8
330
1F
100
AcDbEntity
  8
0
  6
Continuous
 62
     7
370
    15
100
AcDbLine
 10
-4.988883885
 20
61.9535336532
 30
0.0
 11
-4.988883885
 21
50.0296673067
 31
0.0
  0
LINE
  5
2E9
330
1F
100
AcDbEntity
  8
0
  6
Continuous
 62
     7
370
    15
100
AcDbLine
 10
-5.4888774477
 20
50.1258617528
 30
0.0
 11
-5.4888774477
 21
61.4535335712
 31
0.0
  0
LINE
  5
2EA
330
1F
100
AcDbEntity
  8
0
  6
Continuous
 62
     7
370
    15
100
AcDbLine
 10
-5.4888774477
 20
42.4535332508
 30
0.0
 11
-5.4888774477
 21
50.1258617528
 31
0.0
  0
LINE
  5
2EB
330
1F
100
AcDbEntity
  8
0
  6
Continuous
 62
     7
370
    15
100
AcDbLine
 10
159.0111057438
 20
50.0296673067
 30
0.0
 11
159.0111057438
 21
61.9535336532
 31
0.0
  0
LINE
  5
2EC
330
1F
100
AcDbEntity
  8
0
  6
Continuous
 62
     7
370
    15
100
AcDbLine
 10
159.0111057438
 20
41.9535341002
 30
0.0
 11
159.0111057438
 21
50.0296673067
 31
0.0
  0
LINE
  5
2ED
330
1F
100
AcDbEntity
  8
0
  6
Continuous
 62
     7
370
    15
100
AcDbLine
 10
159.5111142076
 20
50.1258617528
 30
0.0
 11
159.5111142076
 21
42.4535332508
 31
0.0
  0
LINE
  5
2EE
330
1F
100
AcDbEntity
  8
0
  6
Continuous
 62
     7
370
    15
100
AcDbLine
 10
159.5111142076
 20
61.4535335712
 30
0.0
 11
159.5111142076
 21
50.1258617528
 31
0.0
  0
LINE
  5
2EF
330
1F
100
AcDbEntity
  8
0
  6
Continuous
 62
     7
370
    15
100
AcDbLine
 10
36.524082271
 20
33.4535317756
 30
0.0
 11
9.452576486
 21
33.4535317756
 31
0.0
  0
LINE
  5
2F0
330
1F
100
AcDbEntity
  8
0
  6
Continuous
 62
     7
370
    15
100
AcDbLine
 10
44.4525729097
 20
33.4535317756
 30
0.0
 11
36.524082271
 21
33.4535317756
 31
0.0
  0
LINE
  5
2F1
330
1F
100
AcDbEntity
  8
0
  6
Continuous
 62
     7
370
    15
100
AcDbLine
 10
36.524082271
 20
31.4535351731
 30
0.0
 11
9.452576486
 21
31.4535351731
 31
0.0
  0
LINE
  5
2F2
330
1F
100
AcDbEntity
  8
0
  6
Continuous
 62
     7
370
    15
100
AcDbLine
 10
44.4525729097
 20
31.4535351731
 30
0.0
 11
36.524082271
 21
31.4535351731
 31
0.0
  0
LINE
  5
2F3
330
1F
100
AcDbEntity
  8
0
  6
Continuous
 62
     7
370
    15
100
AcDbLine
 10
31.0546408571
 20
34.4535338022
 30
0.0
 11
34.4525824465
 21
34.4535338022
 31
0.0
  0
LINE
  5
2F4
330
1F
100
AcDbEntity
  8
0
  6
Continuous
 62
     7
370
    15
100
AcDbLine
 10
19.4525669493
 20
34.4535338022
 30
0.0
 11
31.0546408571
 21
34.4535338022
 31
0.0
  0
LINE
  5
2F5
330
1F
100
AcDbEntity
  8
0
  6
Continuous
 62
     7
370
    15
100
AcDbLine
 10
140.9619401373
 20
33.4535317756
 30
0.0
 11
113.8904194511
 21
33.4535317756
 31
0.0
  0
LINE
  5
2F6
330
1F
100
AcDbEntity
  8
0
  6
Continuous
 62
     7
370
    15
100
AcDbLine
 10
148.8904158749
 20
33.4535317756
 30
0.0
 11
140.9619401373
 21
33.4535317756
 31
0.0
  0
LINE
  5
2F7
330
1F
100
AcDbEntity
  8
0
  6
Continuous
 62
     7
370
    15
100
AcDbLine
 10
140.9619401373
 20
31.4535351731
 30
0.0
 11
113.8904194511
 21
31.4535351731
 31
0.0
  0
LINE
  5
2F8
330
1F
100
AcDbEntity
  8
0
  6
Continuous
 62
     7
370
    15
100
AcDbLine
 10
148.8904158749
 20
31.4535351731
 30
0.0
 11
140.9619401373
 21
31.4535351731
 31
0.0
  0
LINE
  5
2F9
330
1F
100
AcDbEntity
  8
0
  6
Continuous
 62
     7
370
    15
100
AcDbLine
 10
135.4924987234
 20
34.4535338022
 30
0.0
 11
138.8904105104
 21
34.4535338022
 31
0.0
  0
LINE
  5
2FA
330
1F
100
AcDbEntity
  8
0
  6
Continuous
 62
     7
370
    15
100
AcDbLine
 10
123.8904099144
 20
34.4535338022
 30
0.0
 11
135.4924987234
 21
34.4535338022
 31
0.0
  0
LINE
  5
2FB
330
1F
100
AcDbEntity
  8
0
  6
Continuous
 62
     7
370
    15
100
AcDbLine
 10
44.4525729097
 20
19.2535335459
 30
0.0
 11
9.452576486
 21
19.2535335459
 31
0.0
  0
LINE
  5
2FC
330
1F
100
AcDbEntity
  8
0
  6
Continuous
 62
     7
370
    15
100
AcDbLine
 10
44.0064619459
 20
18.4535349049
 30
0.0
 11
44.4525729097
 21
18.4535349049
 31
0.0
  0
LINE
  5
2FD
330
1F
100
AcDbEntity
  8
0
  6
Continuous
 62
     7
370
    15
100
AcDbLine
 10
9.452576486
 20
18.4535349049
 30
0.0
 11
44.0064619459
 21
18.4535349049
 31
0.0
  0
LINE
  5
2FE
330
1F
100
AcDbEntity
  8
0
  6
Continuous
 62
     7
370
    15
100
AcDbLine
 10
42.0574496664
 20
16.453534577
 30
0.0
 11
11.4525805391
 21
16.453534577
 31
0.0
  0
LINE
  5
2FF
330
1F
100
AcDbEntity
  8
0
  6
Continuous
 62
     7
370
    15
100
AcDbLine
 10
42.4525688566
 20
16.453534577
 30
0.0
 11
42.0574496664
 21
16.453534577
 31
0.0
  0
LINE
  5
300
330
1F
100
AcDbEntity
  8
0
  6
Continuous
 62
     7
370
    15
100
AcDbLine
 10
118.2763527311
 20
19.2535335459
 30
0.0
 11
113.8904194511
 21
19.2535335459
 31
0.0
  0
LINE
  5
301
330
1F
100
AcDbEntity
  8
0
  6
Continuous
 62
     7
370
    15
100
AcDbLine
 10
148.8904158749
 20
19.2535335459
 30
0.0
 11
118.2763527311
 21
19.2535335459
 31
0.0
  0
LINE
  5
302
330
1F
100
AcDbEntity
  8
0
  6
Continuous
 62
     7
370
    15
100
AcDbLine
 10
113.8904194511
 20
18.4535349049
 30
0.0
 11
148.8904158749
 21
18.4535349049
 31
0.0
  0
LINE
  5
303
330
1F
100
AcDbEntity
  8
0
  6
Continuous
 62
     7
370
    15
100
AcDbLine
 10
146.8904118217
 20
16.453534577
 30
0.0
 11
115.8904235042
 21
16.453534577
 31
0.0
  0
LINE
  5
304
330
1F
100
AcDbEntity
  8
0
  6
Continuous
 62
     7
370
    15
100
AcDbLine
 10
26.9525597967
 20
30.4535331465
 30
0.0
 11
44.4525729097
 21
30.4535331465
 31
0.0
  0
LINE
  5
305
330
1F
100
AcDbEntity
  8
0
  6
Continuous
 62
     7
370
    15
100
AcDbLine
 10
9.452576486
 20
30.4535331465
 30
0.0
 11
26.9525597967
 21
30.4535331465
 31
0.0
  0
LINE
  5
306
330
1F
100
AcDbEntity
  8
0
  6
Continuous
 62
     7
370
    15
100
AcDbLine
 10
26.9525597967
 20
31.4535351731
 30
0.0
 11
44.4525729097
 21
31.4535351731
 31
0.0
  0
LINE
  5
307
330
1F
100
AcDbEntity
  8
0
  6
Continuous
 62
     7
370
    15
100
AcDbLine
 10
9.452576486
 20
31.4535351731
 30
0.0
 11
26.9525597967
 21
31.4535351731
 31
0.0
  0
LINE
  5
308
330
1F
100
AcDbEntity
  8
0
  6
Continuous
 62
     7
370
    15
100
AcDbLine
 10
26.9525597967
 20
26.4535324909
 30
0.0
 11
36.9525800623
 21
26.4535324909
 31
0.0
  0
LINE
  5
309
330
1F
100
AcDbEntity
  8
0
  6
Continuous
 62
     7
370
    15
100
AcDbLine
 10
16.9525693334
 20
26.4535324909
 30
0.0
 11
26.9525597967
 21
26.4535324909
 31
0.0
  0
LINE
  5
30A
330
1F
100
AcDbEntity
  8
0
  6
Continuous
 62
     7
370
    15
100
AcDbLine
 10
131.390417663
 20
30.4535331465
 30
0.0
 11
148.8904158749
 21
30.4535331465
 31
0.0
  0
LINE
  5
30B
330
1F
100
AcDbEntity
  8
0
  6
Continuous
 62
     7
370
    15
100
AcDbLine
 10
113.8904194511
 20
30.4535331465
 30
0.0
 11
131.390417663
 21
30.4535331465
 31
0.0
  0
LINE
  5
30C
330
1F
100
AcDbEntity
  8
0
  6
Continuous
 62
     7
370
    15
100
AcDbLine
 10
131.390417663
 20
31.4535351731
 30
0.0
 11
148.8904158749
 21
31.4535351731
 31
0.0
  0
LINE
  5
30D
330
1F
100
AcDbEntity
  8
0
  6
Continuous
 62
     7
370
    15
100
AcDbLine
 10
113.8904194511
 20
31.4535351731
 30
0.0
 11
131.390417663
 21
31.4535351731
 31
0.0
  0
LINE
  5
30E
330
1F
100
AcDbEntity
  8
0
  6
Continuous
 62
     7
370
    15
100
AcDbLine
 10
131.390417663
 20
26.4535324909
 30
0.0
 11
141.3904230274
 21
26.4535324909
 31
0.0
  0
LINE
  5
30F
330
1F
100
AcDbEntity
  8
0
  6
Continuous
 62
     7
370
    15
100
AcDbLine
 10
121.3904122986
 20
26.4535324909
 30
0.0
 11
131.390417663
 21
26.4535324909
 31
0.0
  0
LINE
  5
310
330
1F
100
AcDbEntity
  8
0
  6
Continuous
 62
     7
370
    15
100
AcDbLine
 10
140.9619401373
 20
19.4535332061
 30
0.0
 11
113.8904194511
 21
19.4535332061
 31
0.0
  0
LINE
  5
311
330
1F
100
AcDbEntity
  8
0
  6
Continuous
 62
     7
370
    15
100
AcDbLine
 10
148.8904158749
 20
19.4535332061
 30
0.0
 11
140.9619401373
 21
19.4535332061
 31
0.0
  0
LINE
  5
312
330
1F
100
AcDbEntity
  8
0
  6
Continuous
 62
     7
370
    15
100
AcDbLine
 10
140.9619401373
 20
20.4535315074
 30
0.0
 11
113.8904194511
 21
20.4535315074
 31
0.0
  0
LINE
  5
313
330
1F
100
AcDbEntity
  8
0
  6
Continuous
 62
     7
370
    15
100
AcDbLine
 10
148.8904158749
 20
20.4535315074
 30
0.0
 11
140.9619401373
 21
20.4535315074
 31
0.0
  0
LINE
  5
314
330
1F
100
AcDbEntity
  8
0
  6
Continuous
 62
     7
370
    15
100
AcDbLine
 10
136.8598590769
 20
24.4535321631
 30
0.0
 11
121.3904122986
 21
24.4535321631
 31
0.0
  0
LINE
  5
315
330
1F
100
AcDbEntity
  8
0
  6
Continuous
 62
     7
370
    15
100
AcDbLine
 10
141.3904230274
 20
24.4535321631
 30
0.0
 11
136.8598590769
 21
24.4535321631
 31
0.0
  0
LINE
  5
316
330
1F
100
AcDbEntity
  8
0
  6
Continuous
 62
     7
370
    15
100
AcDbLine
 10
44.2899416365
 20
19.4535332061
 30
0.0
 11
9.452576486
 21
19.4535332061
 31
0.0
  0
LINE
  5
317
330
1F
100
AcDbEntity
  8
0
  6
Continuous
 62
     7
370
    15
100
AcDbLine
 10
44.4525729097
 20
19.4535332061
 30
0.0
 11
44.2899416365
 21
19.4535332061
 31
0.0
  0
LINE
  5
318
330
1F
100
AcDbEntity
  8
0
  6
Continuous
 62
     7
370
    15
100
AcDbLine
 10
44.2899416365
 20
20.4535315074
 30
0.0
 11
9.452576486
 21
20.4535315074
 31
0.0
  0
LINE
  5
319
330
1F
100
AcDbEntity
  8
0
  6
Continuous
 62
     7
370
    15
100
AcDbLine
 10
44.4525729097
 20
20.4535315074
 30
0.0
 11
44.2899416365
 21
20.4535315074
 31
0.0
  0
LINE
  5
31A
330
1F
100
AcDbEntity
  8
0
  6
Continuous
 62
     7
370
    15
100
AcDbLine
 10
36.8596564211
 20
24.4535321631
 30
0.0
 11
16.9525693334
 21
24.4535321631
 31
0.0
  0
LINE
  5
31B
330
1F
100
AcDbEntity
  8
0
  6
Continuous
 62
     7
370
    15
100
AcDbLine
 10
36.9525800623
 20
24.4535321631
 30
0.0
 11
36.8596564211
 21
24.4535321631
 31
0.0
  0
CIRCLE
  5
31C
330
1F
100
AcDbEntity
  8
0
  6
Continuous
 62
     7
370
    15
100
AcDbCircle
 10
26.9525681403
 20
51.9535333342
 30
0.0
 40
17.50000000000001
  0
CIRCLE
  5
31D
330
1F
100
AcDbEntity
  8
0
  6
Continuous
 62
     7
370
    15
100
AcDbCircle
 10
26.9525681403
 20
51.9535333342
 30
0.0
 40
16.99999999999996
  0
LINE
  5
31E
330
1F
100
AcDbEntity
  8
0
  6
Continuous
 62
     7
370
    15
100
AcDbLine
 10
32.6525817789
 20
70.4535333002
 30
0.0
 11
21.2525676168
 21
70.4535333002
 31
0.0
  0
LINE
  5
31F
330
1F
100
AcDbEntity
  8
0
  6
Continuous
 62
     7
370
    15
100
AcDbLine
 10
132.7294956125
 20
70.4535333002
 30
0.0
 11
137.0904098429
 21
70.4535333002
 31
0.0
  0
LINE
  5
320
330
1F
100
AcDbEntity
  8
0
  6
Continuous
 62
     7
370
    15
100
AcDbLine
 10
125.690410582
 20
70.4535333002
 30
0.0
 11
132.7294956125
 21
70.4535333002
 31
0.0
  0
LINE
  5
321
330
1F
100
AcDbEntity
  8
0
  6
Continuous
 62
     8
370
    15
100
AcDbLine
 10
33.4525655188
 20
69.6535333786
 30
0.0
 11
20.4525540747
 21
69.6535333786
 31
0.0
  0
LINE
  5
322
330
1F
100
AcDbEntity
  8
0
  6
Continuous
 62
     8
370
    15
100
AcDbLine
 10
132.9174439587
 20
69.6535333786
 30
0.0
 11
124.8904119409
 21
69.6535333786
 31
0.0
  0
LINE
  5
323
330
1F
100
AcDbEntity
  8
0
  6
Continuous
 62
     8
370
    15
100
AcDbLine
 10
137.890423385
 20
69.6535333786
 30
0.0
 11
132.9174439587
 21
69.6535333786
 31
0.0
  0
ENDSEC
  0
SECTION
  2
OBJECTS
  0
DICTIONARY
  5
C
330
0
100
AcDbDictionary
281
     1
  3
ACAD_GROUP
350
D
  3
ACAD_LAYOUT
350
1A
  3
ACAD_MLINESTYLE
350
17
  3
ACAD_PLOTSETTINGS
350
19
  3
ACAD_PLOTSTYLENAME
350
E
  3
ACAD_SCALELIST
350
47
  0
DICTIONARY
  5
D
102
{ACAD_REACTORS
330
C
102
}
330
C
100
AcDbDictionary
281
     1
  0
DICTIONARY
  5
1A
102
{ACAD_REACTORS
330
C
102
}
330
C
100
AcDbDictionary
281
     1
  3
Layout1
350
1E
  3
Layout2
350
26
  3
Model
350
22
  0
DICTIONARY
  5
17
102
{ACAD_REACTORS
330
C
102
}
330
C
100
AcDbDictionary
281
     1
  3
Standard
350
18
  0
DICTIONARY
  5
19
102
{ACAD_REACTORS
330
C
102
}
330
C
100
AcDbDictionary
281
     1
  0
ACDBDICTIONARYWDFLT
  5
E
102
{ACAD_REACTORS
330
C
102
}
330
C
100
AcDbDictionary
281
     1
  3
Normal
350
F
100
AcDbDictionaryWithDefault
340
F
  0
DICTIONARY
  5
47
102
{ACAD_REACTORS
330
C
102
}
330
C
100
AcDbDictionary
281
     1
  3
A0
350
48
  3
A1
350
49
  3
A2
350
4A
  3
A3
350
4B
  3
A4
350
4C
  3
A5
350
4D
  3
A6
350
4E
  3
A7
350
4F
  3
A8
350
50
  3
A9
350
51
  3
B0
350
52
  3
B1
350
53
  3
B2
350
54
  3
B3
350
55
  3
B4
350
56
  3
B5
350
57
  3
B6
350
58
  3
B7
350
59
  3
B8
350
5A
  3
B9
350
5B
  3
C0
350
5C
  3
C1
350
5D
  3
C2
350
5E
  3
C3
350
5F
  3
C4
350
60
  3
C5
350
61
  3
C6
350
62
  3
C7
350
63
  3
C8
350
64
  3
C9
350
65
  3
D0
350
66
  3
D1
350
67
  3
D2
350
68
  0
LAYOUT
  5
1E
102
{ACAD_REACTORS
330
1A
102
}
330
1A
100
AcDbPlotSettings
  1

  2
none_device
  4

  6

 40
0.0
 41
0.0
 42
0.0
 43
0.0
 44
0.0
 45
0.0
 46
0.0
 47
0.0
 48
0.0
 49
0.0
140
0.0
141
0.0
142
1.0
143
1.0
 70
   688
 72
     1
 73
     0
 74
     5
  7

 75
    16
147
1.0
148
0.0
149
0.0
100
AcDbLayout
  1
Layout1
 70
     1
 71
     1
 10
0.0
 20
0.0
 11
420.0
 21
297.0
 12
0.0
 22
0.0
 32
0.0
 14
1.0000000000E+20
 24
1.0000000000E+20
 34
1.0000000000E+20
 15
-1.0000000000E+20
 25
-1.0000000000E+20
 35
-1.0000000000E+20
146
0.0
 13
0.0
 23
0.0
 33
0.0
 16
1.0
 26
0.0
 36
0.0
 17
0.0
 27
1.0
 37
0.0
 76
     0
330
1B
  0
LAYOUT
  5
26
102
{ACAD_REACTORS
330
1A
102
}
330
1A
100
AcDbPlotSettings
  1

  2
none_device
  4

  6

 40
0.0
 41
0.0
 42
0.0
 43
0.0
 44
0.0
 45
0.0
 46
0.0
 47
0.0
 48
0.0
 49
0.0
140
0.0
141
0.0
142
1.0
143
1.0
 70
   688
 72
     1
 73
     0
 74
     5
  7

 75
    16
147
1.0
148
0.0
149
0.0
100
AcDbLayout
  1
Layout2
 70
     1
 71
     2
 10
0.0
 20
0.0
 11
0.0
 21
0.0
 12
0.0
 22
0.0
 32
0.0
 14
0.0
 24
0.0
 34
0.0
 15
0.0
 25
0.0
 35
0.0
146
0.0
 13
0.0
 23
0.0
 33
0.0
 16
1.0
 26
0.0
 36
0.0
 17
0.0
 27
1.0
 37
0.0
 76
     0
330
23
  0
LAYOUT
  5
22
102
{ACAD_REACTORS
330
1A
102
}
330
1A
100
AcDbPlotSettings
  1

  2
none_device
  4
Letter_(8.50_x_11.00_Inches)
  6

 40
6.35
 41
6.35
 42
6.35000508
 43
6.35000508
 44
215.9
 45
279.4
 46
0.0
 47
0.0
 48
0.0
 49
0.0
140
0.0
141
0.0
142
1.0
143
1.0
 70
  1712
 72
     1
 73
     0
 74
     0
  7

 75
     0
147
1.0
148
0.0
149
0.0
100
AcDbLayout
  1
Model
 70
     1
 71
     0
 10
0.0
 20
0.0
 11
279.4
 21
215.9
 12
0.0
 22
0.0
 32
0.0
 14
0.0
 24
0.0
 34
0.0
 15
279.4
 25
215.9
 35
0.0
146
0.0
 13
0.0
 23
0.0
 33
0.0
 16
1.0
 26
0.0
 36
0.0
 17
0.0
 27
1.0
 37
0.0
 76
     0
330
1F
331
29
  0
MLINESTYLE
  5
18
102
{ACAD_REACTORS
330
17
102
}
330
17
100
AcDbMlineStyle
  2
Standard
 70
     0
  3

 62
   256
 51
90.0
 52
90.0
 71
     2
 49
0.5
 62
   256
  6
BYLAYER
 49
-0.5
 62
   256
  6
BYLAYER
  0
ACDBPLACEHOLDER
  5
F
102
{ACAD_REACTORS
330
E
102
}
330
E
  0
SCALE
  5
48
102
{ACAD_REACTORS
330
47
102
}
330
47
100
AcDbScale
 70
     0
300
1:1
140
1.0
141
1.0
290
     1
  0
SCALE
  5
49
102
{ACAD_REACTORS
330
47
102
}
330
47
100
AcDbScale
 70
     0
300
1:2
140
1.0
141
2.0
290
     0
  0
SCALE
  5
4A
102
{ACAD_REACTORS
330
47
102
}
330
47
100
AcDbScale
 70
     0
300
1:4
140
1.0
141
4.0
290
     0
  0
SCALE
  5
4B
102
{ACAD_REACTORS
330
47
102
}
330
47
100
AcDbScale
 70
     0
300
1:5
140
1.0
141
5.0
290
     0
  0
SCALE
  5
4C
102
{ACAD_REACTORS
330
47
102
}
330
47
100
AcDbScale
 70
     0
300
1:8
140
1.0
141
8.0
290
     0
  0
SCALE
  5
4D
102
{ACAD_REACTORS
330
47
102
}
330
47
100
AcDbScale
 70
     0
300
1:10
140
1.0
141
10.0
290
     0
  0
SCALE
  5
4E
102
{ACAD_REACTORS
330
47
102
}
330
47
100
AcDbScale
 70
     0
300
1:16
140
1.0
141
16.0
290
     0
  0
SCALE
  5
4F
102
{ACAD_REACTORS
330
47
102
}
330
47
100
AcDbScale
 70
     0
300
1:20
140
1.0
141
20.0
290
     0
  0
SCALE
  5
50
102
{ACAD_REACTORS
330
47
102
}
330
47
100
AcDbScale
 70
     0
300
1:30
140
1.0
141
30.0
290
     0
  0
SCALE
  5
51
102
{ACAD_REACTORS
330
47
102
}
330
47
100
AcDbScale
 70
     0
300
1:40
140
1.0
141
40.0
290
     0
  0
SCALE
  5
52
102
{ACAD_REACTORS
330
47
102
}
330
47
100
AcDbScale
 70
     0
300
1:50
140
1.0
141
50.0
290
     0
  0
SCALE
  5
53
102
{ACAD_REACTORS
330
47
102
}
330
47
100
AcDbScale
 70
     0
300
1:100
140
1.0
141
100.0
290
     0
  0
SCALE
  5
54
102
{ACAD_REACTORS
330
47
102
}
330
47
100
AcDbScale
 70
     0
300
2:1
140
2.0
141
1.0
290
     0
  0
SCALE
  5
55
102
{ACAD_REACTORS
330
47
102
}
330
47
100
AcDbScale
 70
     0
300
4:1
140
4.0
141
1.0
290
     0
  0
SCALE
  5
56
102
{ACAD_REACTORS
330
47
102
}
330
47
100
AcDbScale
 70
     0
300
8:1
140
8.0
141
1.0
290
     0
  0
SCALE
  5
57
102
{ACAD_REACTORS
330
47
102
}
330
47
100
AcDbScale
 70
     0
300
10:1
140
10.0
141
1.0
290
     0
  0
SCALE
  5
58
102
{ACAD_REACTORS
330
47
102
}
330
47
100
AcDbScale
 70
     0
300
100:1
140
100.0
141
1.0
290
     0
  0
SCALE
  5
59
102
{ACAD_REACTORS
330
47
102
}
330
47
100
AcDbScale
 70
     0
300
1/128" = 1'-0"
140
0.0078125
141
12.0
290
     0
  0
SCALE
  5
5A
102
{ACAD_REACTORS
330
47
102
}
330
47
100
AcDbScale
 70
     0
300
1/64" = 1'-0"
140
0.015625
141
12.0
290
     0
  0
SCALE
  5
5B
102
{ACAD_REACTORS
330
47
102
}
330
47
100
AcDbScale
 70
     0
300
1/32" = 1'-0"
140
0.03125
141
12.0
290
     0
  0
SCALE
  5
5C
102
{ACAD_REACTORS
330
47
102
}
330
47
100
AcDbScale
 70
     0
300
1/16" = 1'-0"
140
0.0625
141
12.0
290
     0
  0
SCALE
  5
5D
102
{ACAD_REACTORS
330
47
102
}
330
47
100
AcDbScale
 70
     0
300
3/32" = 1'-0"
140
0.09375
141
12.0
290
     0
  0
SCALE
  5
5E
102
{ACAD_REACTORS
330
47
102
}
330
47
100
AcDbScale
 70
     0
300
1/8" = 1'-0"
140
0.125
141
12.0
290
     0
  0
SCALE
  5
5F
102
{ACAD_REACTORS
330
47
102
}
330
47
100
AcDbScale
 70
     0
300
3/16" = 1'-0"
140
0.1875
141
12.0
290
     0
  0
SCALE
  5
60
102
{ACAD_REACTORS
330
47
102
}
330
47
100
AcDbScale
 70
     0
300
1/4" = 1'-0"
140
0.25
141
12.0
290
     0
  0
SCALE
  5
61
102
{ACAD_REACTORS
330
47
102
}
330
47
100
AcDbScale
 70
     0
300
3/8" = 1'-0"
140
0.375
141
12.0
290
     0
  0
SCALE
  5
62
102
{ACAD_REACTORS
330
47
102
}
330
47
100
AcDbScale
 70
     0
300
1/2" = 1'-0"
140
0.5
141
12.0
290
     0
  0
SCALE
  5
63
102
{ACAD_REACTORS
330
47
102
}
330
47
100
AcDbScale
 70
     0
300
3/4" = 1'-0"
140
0.75
141
12.0
290
     0
  0
SCALE
  5
64
102
{ACAD_REACTORS
330
47
102
}
330
47
100
AcDbScale
 70
     0
300
1" = 1'-0"
140
1.0
141
12.0
290
     0
  0
SCALE
  5
65
102
{ACAD_REACTORS
330
47
102
}
330
47
100
AcDbScale
 70
     0
300
1-1/2" = 1'-0"
140
1.5
141
12.0
290
     0
  0
SCALE
  5
66
102
{ACAD_REACTORS
330
47
102
}
330
47
100
AcDbScale
 70
     0
300
3" = 1'-0"
140
3.0
141
12.0
290
     0
  0
SCALE
  5
67
102
{ACAD_REACTORS
330
47
102
}
330
47
100
AcDbScale
 70
     0
300
6" = 1'-0"
140
6.0
141
12.0
290
     0
  0
SCALE
  5
68
102
{ACAD_REACTORS
330
47
102
}
330
47
100
AcDbScale
 70
     0
300
1'-0" = 1'-0"
140
12.0
141
12.0
290
     0
  0
ENDSEC
  0
EOF
