  0
SECTION
  2
HEADER
  9
$ACADVER
  1
AC1014
  9
$ACADMAINTVER
 70
     9
  9
$DWGCODEPAGE
  3
ANSI_1252
  9
$INSBASE
 10
0.0
 20
0.0
 30
0.0
  9
$EXTMIN
 10
0.0
 20
0.0
 30
0.0
  9
$EXTMAX
 10
279.4
 20
215.9
 30
0.0
  9
$LIMMIN
 10
0.0
 20
0.0
  9
$LIMMAX
 10
279.4
 20
215.9
  9
$ORTHOMODE
 70
     0
  9
$REGENMODE
 70
     1
  9
$FILLMODE
 70
     1
  9
$QTEXTMODE
 70
     0
  9
$MIRRTEXT
 70
     1
  9
$DRAGMODE
 70
     2
  9
$LTSCALE
 40
1.0
  9
$OSMODE
 70
    37
  9
$ATTMODE
 70
     1
  9
$TEXTSIZE
 40
3.5
  9
$TRACEWID
 40
1.0
  9
$TEXTSTYLE
  7
STANDARD
  9
$CLAYER
  8
0
  9
$CELTYPE
  6
BYLAYER
  9
$CECOLOR
 62
   256
  9
$CELTSCALE
 40
1.0
  9
$DELOBJ
 70
     1
  9
$DISPSILH
 70
     0
  9
$DIMSCALE
 40
1.0
  9
$DIMASZ
 40
3.302
  9
$DIMEXO
 40
1.0
  9
$DIMDLI
 40
3.75
  9
$DIMRND
 40
0.0
  9
$DIMDLE
 40
0.0
  9
$DIMEXE
 40
1.0
  9
$DIMTP
 40
0.0
  9
$DIMTM
 40
0.0
  9
$DIMTXT
 40
3.5
  9
$DIMCEN
 40
2.5
  9
$DIMTSZ
 40
0.0
  9
$DIMTOL
 70
     0
  9
$DIMLIM
 70
     0
  9
$DIMTIH
 70
     1
  9
$DIMTOH
 70
     1
  9
$DIMSE1
 70
     0
  9
$DIMSE2
 70
     0
  9
$DIMTAD
 70
     1
  9
$DIMZIN
 70
     1
  9
$DIMBLK
  1

  9
$DIMASO
 70
     1
  9
$DIMSHO
 70
     1
  9
$DIMPOST
  1

  9
$DIMAPOST
  1

  9
$DIMALT
 70
     0
  9
$DIMALTD
 70
     3
  9
$DIMALTF
 40
0.0393700787
  9
$DIMLFAC
 40
2.0
  9
$DIMTOFL
 70
     1
  9
$DIMTVP
 40
0.0
  9
$DIMTIX
 70
     0
  9
$DIMSOXD
 70
     0
  9
$DIMSAH
 70
     0
  9
$DIMBLK1
  1

  9
$DIMBLK2
  1

  9
$DIMSTYLE
  2
ISO-25
  9
$DIMCLRD
 70
     0
  9
$DIMCLRE
 70
     0
  9
$DIMCLRT
 70
     0
  9
$DIMTFAC
 40
1.0
  9
$DIMGAP
 40
1.524
  9
$DIMJUST
 70
     0
  9
$DIMSD1
 70
     0
  9
$DIMSD2
 70
     0
  9
$DIMTOLJ
 70
     0
  9
$DIMTZIN
 70
     1
  9
$DIMALTZ
 70
     0
  9
$DIMALTTZ
 70
     0
  9
$DIMFIT
 70
     3
  9
$DIMUPT
 70
     0
  9
$DIMUNIT
 70
     2
  9
$DIMDEC
 70
     2
  9
$DIMTDEC
 70
     2
  9
$DIMALTU
 70
     2
  9
$DIMALTTD
 70
     3
  9
$DIMTXSTY
  7
STANDARD
  9
$DIMAUNIT
 70
     0
  9
$LUNITS
 70
     2
  9
$LUPREC
 70
     2
  9
$SKETCHINC
 40
1.0
  9
$FILLETRAD
 40
0.0
  9
$AUNITS
 70
     0
  9
$AUPREC
 70
     2
  9
$MENU
  1
.
  9
$ELEVATION
 40
0.0
  9
$PELEVATION
 40
0.0
  9
$THICKNESS
 40
0.0
  9
$LIMCHECK
 70
     0
  9
$CHAMFERA
 40
0.0
  9
$CHAMFERB
 40
0.0
  9
$CHAMFERC
 40
0.0
  9
$CHAMFERD
 40
0.0
  9
$SKPOLY
 70
     0
  9
$TDCREATE
 40
2459716.751707627
  9
$TDUPDATE
 40
2459716.751708195
  9
$TDINDWG
 40
0.0000000116
  9
$TDUSRTIMER
 40
0.0000000116
  9
$USRTIMER
 70
     1
  9
$ANGBASE
 50
0.0
  9
$ANGDIR
 70
     0
  9
$PDMODE
 70
     0
  9
$PDSIZE
 40
-1.0
  9
$PLINEWID
 40
0.0
  9
$COORDS
 70
     1
  9
$SPLFRAME
 70
     0
  9
$SPLINETYPE
 70
     6
  9
$SPLINESEGS
 70
     8
  9
$ATTDIA
 70
     0
  9
$ATTREQ
 70
     1
  9
$HANDLING
 70
     1
  9
$HANDSEED
  5
ED
  9
$SURFTAB1
 70
     6
  9
$SURFTAB2
 70
     6
  9
$SURFTYPE
 70
     6
  9
$SURFU
 70
     6
  9
$SURFV
 70
     6
  9
$UCSNAME
  2

  9
$UCSORG
 10
0.0
 20
0.0
 30
0.0
  9
$UCSXDIR
 10
1.0
 20
0.0
 30
0.0
  9
$UCSYDIR
 10
0.0
 20
1.0
 30
0.0
  9
$PUCSNAME
  2

  9
$PUCSORG
 10
0.0
 20
0.0
 30
0.0
  9
$PUCSXDIR
 10
1.0
 20
0.0
 30
0.0
  9
$PUCSYDIR
 10
0.0
 20
1.0
 30
0.0
  9
$USERI1
 70
     0
  9
$USERI2
 70
     0
  9
$USERI3
 70
     0
  9
$USERI4
 70
     0
  9
$USERI5
 70
     0
  9
$USERR1
 40
0.0
  9
$USERR2
 40
0.0
  9
$USERR3
 40
0.0
  9
$USERR4
 40
0.0
  9
$USERR5
 40
0.0
  9
$WORLDVIEW
 70
     1
  9
$SHADEDGE
 70
     3
  9
$SHADEDIF
 70
    70
  9
$TILEMODE
 70
     1
  9
$MAXACTVP
 70
    64
  9
$PINSBASE
 10
0.0
 20
0.0
 30
0.0
  9
$PLIMCHECK
 70
     0
  9
$PEXTMIN
 10
1.0000000000E+20
 20
1.0000000000E+20
 30
1.0000000000E+20
  9
$PEXTMAX
 10
-1.0000000000E+20
 20
-1.0000000000E+20
 30
-1.0000000000E+20
  9
$PLIMMIN
 10
0.0
 20
0.0
  9
$PLIMMAX
 10
420.0
 20
297.0
  9
$UNITMODE
 70
     0
  9
$VISRETAIN
 70
     1
  9
$PLINEGEN
 70
     0
  9
$PSLTSCALE
 70
     1
  9
$TREEDEPTH
 70
  3020
  9
$PICKSTYLE
 70
     1
  9
$CMLSTYLE
  2
STANDARD
  9
$CMLJUST
 70
     0
  9
$CMLSCALE
 40
20.0
  9
$PROXYGRAPHICS
 70
     1
  9
$MEASUREMENT
 70
     1
  0
ENDSEC
  0
SECTION
  2
CLASSES
  0
CLASS
  1
ACDBDICTIONARYWDFLT
  2
AcDbDictionaryWithDefault
  3
ObjectDBX Classes
 90
        0
280
     0
281
     0
  0
CLASS
  1
VISUALSTYLE
  2
AcDbVisualStyle
  3
ObjectDBX Classes
 90
     4095
280
     0
281
     0
  0
CLASS
  1
MATERIAL
  2
AcDbMaterial
  3
ObjectDBX Classes
 90
     1153
280
     0
281
     0
  0
CLASS
  1
SCALE
  2
AcDbScale
  3
ObjectDBX Classes
 90
     1153
280
     0
281
     0
  0
CLASS
  1
TABLESTYLE
  2
AcDbTableStyle
  3
ObjectDBX Classes
 90
     4095
280
     0
281
     0
  0
CLASS
  1
MLEADERSTYLE
  2
AcDbMLeaderStyle
  3
ACDB_MLEADERSTYLE_CLASS
 90
     4095
280
     0
281
     0
  0
CLASS
  1
SUN
  2
AcDbSun
  3
SCENEOE
 90
     1153
280
     0
281
     0
  0
CLASS
  1
XRECORD
  2
AcDbXrecord
  3
ObjectDBX Classes
 90
        0
280
     0
281
     0
  0
CLASS
  1
LWPOLYLINE
  2
AcDbPolyline
  3
ObjectDBX Classes
 90
        0
280
     0
281
     1
  0
CLASS
  1
HATCH
  2
AcDbHatch
  3
ObjectDBX Classes
 90
        0
280
     0
281
     1
  0
ENDSEC
  0
SECTION
  2
TABLES
  0
TABLE
  2
VPORT
  5
8
330
0
100
AcDbSymbolTable
 70
     1
  0
VPORT
  5
29
330
8
100
AcDbSymbolTableRecord
100
AcDbViewportTableRecord
  2
*ACTIVE
 70
     0
 10
0.0
 20
0.0
 11
1.0
 21
1.0
 12
139.7
 22
107.95
 13
0.0
 23
0.0
 14
10.0
 24
10.0
 15
10.0
 25
10.0
 16
0.0
 26
0.0
 36
1.0
 17
0.0
 27
0.0
 37
0.0
 40
215.9
 41
1.2941176471
 42
50.0
 43
0.0
 44
0.0
 50
0.0
 51
0.0
 71
     0
 72
  2000
 73
     1
 74
     3
 75
     0
 76
     0
 77
     0
 78
     0
  0
ENDTAB
  0
TABLE
  2
LTYPE
  5
5
330
0
100
AcDbSymbolTable
 70
     6
  0
LTYPE
  5
14
330
5
100
AcDbSymbolTableRecord
100
AcDbLinetypeTableRecord
  2
BYBLOCK
 70
     0
  3

 72
    65
 73
     0
 40
0.0
  0
LTYPE
  5
15
330
5
100
AcDbSymbolTableRecord
100
AcDbLinetypeTableRecord
  2
BYLAYER
 70
     0
  3

 72
    65
 73
     0
 40
0.0
  0
LTYPE
  5
16
330
5
100
AcDbSymbolTableRecord
100
AcDbLinetypeTableRecord
  2
CONTINUOUS
 70
     0
  3
Solid line
 72
    65
 73
     0
 40
0.0
  0
LTYPE
  5
5E
330
5
100
AcDbSymbolTableRecord
100
AcDbLinetypeTableRecord
  2
HIDDEN
 70
     0
  3
Hidden __ __ __ __ __ __ __ __ __ __ __ __ __ __
 72
    65
 73
     2
 40
1.905
 49
1.27
 74
     0
 49
-0.635
 74
     0
  0
LTYPE
  5
5F
330
5
100
AcDbSymbolTableRecord
100
AcDbLinetypeTableRecord
  2
PHANTOM
 70
     0
  3
Phantom ______  __  __  ______  __  __  ______
 72
    65
 73
     6
 40
12.7
 49
6.35
 74
     0
 49
-1.27
 74
     0
 49
1.27
 74
     0
 49
-1.27
 74
     0
 49
1.27
 74
     0
 49
-1.27
 74
     0
  0
LTYPE
  5
60
330
5
100
AcDbSymbolTableRecord
100
AcDbLinetypeTableRecord
  2
CENTER
 70
     0
  3
Center ____ _ ____ _ ____ _ ____ _ ____ _ ____
 72
    65
 73
     4
 40
10.16
 49
6.35
 74
     0
 49
-1.27
 74
     0
 49
1.27
 74
     0
 49
-1.27
 74
     0
  0
LTYPE
  5
61
330
5
100
AcDbSymbolTableRecord
100
AcDbLinetypeTableRecord
  2
CENTERX2
 70
     0
  3
Center (2x) ________  __  ________  __  _____
 72
    65
 73
     4
 40
20.32
 49
12.7
 74
     0
 49
-2.54
 74
     0
 49
2.54
 74
     0
 49
-2.54
 74
     0
  0
LTYPE
  5
62
330
5
100
AcDbSymbolTableRecord
100
AcDbLinetypeTableRecord
  2
DOT2
 70
     0
  3
Dot (.5x) ........................................
 72
    65
 73
     2
 40
0.635
 49
0.0
 74
     0
 49
-0.635
 74
     0
  0
ENDTAB
  0
TABLE
  2
LAYER
  5
2
330
0
100
AcDbSymbolTable
 70
     1
  0
LAYER
  5
10
330
2
100
AcDbSymbolTableRecord
100
AcDbLayerTableRecord
  2
0
 70
     0
 62
     7
  6
CONTINUOUS
  0
ENDTAB
  0
TABLE
  2
STYLE
  5
3
330
0
100
AcDbSymbolTable
 70
     1
  0
STYLE
  5
11
330
3
100
AcDbSymbolTableRecord
100
AcDbTextStyleTableRecord
  2
STANDARD
 70
     0
 40
0.0
 41
1.0
 50
0.0
 71
     0
 42
3.5
  3
GOTHIC.TTF
  4

1001
ACAD
1000
CENTURY GOTHIC
1071
       34
  0
ENDTAB
  0
TABLE
  2
VIEW
  5
6
330
0
100
AcDbSymbolTable
 70
     0
  0
ENDTAB
  0
TABLE
  2
UCS
  5
7
330
0
100
AcDbSymbolTable
 70
     0
  0
ENDTAB
  0
TABLE
  2
APPID
  5
9
330
0
100
AcDbSymbolTable
 70
     1
  0
APPID
  5
12
330
9
100
AcDbSymbolTableRecord
100
AcDbRegAppTableRecord
  2
ACAD
 70
     0
  0
ENDTAB
  0
TABLE
  2
DIMSTYLE
  5
A
330
0
100
AcDbSymbolTable
 70
     1
  0
DIMSTYLE
105
27
330
A
100
AcDbSymbolTableRecord
100
AcDbDimStyleTableRecord
  2
ISO-25
 70
     0
  3

  4

  5

  6

  7

 40
1.0
 41
2.5
 42
0.625
 43
3.75
 44
1.25
 45
0.0
 46
0.0
 47
0.0
 48
0.0
140
2.5
141
2.5
142
0.0
143
0.0393700787
144
1.0
145
0.0
146
1.0
147
0.625
 71
     0
 72
     0
 73
     0
 74
     0
 75
     0
 76
     0
 77
     1
 78
     8
170
     0
171
     3
172
     1
173
     0
174
     0
175
     0
176
     0
177
     0
178
     0
270
     2
271
     2
272
     2
273
     2
274
     3
340
11
275
     0
280
     0
281
     0
282
     0
283
     0
284
     8
285
     0
286
     0
287
     3
288
     0
  0
ENDTAB
  0
TABLE
  2
BLOCK_RECORD
  5
1
330
0
100
AcDbSymbolTable
 70
     1
  0
BLOCK_RECORD
  5
1F
330
1
100
AcDbSymbolTableRecord
100
AcDbBlockTableRecord
  2
*MODEL_SPACE
  0
BLOCK_RECORD
  5
1B
330
1
100
AcDbSymbolTableRecord
100
AcDbBlockTableRecord
  2
*PAPER_SPACE
  0
BLOCK_RECORD
  5
23
330
1
100
AcDbSymbolTableRecord
100
AcDbBlockTableRecord
  2
*PAPER_SPACE0
  0
ENDTAB
  0
ENDSEC
  0
SECTION
  2
BLOCKS
  0
BLOCK
  5
20
330
1F
100
AcDbEntity
  8
0
100
AcDbBlockBegin
  2
*MODEL_SPACE
 70
     0
 10
0.0
 20
0.0
 30
0.0
  3
*MODEL_SPACE
  1

  0
ENDBLK
  5
21
330
1F
100
AcDbEntity
  8
0
100
AcDbBlockEnd
  0
BLOCK
  5
1C
330
1B
100
AcDbEntity
 67
     1
  8
0
100
AcDbBlockBegin
  2
*PAPER_SPACE
 70
     0
 10
0.0
 20
0.0
 30
0.0
  3
*PAPER_SPACE
  1

  0
ENDBLK
  5
1D
330
1B
100
AcDbEntity
 67
     1
  8
0
100
AcDbBlockEnd
  0
BLOCK
  5
24
330
23
100
AcDbEntity
  8
0
100
AcDbBlockBegin
  2
*PAPER_SPACE0
 70
     0
 10
0.0
 20
0.0
 30
0.0
  3
*PAPER_SPACE0
  1

  0
ENDBLK
  5
25
330
23
100
AcDbEntity
  8
0
100
AcDbBlockEnd
  0
ENDSEC
  0
SECTION
  2
ENTITIES
  0
LINE
  5
63
330
1F
100
AcDbEntity
  8
0
  6
CONTINUOUS
 62
     7
100
AcDbLine
 10
137.1861015115
 20
139.5700000767
 30
0.0
 11
137.2073060531
 21
139.5700000767
 31
0.0
  0
LINE
  5
64
330
1F
100
AcDbEntity
  8
0
  6
CONTINUOUS
 62
     7
100
AcDbLine
 10
137.1861015115
 20
139.5700000767
 30
0.0
 11
137.1861015115
 21
139.61240916
 31
0.0
  0
LINE
  5
65
330
1F
100
AcDbEntity
  8
0
  6
CONTINUOUS
 62
     7
100
AcDbLine
 10
132.2563223671
 20
142.5399085256
 30
0.0
 11
132.2351178255
 21
142.5399085256
 31
0.0
  0
LINE
  5
66
330
1F
100
AcDbEntity
  8
0
  6
CONTINUOUS
 62
     7
100
AcDbLine
 10
132.2563223671
 20
142.5399085256
 30
0.0
 11
132.2563223671
 21
142.4974994423
 31
0.0
  0
LINE
  5
67
330
1F
100
AcDbEntity
  8
0
  6
CONTINUOUS
 62
     7
100
AcDbLine
 10
131.2392074527
 20
142.9976102371
 30
0.0
 11
131.2604119943
 21
142.9976102371
 31
0.0
  0
LINE
  5
68
330
1F
100
AcDbEntity
  8
0
  6
CONTINUOUS
 62
     7
100
AcDbLine
 10
131.2392074527
 20
142.9976102371
 30
0.0
 11
131.2392074527
 21
143.0400193203
 31
0.0
  0
LINE
  5
69
330
1F
100
AcDbEntity
  8
0
  6
CONTINUOUS
 62
     7
100
AcDbLine
 10
132.2563223671
 20
142.5399085256
 30
0.0
 11
132.2775269087
 21
142.5399085256
 31
0.0
  0
LINE
  5
6A
330
1F
100
AcDbEntity
  8
0
  6
CONTINUOUS
 62
     7
100
AcDbLine
 10
132.2563223671
 20
142.5399085256
 30
0.0
 11
132.2563223671
 21
142.5823176088
 31
0.0
  0
LINE
  5
6B
330
1F
100
AcDbEntity
  8
0
  6
CONTINUOUS
 62
     7
100
AcDbLine
 10
132.2563223671
 20
142.5399085256
 30
0.0
 11
132.2351178255
 21
142.5399085256
 31
0.0
  0
LINE
  5
6C
330
1F
100
AcDbEntity
  8
0
  6
CONTINUOUS
 62
     7
100
AcDbLine
 10
132.2563223671
 20
142.5399085256
 30
0.0
 11
132.2563223671
 21
142.4974994423
 31
0.0
  0
LINE
  5
6D
330
1F
100
AcDbEntity
  8
0
  6
CONTINUOUS
 62
     7
100
AcDbLine
 10
132.2563223671
 20
142.5399085256
 30
0.0
 11
132.2351178255
 21
142.5399085256
 31
0.0
  0
LINE
  5
6E
330
1F
100
AcDbEntity
  8
0
  6
CONTINUOUS
 62
     7
100
AcDbLine
 10
132.2563223671
 20
142.5399085256
 30
0.0
 11
132.2563223671
 21
142.5823176088
 31
0.0
  0
LINE
  5
6F
330
1F
100
AcDbEntity
  8
0
  6
CONTINUOUS
 62
     7
100
AcDbLine
 10
132.2563223671
 20
142.5399085256
 30
0.0
 11
132.2351178255
 21
142.5399085256
 31
0.0
  0
LINE
  5
70
330
1F
100
AcDbEntity
  8
0
  6
CONTINUOUS
 62
     7
100
AcDbLine
 10
132.2563223671
 20
142.5399085256
 30
0.0
 11
132.2563223671
 21
142.4974994423
 31
0.0
  0
POINT
  5
71
330
1F
100
AcDbEntity
  8
0
  6
CONTINUOUS
 62
     7
100
AcDbPoint
 10
137.1861015115
 20
139.5700000767
 30
0.0
  0
POINT
  5
72
330
1F
100
AcDbEntity
  8
0
  6
CONTINUOUS
 62
     7
100
AcDbPoint
 10
132.2563223671
 20
142.5399085256
 30
0.0
  0
POINT
  5
73
330
1F
100
AcDbEntity
  8
0
  6
CONTINUOUS
 62
     7
100
AcDbPoint
 10
131.2392074527
 20
142.9976102371
 30
0.0
  0
POINT
  5
74
330
1F
100
AcDbEntity
  8
0
  6
CONTINUOUS
 62
     7
100
AcDbPoint
 10
132.2563223671
 20
142.5399085256
 30
0.0
  0
POINT
  5
75
330
1F
100
AcDbEntity
  8
0
  6
CONTINUOUS
 62
     7
100
AcDbPoint
 10
132.2563223671
 20
142.5399085256
 30
0.0
  0
POINT
  5
76
330
1F
100
AcDbEntity
  8
0
  6
CONTINUOUS
 62
     7
100
AcDbPoint
 10
132.2563223671
 20
142.5399085256
 30
0.0
  0
POINT
  5
77
330
1F
100
AcDbEntity
  8
0
  6
CONTINUOUS
 62
     7
100
AcDbPoint
 10
132.2563223671
 20
142.5399085256
 30
0.0
  0
CIRCLE
  5
78
330
1F
100
AcDbEntity
  8
0
  6
CONTINUOUS
 62
     7
100
AcDbCircle
 10
132.2563223671
 20
142.5399085256
 30
0.0
 40
44.58578643762692
  0
CIRCLE
  5
79
330
1F
100
AcDbEntity
  8
0
  6
CONTINUOUS
 62
     7
100
AcDbCircle
 10
132.2563223671
 20
142.5399085256
 30
0.0
 40
45.2928932188135
  0
CIRCLE
  5
7A
330
1F
100
AcDbEntity
  8
0
  6
CONTINUOUS
 62
     7
100
AcDbCircle
 10
132.2563223671
 20
142.5399085256
 30
0.0
 40
49.70710678118655
  0
CIRCLE
  5
7B
330
1F
100
AcDbEntity
  8
0
  6
CONTINUOUS
 62
     7
100
AcDbCircle
 10
132.2563223671
 20
142.5399085256
 30
0.0
 40
50.00000000000003
  0
LINE
  5
7C
330
1F
100
AcDbEntity
  8
0
  6
CONTINUOUS
 62
     7
100
AcDbLine
 10
228.4333588766
 20
107.5399085256
 30
0.0
 11
232.4333588766
 21
107.5399085256
 31
0.0
  0
LINE
  5
7D
330
1F
100
AcDbEntity
  8
0
  6
CONTINUOUS
 62
     7
100
AcDbLine
 10
232.4333588766
 20
177.5399085256
 30
0.0
 11
228.4333588766
 21
177.5399085256
 31
0.0
  0
ARC
  5
7E
330
1F
100
AcDbEntity
  8
0
  6
CONTINUOUS
 62
     7
100
AcDbCircle
 10
272.847572439
 20
93.5399085256
 30
0.0
 40
1.0
100
AcDbArc
 50
225.0
 51
270.0
  0
ARC
  5
7F
330
1F
100
AcDbEntity
  8
0
  6
CONTINUOUS
 62
     7
100
AcDbCircle
 10
272.847572439
 20
191.5399085256
 30
0.0
 40
1.0
100
AcDbArc
 50
90.0
 51
135.0
  0
LINE
  5
80
330
1F
100
AcDbEntity
  8
0
  6
CONTINUOUS
 62
     7
100
AcDbLine
 10
272.847572439
 20
92.5399085256
 30
0.0
 11
287.0191453143
 21
92.5399085256
 31
0.0
  0
LINE
  5
81
330
1F
100
AcDbEntity
  8
0
  6
CONTINUOUS
 62
     7
100
AcDbLine
 10
287.0191453143
 20
192.5399085256
 30
0.0
 11
272.847572439
 21
192.5399085256
 31
0.0
  0
ARC
  5
82
330
1F
100
AcDbEntity
  8
0
  6
CONTINUOUS
 62
     7
100
AcDbCircle
 10
287.0191453143
 20
191.5399085256
 30
0.0
 40
1.000000000000008
100
AcDbArc
 50
45.0
 51
90.0
  0
ARC
  5
83
330
1F
100
AcDbEntity
  8
0
  6
CONTINUOUS
 62
     7
100
AcDbCircle
 10
287.0191453143
 20
93.5399085256
 30
0.0
 40
1.000000000000018
100
AcDbArc
 50
270.0
 51
315.0
  0
LINE
  5
84
330
1F
100
AcDbEntity
  8
0
  6
CONTINUOUS
 62
     7
100
AcDbLine
 10
272.1404656578
 20
192.2470153068
 30
0.0
 11
267.7262520954
 21
187.8328017444
 31
0.0
  0
LINE
  5
85
330
1F
100
AcDbEntity
  8
0
  6
CONTINUOUS
 62
     7
100
AcDbLine
 10
267.7262520954
 20
97.2470153068
 30
0.0
 11
272.1404656578
 21
92.8328017444
 31
0.0
  0
LINE
  5
86
330
1F
100
AcDbEntity
  8
0
  6
CONTINUOUS
 62
     7
100
AcDbLine
 10
287.7262520954
 20
92.8328017444
 30
0.0
 11
292.1404656578
 21
97.2470153068
 31
0.0
  0
LINE
  5
87
330
1F
100
AcDbEntity
  8
0
  6
CONTINUOUS
 62
     7
100
AcDbLine
 10
292.1404656578
 20
187.8328017444
 30
0.0
 11
287.7262520954
 21
192.2470153068
 31
0.0
  0
ARC
  5
88
330
1F
100
AcDbEntity
  8
0
  6
CONTINUOUS
 62
     7
100
AcDbCircle
 10
268.4333588766
 20
187.1256949632
 30
0.0
 40
1.000000000000008
100
AcDbArc
 50
135.0
 51
180.0
  0
ARC
  5
89
330
1F
100
AcDbEntity
  8
0
  6
CONTINUOUS
 62
     7
100
AcDbCircle
 10
268.4333588766
 20
97.9541220879
 30
0.0
 40
1.000000000000008
100
AcDbArc
 50
180.0
 51
225.0
  0
ARC
  5
8A
330
1F
100
AcDbEntity
  8
0
  6
CONTINUOUS
 62
     7
100
AcDbCircle
 10
291.4333588766
 20
187.1256949632
 30
0.0
 40
1.000000000000057
100
AcDbArc
 50
0.0
 51
45.0
  0
ARC
  5
8B
330
1F
100
AcDbEntity
  8
0
  6
CONTINUOUS
 62
     7
100
AcDbCircle
 10
291.4333588766
 20
97.9541220879
 30
0.0
 40
1.000000000000057
100
AcDbArc
 50
315.0
 51
0.0
  0
LINE
  5
8C
330
1F
100
AcDbEntity
  8
0
  6
CONTINUOUS
 62
     7
100
AcDbLine
 10
232.4333588766
 20
142.5399085256
 30
0.0
 11
232.4333588766
 21
107.5399085256
 31
0.0
  0
LINE
  5
8D
330
1F
100
AcDbEntity
  8
0
  6
CONTINUOUS
 62
     7
100
AcDbLine
 10
232.4333588766
 20
177.5399085256
 30
0.0
 11
232.4333588766
 21
142.5399085256
 31
0.0
  0
LINE
  5
8E
330
1F
100
AcDbEntity
  8
0
  6
CONTINUOUS
 62
     7
100
AcDbLine
 10
228.4333588766
 20
142.5399085256
 30
0.0
 11
228.4333588766
 21
107.5399085256
 31
0.0
  0
LINE
  5
8F
330
1F
100
AcDbEntity
  8
0
  6
CONTINUOUS
 62
     7
100
AcDbLine
 10
228.4333588766
 20
177.5399085256
 30
0.0
 11
228.4333588766
 21
142.5399085256
 31
0.0
  0
LINE
  5
90
330
1F
100
AcDbEntity
  8
0
  6
CONTINUOUS
 62
     7
100
AcDbLine
 10
267.4333588766
 20
97.9541220879
 30
0.0
 11
267.4333588766
 21
187.1256949632
 31
0.0
  0
LINE
  5
91
330
1F
100
AcDbEntity
  8
0
  6
CONTINUOUS
 62
     7
100
AcDbLine
 10
292.4333588766
 20
187.1256949632
 30
0.0
 11
292.4333588766
 21
97.9541220879
 31
0.0
  0
LINE
  5
92
330
1F
100
AcDbEntity
  8
0
  6
CONTINUOUS
 62
     7
100
AcDbLine
 10
236.9057588766
 20
155.0409085256
 30
0.0
 11
236.9057588766
 21
155.0399085256
 31
0.0
  0
LINE
  5
93
330
1F
100
AcDbEntity
  8
0
  6
CONTINUOUS
 62
     7
100
AcDbLine
 10
239.4333588766
 20
155.0409085256
 30
0.0
 11
239.4333588766
 21
155.0399085256
 31
0.0
  0
SPLINE
  5
94
330
1F
100
AcDbEntity
  8
0
  6
CONTINUOUS
 62
     7
100
AcDbSpline
210
0.0
220
0.0
230
1.0
 70
    24
 71
     3
 72
    14
 73
    10
 74
     0
 42
0.00000001
 43
0.00000001
 40
0.0
 40
0.0
 40
0.0
 40
0.0
 40
0.0921005365871966
 40
0.1885811201974384
 40
0.2948525773012127
 40
0.4131718684170211
 40
0.5898806476230779
 40
0.7865010052660263
 40
1.0
 40
1.0
 40
1.0
 40
1.0
 10
239.43335887663
 20
155.0409085255765
 30
0.0
 10
239.2600926592295
 20
155.0409085255765
 30
0.0
 10
238.9053201619073
 20
155.0409085255765
 30
0.0
 10
238.4192688784932
 20
155.0409085255765
 30
0.0
 10
237.9893152939528
 20
155.0409085255764
 30
0.0
 10
237.5701719057788
 20
155.0409085255765
 30
0.0
 10
237.2122208678766
 20
155.0409085255764
 30
0.0
 10
236.9546837663077
 20
155.0409085255765
 30
0.0
 10
236.9225085678667
 20
155.0409085255765
 30
0.0
 10
236.90575887663
 20
155.0409085255764
 30
0.0
  0
LINE
  5
95
330
1F
100
AcDbEntity
  8
0
  6
CONTINUOUS
 62
     7
100
AcDbLine
 10
241.9609588766
 20
155.0409085256
 30
0.0
 11
241.9609588766
 21
155.0399085256
 31
0.0
  0
SPLINE
  5
96
330
1F
100
AcDbEntity
  8
0
  6
CONTINUOUS
 62
     7
100
AcDbSpline
210
0.0
220
0.0
230
1.0
 70
    24
 71
     3
 72
    14
 73
    10
 74
     0
 42
0.00000001
 43
0.00000001
 40
0.0
 40
0.0
 40
0.0
 40
0.0
 40
0.2134989947339743
 40
0.4101193523769238
 40
0.5868281315829813
 40
0.7051474226987896
 40
0.8114188798025631
 40
0.9078994634128043
 40
1.0
 40
1.0
 40
1.0
 40
1.0
 10
241.96095887663
 20
155.0409085255764
 30
0.0
 10
241.9442091853932
 20
155.0409085255764
 30
0.0
 10
241.9120339869523
 20
155.0409085255764
 30
0.0
 10
241.6544968853834
 20
155.0409085255765
 30
0.0
 10
241.2965458474812
 20
155.0409085255764
 30
0.0
 10
240.8774024593071
 20
155.0409085255765
 30
0.0
 10
240.4474488747667
 20
155.0409085255764
 30
0.0
 10
239.9613975913527
 20
155.0409085255764
 30
0.0
 10
239.6066250940304
 20
155.0409085255765
 30
0.0
 10
239.43335887663
 20
155.0409085255765
 30
0.0
  0
LINE
  5
97
330
1F
100
AcDbEntity
  8
0
  6
CONTINUOUS
 62
     7
100
AcDbLine
 10
267.4333588766
 20
130.0399085256
 30
0.0
 11
232.4333588766
 21
130.0399085256
 31
0.0
  0
LINE
  5
98
330
1F
100
AcDbEntity
  8
0
  6
CONTINUOUS
 62
     7
100
AcDbLine
 10
232.4333588766
 20
135.0399085256
 30
0.0
 11
267.4333588766
 21
135.0399085256
 31
0.0
  0
LINE
  5
99
330
1F
100
AcDbEntity
  8
0
  6
CONTINUOUS
 62
     7
100
AcDbLine
 10
267.4333588766
 20
150.0399085256
 30
0.0
 11
232.4333588766
 21
150.0399085256
 31
0.0
  0
LINE
  5
9A
330
1F
100
AcDbEntity
  8
0
  6
CONTINUOUS
 62
     7
100
AcDbLine
 10
232.4333588766
 20
155.0399085256
 30
0.0
 11
267.4333588766
 21
155.0399085256
 31
0.0
  0
LINE
  5
9B
330
1F
100
AcDbEntity
  8
0
  6
CONTINUOUS
 62
     7
100
AcDbLine
 10
272.847572439
 20
142.5399085256
 30
0.0
 11
272.847572439
 21
92.5399085256
 31
0.0
  0
LINE
  5
9C
330
1F
100
AcDbEntity
  8
0
  6
CONTINUOUS
 62
     7
100
AcDbLine
 10
272.847572439
 20
192.5399085256
 30
0.0
 11
272.847572439
 21
142.5399085256
 31
0.0
  0
LINE
  5
9D
330
1F
100
AcDbEntity
  8
0
  6
CONTINUOUS
 62
     7
100
AcDbLine
 10
272.1404656578
 20
92.8328017444
 30
0.0
 11
272.1404656578
 21
192.2470153068
 31
0.0
  0
LINE
  5
9E
330
1F
100
AcDbEntity
  8
0
  6
CONTINUOUS
 62
     7
100
AcDbLine
 10
287.0191453143
 20
92.5399085256
 30
0.0
 11
287.0191453143
 21
192.5399085256
 31
0.0
  0
LINE
  5
9F
330
1F
100
AcDbEntity
  8
0
  6
CONTINUOUS
 62
     7
100
AcDbLine
 10
287.7262520954
 20
142.5399085256
 30
0.0
 11
287.7262520954
 21
92.8328017444
 31
0.0
  0
LINE
  5
A0
330
1F
100
AcDbEntity
  8
0
  6
CONTINUOUS
 62
     7
100
AcDbLine
 10
287.7262520954
 20
192.2470153068
 30
0.0
 11
287.7262520954
 21
142.5399085256
 31
0.0
  0
LINE
  5
A1
330
1F
100
AcDbEntity
  8
0
  6
CONTINUOUS
 62
     7
100
AcDbLine
 10
267.7262520954
 20
187.8328017444
 30
0.0
 11
267.7262520954
 21
97.2470153068
 31
0.0
  0
LINE
  5
A2
330
1F
100
AcDbEntity
  8
0
  6
CONTINUOUS
 62
     7
100
AcDbLine
 10
292.1404656578
 20
97.2470153068
 30
0.0
 11
292.1404656578
 21
187.8328017444
 31
0.0
  0
LINE
  5
A3
330
1F
100
AcDbEntity
  8
0
  6
CONTINUOUS
 62
     7
100
AcDbLine
 10
132.2563223671
 20
47.5775715145
 30
0.0
 11
132.2775269087
 21
47.5775715145
 31
0.0
  0
LINE
  5
A4
330
1F
100
AcDbEntity
  8
0
  6
CONTINUOUS
 62
     7
100
AcDbLine
 10
132.2563223671
 20
47.5775715145
 30
0.0
 11
132.2563223671
 21
47.6199805978
 31
0.0
  0
POINT
  5
A5
330
1F
100
AcDbEntity
  8
0
  6
CONTINUOUS
 62
     7
100
AcDbPoint
 10
132.2563223671
 20
47.5775715145
 30
0.0
  0
LINE
  5
A6
330
1F
100
AcDbEntity
  8
0
  6
CONTINUOUS
 62
     7
100
AcDbLine
 10
97.2563223671
 20
58.5775715145
 30
0.0
 11
97.2563223671
 21
54.5775715145
 31
0.0
  0
LINE
  5
A7
330
1F
100
AcDbEntity
  8
0
  6
CONTINUOUS
 62
     7
100
AcDbLine
 10
167.2563223671
 20
54.5775715145
 30
0.0
 11
167.2563223671
 21
58.5775715145
 31
0.0
  0
ARC
  5
A8
330
1F
100
AcDbEntity
  8
0
  6
CONTINUOUS
 62
     7
100
AcDbCircle
 10
83.2563223671
 20
14.1633579522
 30
0.0
 40
1.0
100
AcDbArc
 50
135.0
 51
180.0
  0
ARC
  5
A9
330
1F
100
AcDbEntity
  8
0
  6
CONTINUOUS
 62
     7
100
AcDbCircle
 10
181.2563223671
 20
14.1633579522
 30
0.0
 40
1.0
100
AcDbArc
 50
0.0
 51
45.0
  0
LINE
  5
AA
330
1F
100
AcDbEntity
  8
0
  6
CONTINUOUS
 62
     7
100
AcDbLine
 10
82.2563223671
 20
14.1633579522
 30
0.0
 11
82.2563223671
 21
-0.0082149231
 31
0.0
  0
LINE
  5
AB
330
1F
100
AcDbEntity
  8
0
  6
CONTINUOUS
 62
     7
100
AcDbLine
 10
182.2563223671
 20
-0.0082149231
 30
0.0
 11
182.2563223671
 21
14.1633579522
 31
0.0
  0
ARC
  5
AC
330
1F
100
AcDbEntity
  8
0
  6
CONTINUOUS
 62
     7
100
AcDbCircle
 10
181.2563223671
 20
-0.0082149231
 30
0.0
 40
1.000000000000002
100
AcDbArc
 50
315.0
 51
0.0
  0
ARC
  5
AD
330
1F
100
AcDbEntity
  8
0
  6
CONTINUOUS
 62
     7
100
AcDbCircle
 10
83.2563223671
 20
-0.0082149231
 30
0.0
 40
1.000000000000002
100
AcDbArc
 50
180.0
 51
225.0
  0
LINE
  5
AE
330
1F
100
AcDbEntity
  8
0
  6
CONTINUOUS
 62
     7
100
AcDbLine
 10
181.9634291483
 20
14.8704647334
 30
0.0
 11
177.5492155859
 21
19.2846782957
 31
0.0
  0
LINE
  5
AF
330
1F
100
AcDbEntity
  8
0
  6
CONTINUOUS
 62
     7
100
AcDbLine
 10
86.9634291483
 20
19.2846782957
 30
0.0
 11
82.5492155859
 21
14.8704647334
 31
0.0
  0
LINE
  5
B0
330
1F
100
AcDbEntity
  8
0
  6
CONTINUOUS
 62
     7
100
AcDbLine
 10
82.5492155859
 20
-0.7153217043
 30
0.0
 11
86.9634291483
 21
-5.1295352666
 31
0.0
  0
LINE
  5
B1
330
1F
100
AcDbEntity
  8
0
  6
CONTINUOUS
 62
     7
100
AcDbLine
 10
177.5492155859
 20
-5.1295352666
 30
0.0
 11
181.9634291483
 21
-0.7153217043
 31
0.0
  0
ARC
  5
B2
330
1F
100
AcDbEntity
  8
0
  6
CONTINUOUS
 62
     7
100
AcDbCircle
 10
176.8421088047
 20
18.5775715145
 30
0.0
 40
1.000000000000008
100
AcDbArc
 50
45.0
 51
90.0
  0
ARC
  5
B3
330
1F
100
AcDbEntity
  8
0
  6
CONTINUOUS
 62
     7
100
AcDbCircle
 10
87.6705359295
 20
18.5775715145
 30
0.0
 40
1.0
100
AcDbArc
 50
90.0
 51
135.0
  0
ARC
  5
B4
330
1F
100
AcDbEntity
  8
0
  6
CONTINUOUS
 62
     7
100
AcDbCircle
 10
176.8421088047
 20
-4.4224284855
 30
0.0
 40
1.000000000000019
100
AcDbArc
 50
270.0
 51
315.0
  0
ARC
  5
B5
330
1F
100
AcDbEntity
  8
0
  6
CONTINUOUS
 62
     7
100
AcDbCircle
 10
87.6705359295
 20
-4.4224284855
 30
0.0
 40
0.9999999999999993
100
AcDbArc
 50
225.0
 51
270.0
  0
LINE
  5
B6
330
1F
100
AcDbEntity
  8
0
  6
CONTINUOUS
 62
     7
100
AcDbLine
 10
167.2563223671
 20
54.5775715145
 30
0.0
 11
97.2563223671
 21
54.5775715145
 31
0.0
  0
LINE
  5
B7
330
1F
100
AcDbEntity
  8
0
  6
CONTINUOUS
 62
     7
100
AcDbLine
 10
167.2563223671
 20
58.5775715145
 30
0.0
 11
97.2563223671
 21
58.5775715145
 31
0.0
  0
LINE
  5
B8
330
1F
100
AcDbEntity
  8
0
  6
CONTINUOUS
 62
     7
100
AcDbLine
 10
176.8421088047
 20
19.5775715145
 30
0.0
 11
87.6705359295
 21
19.5775715145
 31
0.0
  0
LINE
  5
B9
330
1F
100
AcDbEntity
  8
0
  6
CONTINUOUS
 62
     7
100
AcDbLine
 10
176.8421088047
 20
-5.4224284855
 30
0.0
 11
87.6705359307
 21
-5.4224284855
 31
0.0
  0
SPLINE
  5
BA
330
1F
100
AcDbEntity
  8
0
  6
CONTINUOUS
 62
     7
100
AcDbSpline
210
0.0
220
0.0
230
1.0
 70
     8
 71
     3
 72
    14
 73
    10
 74
     0
 42
0.00000001
 43
0.00000001
 40
0.0
 40
0.0
 40
0.0
 40
0.0
 40
0.215288339025435
 40
0.4132900122493511
 40
0.5907059114416927
 40
0.7089580778432235
 40
0.8145502476589145
 40
0.9097108597207068
 40
1.0
 40
1.0
 40
1.0
 40
1.0
 10
132.2563223671015
 20
45.2170715145436
 30
0.0
 10
131.8714717266791
 20
45.23269827724782
 30
0.0
 10
131.1326721864237
 20
45.26269704531244
 30
0.0
 10
130.0992360399714
 20
45.50287311454319
 30
0.0
 10
129.2786397729677
 20
45.8367416129779
 30
0.0
 10
128.6726229513762
 20
46.22794493541782
 30
0.0
 10
128.2648659467764
 20
46.62895053795544
 30
0.0
 10
127.9841611780604
 20
47.08288350206361
 30
0.0
 10
127.9469427476473
 20
47.41558872376341
 30
0.0
 10
127.9288223671015
 20
47.5775715145436
 30
0.0
  0
SPLINE
  5
BB
330
1F
100
AcDbEntity
  8
0
  6
CONTINUOUS
 62
     7
100
AcDbSpline
210
0.0
220
0.0
230
1.0
 70
     8
 71
     3
 72
    14
 73
    10
 74
     0
 42
0.00000001
 43
0.00000001
 40
0.0
 40
0.0
 40
0.0
 40
0.0
 40
0.0902891402792949
 40
0.1854497523410859
 40
0.291041922156777
 40
0.4092940885583086
 40
0.5867099877506495
 40
0.7847116609745654
 40
0.9999999999999999
 40
0.9999999999999999
 40
0.9999999999999999
 40
0.9999999999999999
 10
136.5838223671015
 20
47.5775715145436
 30
0.0
 10
136.5657019865558
 20
47.4155887237634
 30
0.0
 10
136.5284835561427
 20
47.08288350206362
 30
0.0
 10
136.2477787874266
 20
46.62895053795546
 30
0.0
 10
135.8400217828269
 20
46.2279449354178
 30
0.0
 10
135.2340049612354
 20
45.8367416129779
 30
0.0
 10
134.4134086942317
 20
45.5028731145432
 30
0.0
 10
133.3799725477794
 20
45.26269704531244
 30
0.0
 10
132.6411730075239
 20
45.23269827724781
 30
0.0
 10
132.2563223671015
 20
45.2170715145436
 30
0.0
  0
SPLINE
  5
BC
330
1F
100
AcDbEntity
  8
0
  6
CONTINUOUS
 62
     7
100
AcDbSpline
210
0.0
220
0.0
230
1.0
 70
     8
 71
     3
 72
    14
 73
    10
 74
     0
 42
0.00000001
 43
0.00000001
 40
0.0
 40
0.0
 40
0.0
 40
0.0
 40
0.213498994733975
 40
0.410119352376925
 40
0.5868281315829822
 40
0.7051474226987903
 40
0.8114188798025637
 40
0.9078994634128043
 40
1.0
 40
1.0
 40
1.0
 40
1.0
 10
132.2563223671015
 20
50.10517151454361
 30
0.0
 10
132.6566082203694
 20
50.08842182330687
 30
0.0
 10
133.4255344399631
 20
50.05624662486586
 30
0.0
 10
134.5008914621681
 20
49.79870952329698
 30
0.0
 10
135.3544013733622
 20
49.44075848539479
 30
0.0
 10
135.9843077993281
 20
49.02161509722076
 30
0.0
 10
136.4083079538082
 20
48.59166151268036
 30
0.0
 10
136.6992203473589
 20
48.10561022926626
 30
0.0
 10
136.7375853868558
 20
47.75083773194408
 30
0.0
 10
136.7563223671015
 20
47.57757151454361
 30
0.0
  0
SPLINE
  5
BD
330
1F
100
AcDbEntity
  8
0
  6
CONTINUOUS
 62
     7
100
AcDbSpline
210
0.0
220
0.0
230
1.0
 70
     8
 71
     3
 72
    14
 73
    10
 74
     0
 42
0.00000001
 43
0.00000001
 40
0.0
 40
0.0
 40
0.0
 40
0.0
 40
0.0921005365871966
 40
0.1885811201974381
 40
0.294852577301212
 40
0.4131718684170202
 40
0.5898806476230772
 40
0.7865010052660264
 40
1.0
 40
1.0
 40
1.0
 40
1.0
 10
136.7563223671015
 20
47.5775715145436
 30
0.0
 10
136.7375853868558
 20
47.40430529714313
 30
0.0
 10
136.6992203473589
 20
47.04953279982094
 30
0.0
 10
136.4083079538082
 20
46.56348151640685
 30
0.0
 10
135.9843077993281
 20
46.13352793186644
 30
0.0
 10
135.3544013733622
 20
45.71438454369241
 30
0.0
 10
134.5008914621681
 20
45.35643350579021
 30
0.0
 10
133.4255344399631
 20
45.09889640422135
 30
0.0
 10
132.6566082203694
 20
45.06672120578033
 30
0.0
 10
132.2563223671015
 20
45.0499715145436
 30
0.0
  0
SPLINE
  5
BE
330
1F
100
AcDbEntity
  8
0
  6
CONTINUOUS
 62
     7
100
AcDbSpline
210
0.0
220
0.0
230
1.0
 70
     8
 71
     3
 72
    14
 73
    10
 74
     0
 42
0.00000001
 43
0.00000001
 40
0.0
 40
0.0
 40
0.0
 40
0.0
 40
0.2134989947339743
 40
0.4101193523769238
 40
0.5868281315829813
 40
0.7051474226987896
 40
0.8114188798025631
 40
0.9078994634128043
 40
1.0
 40
1.0
 40
1.0
 40
1.0
 10
132.2563223671015
 20
45.0499715145436
 30
0.0
 10
131.8560365138337
 20
45.06672120578033
 30
0.0
 10
131.08711029424
 20
45.09889640422134
 30
0.0
 10
130.011753272035
 20
45.35643350579021
 30
0.0
 10
129.1582433608409
 20
45.7143845436924
 30
0.0
 10
128.5283369348749
 20
46.13352793186645
 30
0.0
 10
128.1043367803948
 20
46.56348151640685
 30
0.0
 10
127.8134243868442
 20
47.04953279982094
 30
0.0
 10
127.7750593473473
 20
47.40430529714314
 30
0.0
 10
127.7563223671015
 20
47.57757151454361
 30
0.0
  0
SPLINE
  5
BF
330
1F
100
AcDbEntity
  8
0
  6
CONTINUOUS
 62
     7
100
AcDbSpline
210
0.0
220
0.0
230
1.0
 70
     8
 71
     3
 72
    14
 73
    10
 74
     0
 42
0.00000001
 43
0.00000001
 40
0.0
 40
0.0
 40
0.0
 40
0.0
 40
0.2152883390254353
 40
0.4132900122493516
 40
0.5907059114416936
 40
0.7089580778432243
 40
0.8145502476589151
 40
0.9097108597207069
 40
1.0
 40
1.0
 40
1.0
 40
1.0
 10
132.2563223671015
 20
49.9380715145436
 30
0.0
 10
132.6411730075239
 20
49.9224447518394
 30
0.0
 10
133.3799725477794
 20
49.89244598377478
 30
0.0
 10
134.4134086942317
 20
49.65226991454399
 30
0.0
 10
135.2340049612354
 20
49.31840141610931
 30
0.0
 10
135.8400217828269
 20
48.92719809366938
 30
0.0
 10
136.2477787874266
 20
48.52619249113176
 30
0.0
 10
136.5284835561427
 20
48.07225952702358
 30
0.0
 10
136.5657019865558
 20
47.73955430532379
 30
0.0
 10
136.5838223671015
 20
47.57757151454361
 30
0.0
  0
SPLINE
  5
C0
330
1F
100
AcDbEntity
  8
0
  6
CONTINUOUS
 62
     7
100
AcDbSpline
210
0.0
220
0.0
230
1.0
 70
     8
 71
     3
 72
    14
 73
    10
 74
     0
 42
0.00000001
 43
0.00000001
 40
0.0
 40
0.0
 40
0.0
 40
0.0
 40
0.0921005365871966
 40
0.1885811201974384
 40
0.2948525773012127
 40
0.4131718684170211
 40
0.5898806476230779
 40
0.7865010052660263
 40
1.0
 40
1.0
 40
1.0
 40
1.0
 10
127.7563223671015
 20
47.57757151454361
 30
0.0
 10
127.7750593473473
 20
47.75083773194408
 30
0.0
 10
127.8134243868442
 20
48.10561022926628
 30
0.0
 10
128.1043367803948
 20
48.59166151268037
 30
0.0
 10
128.5283369348749
 20
49.02161509722076
 30
0.0
 10
129.1582433608409
 20
49.4407584853948
 30
0.0
 10
130.011753272035
 20
49.79870952329698
 30
0.0
 10
131.08711029424
 20
50.05624662486588
 30
0.0
 10
131.8560365138337
 20
50.08842182330687
 30
0.0
 10
132.2563223671015
 20
50.1051715145436
 30
0.0
  0
SPLINE
  5
C1
330
1F
100
AcDbEntity
  8
0
  6
CONTINUOUS
 62
     7
100
AcDbSpline
210
0.0
220
0.0
230
1.0
 70
     8
 71
     3
 72
    14
 73
    10
 74
     0
 42
0.00000001
 43
0.00000001
 40
0.0
 40
0.0
 40
0.0
 40
0.0
 40
0.0902891402792937
 40
0.1854497523410863
 40
0.2910419221567778
 40
0.4092940885583089
 40
0.5867099877506506
 40
0.7847116609745663
 40
0.9999999999999999
 40
0.9999999999999999
 40
0.9999999999999999
 40
0.9999999999999999
 10
127.9288223671015
 20
47.5775715145436
 30
0.0
 10
127.9469427476473
 20
47.7395543053238
 30
0.0
 10
127.9841611780604
 20
48.07225952702359
 30
0.0
 10
128.2648659467764
 20
48.52619249113176
 30
0.0
 10
128.6726229513762
 20
48.92719809366939
 30
0.0
 10
129.2786397729677
 20
49.3184014161093
 30
0.0
 10
130.0992360399714
 20
49.65226991454399
 30
0.0
 10
131.1326721864237
 20
49.89244598377479
 30
0.0
 10
131.8714717266791
 20
49.9224447518394
 30
0.0
 10
132.2563223671015
 20
49.9380715145436
 30
0.0
  0
LINE
  5
C2
330
1F
100
AcDbEntity
  8
0
  6
CONTINUOUS
 62
     7
100
AcDbLine
 10
128.5647223671
 20
47.2147715145
 30
0.0
 11
128.5647223671
 21
47.4859715145
 31
0.0
  0
LINE
  5
C3
330
1F
100
AcDbEntity
  8
0
  6
CONTINUOUS
 62
     7
100
AcDbLine
 10
128.5647223671
 20
47.4859715145
 30
0.0
 11
129.1898223671
 21
47.4859715145
 31
0.0
  0
LINE
  5
C4
330
1F
100
AcDbEntity
  8
0
  6
CONTINUOUS
 62
     7
100
AcDbLine
 10
129.1898223671
 20
47.4859715145
 30
0.0
 11
129.1898223671
 21
47.1733715145
 31
0.0
  0
LINE
  5
C5
330
1F
100
AcDbEntity
  8
0
  6
CONTINUOUS
 62
     7
100
AcDbLine
 10
129.1898223671
 20
47.1733715145
 30
0.0
 11
130.3215223671
 21
47.1733715145
 31
0.0
  0
LINE
  5
C6
330
1F
100
AcDbEntity
  8
0
  6
CONTINUOUS
 62
     7
100
AcDbLine
 10
130.3215223671
 20
47.1733715145
 30
0.0
 11
130.3215223671
 21
47.9925715145
 31
0.0
  0
LINE
  5
C7
330
1F
100
AcDbEntity
  8
0
  6
CONTINUOUS
 62
     7
100
AcDbLine
 10
130.3215223671
 20
47.9925715145
 30
0.0
 11
129.6317223671
 21
47.9925715145
 31
0.0
  0
LINE
  5
C8
330
1F
100
AcDbEntity
  8
0
  6
CONTINUOUS
 62
     7
100
AcDbLine
 10
129.6317223671
 20
47.9925715145
 30
0.0
 11
129.6317223671
 21
48.4021715145
 31
0.0
  0
LINE
  5
C9
330
1F
100
AcDbEntity
  8
0
  6
CONTINUOUS
 62
     7
100
AcDbLine
 10
129.6317223671
 20
48.4021715145
 30
0.0
 11
130.9467223671
 21
48.4021715145
 31
0.0
  0
SPLINE
  5
CA
330
1F
100
AcDbEntity
  8
0
  6
CONTINUOUS
 62
     7
100
AcDbSpline
210
0.0
220
0.0
230
1.0
 70
     8
 71
     3
 72
    11
 73
     7
 74
     0
 42
0.00000001
 43
0.00000001
 40
0.0
 40
0.0
 40
0.0
 40
0.0
 40
0.2833448308640329
 40
0.5580866109706035
 40
0.7754665892499429
 40
1.0
 40
1.0
 40
1.0
 40
1.0
 10
130.9467223671015
 20
47.2141715145436
 30
0.0
 10
130.9377353292936
 20
47.14559649881939
 30
0.0
 10
130.9200341224015
 20
47.0105285746717
 30
0.0
 10
130.7966886074109
 20
46.86071451829143
 30
0.0
 10
130.646380445273
 20
46.76952141455062
 30
0.0
 10
130.539717260003
 20
46.75854736170406
 30
0.0
 10
130.4855223671015
 20
46.7529715145436
 30
0.0
  0
LINE
  5
CB
330
1F
100
AcDbEntity
  8
0
  6
CONTINUOUS
 62
     7
100
AcDbLine
 10
130.4855223671
 20
46.7529715145
 30
0.0
 11
129.0264223671
 21
46.7529715145
 31
0.0
  0
SPLINE
  5
CC
330
1F
100
AcDbEntity
  8
0
  6
CONTINUOUS
 62
     7
100
AcDbSpline
210
0.0
220
0.0
230
1.0
 70
     8
 71
     3
 72
    11
 73
     7
 74
     0
 42
0.00000001
 43
0.00000001
 40
0.0
 40
0.0
 40
0.0
 40
0.0
 40
0.2832327603404957
 40
0.5580114153644091
 40
0.7754417085638381
 40
1.0
 40
1.0
 40
1.0
 40
1.0
 10
129.0264223671015
 20
46.7529715145436
 30
0.0
 10
128.9577987310377
 20
46.76197783939492
 30
0.0
 10
128.8225997793295
 20
46.7797216627841
 30
0.0
 10
128.6726439842961
 20
46.90322357589098
 30
0.0
 10
128.5813076859478
 20
47.05370730962411
 30
0.0
 10
128.5703099274018
 20
47.16050931038867
 30
0.0
 10
128.5647223671015
 20
47.21477151454361
 30
0.0
  0
LINE
  5
CD
330
1F
100
AcDbEntity
  8
0
  6
CONTINUOUS
 62
     7
100
AcDbLine
 10
130.9467223671
 20
48.4021715145
 30
0.0
 11
130.9467223671
 21
47.2141715145
 31
0.0
  0
LINE
  5
CE
330
1F
100
AcDbEntity
  8
0
  6
CONTINUOUS
 62
     7
100
AcDbLine
 10
133.5443223671
 20
47.9403715145
 30
0.0
 11
133.5443223671
 21
46.7529715145
 31
0.0
  0
LINE
  5
CF
330
1F
100
AcDbEntity
  8
0
  6
CONTINUOUS
 62
     7
100
AcDbLine
 10
133.5443223671
 20
46.7529715145
 30
0.0
 11
132.9190223671
 21
46.7529715145
 31
0.0
  0
LINE
  5
D0
330
1F
100
AcDbEntity
  8
0
  6
CONTINUOUS
 62
     7
100
AcDbLine
 10
132.9190223671
 20
46.7529715145
 30
0.0
 11
132.9190223671
 21
47.9925715145
 31
0.0
  0
LINE
  5
D1
330
1F
100
AcDbEntity
  8
0
  6
CONTINUOUS
 62
     7
100
AcDbLine
 10
132.9190223671
 20
47.9925715145
 30
0.0
 11
131.7336223671
 21
47.9925715145
 31
0.0
  0
LINE
  5
D2
330
1F
100
AcDbEntity
  8
0
  6
CONTINUOUS
 62
     7
100
AcDbLine
 10
131.7336223671
 20
47.9925715145
 30
0.0
 11
131.7336223671
 21
46.7529715145
 31
0.0
  0
LINE
  5
D3
330
1F
100
AcDbEntity
  8
0
  6
CONTINUOUS
 62
     7
100
AcDbLine
 10
131.7336223671
 20
46.7529715145
 30
0.0
 11
131.1191223671
 21
46.7529715145
 31
0.0
  0
LINE
  5
D4
330
1F
100
AcDbEntity
  8
0
  6
CONTINUOUS
 62
     7
100
AcDbLine
 10
131.1191223671
 20
48.4021715145
 30
0.0
 11
133.0826223671
 21
48.4021715145
 31
0.0
  0
LINE
  5
D5
330
1F
100
AcDbEntity
  8
0
  6
CONTINUOUS
 62
     7
100
AcDbLine
 10
131.1191223671
 20
46.7529715145
 30
0.0
 11
131.1191223671
 21
48.4021715145
 31
0.0
  0
SPLINE
  5
D6
330
1F
100
AcDbEntity
  8
0
  6
CONTINUOUS
 62
     7
100
AcDbSpline
210
0.0
220
0.0
230
1.0
 70
     8
 71
     3
 72
    11
 73
     7
 74
     0
 42
0.00000001
 43
0.00000001
 40
0.0
 40
0.0
 40
0.0
 40
0.0
 40
0.2832834002916871
 40
0.5580419236669862
 40
0.7754510728848657
 40
1.0
 40
1.0
 40
1.0
 40
1.0
 10
133.0826223671015
 20
48.4021715145436
 30
0.0
 10
133.1512613565736
 20
48.3931682747936
 30
0.0
 10
133.2864737752471
 20
48.3754327307266
 30
0.0
 10
133.4364377482473
 20
48.25192220512072
 30
0.0
 10
133.5277464977705
 20
48.10143060032839
 30
0.0
 10
133.5387378891366
 20
47.99463297725595
 30
0.0
 10
133.5443223671016
 20
47.9403715145436
 30
0.0
  0
LINE
  5
D7
330
1F
100
AcDbEntity
  8
0
  6
CONTINUOUS
 62
     7
100
AcDbLine
 10
134.3203223671
 20
47.9925715145
 30
0.0
 11
135.9479223671
 21
47.9925715145
 31
0.0
  0
LINE
  5
D8
330
1F
100
AcDbEntity
  8
0
  6
CONTINUOUS
 62
     7
100
AcDbLine
 10
134.3203223671
 20
46.7529715145
 30
0.0
 11
134.3203223671
 21
47.9925715145
 31
0.0
  0
LINE
  5
D9
330
1F
100
AcDbEntity
  8
0
  6
CONTINUOUS
 62
     7
100
AcDbLine
 10
133.6952223671
 20
46.7529715145
 30
0.0
 11
134.3203223671
 21
46.7529715145
 31
0.0
  0
LINE
  5
DA
330
1F
100
AcDbEntity
  8
0
  6
CONTINUOUS
 62
     7
100
AcDbLine
 10
133.6952223671
 20
47.9403715145
 30
0.0
 11
133.6952223671
 21
46.7529715145
 31
0.0
  0
LINE
  5
DB
330
1F
100
AcDbEntity
  8
0
  6
CONTINUOUS
 62
     7
100
AcDbLine
 10
135.9479223671
 20
48.4021715145
 30
0.0
 11
134.1570223671
 21
48.4021715145
 31
0.0
  0
LINE
  5
DC
330
1F
100
AcDbEntity
  8
0
  6
CONTINUOUS
 62
     7
100
AcDbLine
 10
135.9479223671
 20
47.9925715145
 30
0.0
 11
135.9479223671
 21
48.4021715145
 31
0.0
  0
SPLINE
  5
DD
330
1F
100
AcDbEntity
  8
0
  6
CONTINUOUS
 62
     7
100
AcDbSpline
210
0.0
220
0.0
230
1.0
 70
     8
 71
     3
 72
    11
 73
     7
 74
     0
 42
0.00000001
 43
0.00000001
 40
0.0
 40
0.0
 40
0.0
 40
0.0
 40
0.2832831090848536
 40
0.5580598110863044
 40
0.7754688048580538
 40
1.0
 40
1.0
 40
1.0
 40
1.0
 10
134.1570223671015
 20
48.4021715145436
 30
0.0
 10
134.0883777840804
 20
48.39316718208342
 30
0.0
 10
133.9531498731872
 20
48.37542889868233
 30
0.0
 10
133.8031555924585
 20
48.25192683775305
 30
0.0
 10
133.7118079565547
 20
48.10143717995253
 30
0.0
 10
133.7008099771792
 20
47.99463380879325
 30
0.0
 10
133.6952223671015
 20
47.9403715145436
 30
0.0
  0
LINE
  5
DE
330
1F
100
AcDbEntity
  8
0
  6
CONTINUOUS
 62
     7
100
AcDbLine
 10
135.5923223671
 20
47.4105715145
 30
0.0
 11
135.5923223671
 21
47.7554715145
 31
0.0
  0
LINE
  5
DF
330
1F
100
AcDbEntity
  8
0
  6
CONTINUOUS
 62
     7
100
AcDbLine
 10
134.5467223671
 20
47.4105715145
 30
0.0
 11
135.5923223671
 21
47.4105715145
 31
0.0
  0
LINE
  5
E0
330
1F
100
AcDbEntity
  8
0
  6
CONTINUOUS
 62
     7
100
AcDbLine
 10
135.5923223671
 20
47.7554715145
 30
0.0
 11
134.5467223671
 21
47.7554715145
 31
0.0
  0
LINE
  5
E1
330
1F
100
AcDbEntity
  8
0
  6
CONTINUOUS
 62
     7
100
AcDbLine
 10
134.5467223671
 20
47.7554715145
 30
0.0
 11
134.5467223671
 21
47.4105715145
 31
0.0
  0
LINE
  5
E2
330
1F
100
AcDbEntity
  8
0
  6
CONTINUOUS
 62
     7
100
AcDbLine
 10
139.7563223671
 20
19.5775715145
 30
0.0
 11
139.7563223671
 21
54.5775715145
 31
0.0
  0
LINE
  5
E3
330
1F
100
AcDbEntity
  8
0
  6
CONTINUOUS
 62
     7
100
AcDbLine
 10
144.7563223671
 20
54.5775715145
 30
0.0
 11
144.7563223671
 21
19.5775715145
 31
0.0
  0
LINE
  5
E4
330
1F
100
AcDbEntity
  8
0
  6
CONTINUOUS
 62
     7
100
AcDbLine
 10
119.7563223671
 20
19.5775715145
 30
0.0
 11
119.7563223671
 21
54.5775715145
 31
0.0
  0
LINE
  5
E5
330
1F
100
AcDbEntity
  8
0
  6
CONTINUOUS
 62
     7
100
AcDbLine
 10
124.7563223671
 20
54.5775715145
 30
0.0
 11
124.7563223671
 21
19.5775715145
 31
0.0
  0
LINE
  5
E6
330
1F
100
AcDbEntity
  8
0
  6
CONTINUOUS
 62
     7
100
AcDbLine
 10
182.2563223671
 20
14.1633579522
 30
0.0
 11
82.2563223671
 21
14.1633579522
 31
0.0
  0
LINE
  5
E7
330
1F
100
AcDbEntity
  8
0
  6
CONTINUOUS
 62
     7
100
AcDbLine
 10
82.5492155859
 20
14.8704647334
 30
0.0
 11
181.9634291483
 21
14.8704647334
 31
0.0
  0
LINE
  5
E8
330
1F
100
AcDbEntity
  8
0
  6
CONTINUOUS
 62
     7
100
AcDbLine
 10
82.2563223671
 20
-0.0082149231
 30
0.0
 11
182.2563223671
 21
-0.0082149231
 31
0.0
  0
LINE
  5
E9
330
1F
100
AcDbEntity
  8
0
  6
CONTINUOUS
 62
     7
100
AcDbLine
 10
181.9634291483
 20
-0.7153217043
 30
0.0
 11
82.5492155859
 21
-0.7153217043
 31
0.0
  0
LINE
  5
EA
330
1F
100
AcDbEntity
  8
0
  6
CONTINUOUS
 62
     7
100
AcDbLine
 10
177.5492155859
 20
19.2846782957
 30
0.0
 11
86.9634291483
 21
19.2846782957
 31
0.0
  0
LINE
  5
EB
330
1F
100
AcDbEntity
  8
0
  6
CONTINUOUS
 62
     7
100
AcDbLine
 10
86.9634291483
 20
-5.1295352666
 30
0.0
 11
177.5492155859
 21
-5.1295352666
 31
0.0
  0
ENDSEC
  0
SECTION
  2
OBJECTS
  0
DICTIONARY
  5
C
330
0
100
AcDbDictionary
  3
ACAD_GROUP
350
D
  3
ACAD_MLINESTYLE
350
17
  3
ACAD_SCALELIST
350
47
  3
DWGPROPS
350
EC
  0
DICTIONARY
  5
D
102
{ACAD_REACTORS
330
C
102
}
330
C
100
AcDbDictionary
  0
DICTIONARY
  5
17
102
{ACAD_REACTORS
330
C
102
}
330
C
100
AcDbDictionary
  3
STANDARD
350
18
  0
DICTIONARY
  5
47
102
{ACAD_REACTORS
330
C
102
}
330
C
100
AcDbDictionary
  0
XRECORD
  5
EC
102
{ACAD_REACTORS
330
C
102
}
330
C
100
AcDbXrecord
  1
DWGPROPS COOKIE
  2

  3

  4

  6

  7

  8
Pedro.Queiros
  9

300
=
301
=
302
=
303
=
304
=
305
=
306
=
307
=
308
=
309
=
 40
0.0
 41
2459716.71004096
 42
2459716.710041528
  1

 90
        0
  0
MLINESTYLE
  5
18
102
{ACAD_REACTORS
330
17
102
}
330
17
100
AcDbMlineStyle
  2
Standard
 70
     0
  3

 62
   256
 51
90.0
 52
90.0
 71
     2
 49
0.5
 62
   256
  6
BYLAYER
 49
-0.5
 62
   256
  6
BYLAYER
  0
ENDSEC
  0
EOF
