  0
SECTION
  2
HEADER
  9
$ACADVER
  1
AC1014
  9
$ACADMAINTVER
 70
     9
  9
$DWGCODEPAGE
  3
ANSI_1252
  9
$INSBASE
 10
0.0
 20
0.0
 30
0.0
  9
$EXTMIN
 10
0.0
 20
0.0
 30
0.0
  9
$EXTMAX
 10
279.4
 20
215.9
 30
0.0
  9
$LIMMIN
 10
0.0
 20
0.0
  9
$LIMMAX
 10
279.4
 20
215.9
  9
$ORTHOMODE
 70
     0
  9
$REGENMODE
 70
     1
  9
$FILLMODE
 70
     1
  9
$QTEXTMODE
 70
     0
  9
$MIRRTEXT
 70
     1
  9
$DRAGMODE
 70
     2
  9
$LTSCALE
 40
1.0
  9
$OSMODE
 70
    37
  9
$ATTMODE
 70
     1
  9
$TEXTSIZE
 40
3.5
  9
$TRACEWID
 40
1.0
  9
$TEXTSTYLE
  7
STANDARD
  9
$CLAYER
  8
0
  9
$CELTYPE
  6
BYLAYER
  9
$CECOLOR
 62
   256
  9
$CELTSCALE
 40
1.0
  9
$DELOBJ
 70
     1
  9
$DISPSILH
 70
     0
  9
$DIMSCALE
 40
1.0
  9
$DIMASZ
 40
3.302
  9
$DIMEXO
 40
1.0
  9
$DIMDLI
 40
3.75
  9
$DIMRND
 40
0.0
  9
$DIMDLE
 40
0.0
  9
$DIMEXE
 40
1.0
  9
$DIMTP
 40
0.0
  9
$DIMTM
 40
0.0
  9
$DIMTXT
 40
3.5
  9
$DIMCEN
 40
2.5
  9
$DIMTSZ
 40
0.0
  9
$DIMTOL
 70
     0
  9
$DIMLIM
 70
     0
  9
$DIMTIH
 70
     1
  9
$DIMTOH
 70
     1
  9
$DIMSE1
 70
     0
  9
$DIMSE2
 70
     0
  9
$DIMTAD
 70
     1
  9
$DIMZIN
 70
     1
  9
$DIMBLK
  1

  9
$DIMASO
 70
     1
  9
$DIMSHO
 70
     1
  9
$DIMPOST
  1

  9
$DIMAPOST
  1

  9
$DIMALT
 70
     0
  9
$DIMALTD
 70
     3
  9
$DIMALTF
 40
0.0393700787
  9
$DIMLFAC
 40
20.0
  9
$DIMTOFL
 70
     1
  9
$DIMTVP
 40
0.0
  9
$DIMTIX
 70
     0
  9
$DIMSOXD
 70
     0
  9
$DIMSAH
 70
     0
  9
$DIMBLK1
  1

  9
$DIMBLK2
  1

  9
$DIMSTYLE
  2
ISO-25
  9
$DIMCLRD
 70
     0
  9
$DIMCLRE
 70
     0
  9
$DIMCLRT
 70
     0
  9
$DIMTFAC
 40
1.0
  9
$DIMGAP
 40
1.524
  9
$DIMJUST
 70
     0
  9
$DIMSD1
 70
     0
  9
$DIMSD2
 70
     0
  9
$DIMTOLJ
 70
     0
  9
$DIMTZIN
 70
     1
  9
$DIMALTZ
 70
     0
  9
$DIMALTTZ
 70
     0
  9
$DIMFIT
 70
     3
  9
$DIMUPT
 70
     0
  9
$DIMUNIT
 70
     2
  9
$DIMDEC
 70
     2
  9
$DIMTDEC
 70
     2
  9
$DIMALTU
 70
     2
  9
$DIMALTTD
 70
     3
  9
$DIMTXSTY
  7
STANDARD
  9
$DIMAUNIT
 70
     0
  9
$LUNITS
 70
     2
  9
$LUPREC
 70
     2
  9
$SKETCHINC
 40
1.0
  9
$FILLETRAD
 40
10.0
  9
$AUNITS
 70
     0
  9
$AUPREC
 70
     2
  9
$MENU
  1
.
  9
$ELEVATION
 40
0.0
  9
$PELEVATION
 40
0.0
  9
$THICKNESS
 40
0.0
  9
$LIMCHECK
 70
     0
  9
$CHAMFERA
 40
0.0
  9
$CHAMFERB
 40
0.0
  9
$CHAMFERC
 40
0.0
  9
$CHAMFERD
 40
0.0
  9
$SKPOLY
 70
     0
  9
$TDCREATE
 40
2458941.399014329
  9
$TDUPDATE
 40
2458941.399015347
  9
$TDINDWG
 40
0.0000000116
  9
$TDUSRTIMER
 40
0.0000000116
  9
$USRTIMER
 70
     1
  9
$ANGBASE
 50
0.0
  9
$ANGDIR
 70
     0
  9
$PDMODE
 70
     0
  9
$PDSIZE
 40
-1.0
  9
$PLINEWID
 40
0.0
  9
$COORDS
 70
     1
  9
$SPLFRAME
 70
     0
  9
$SPLINETYPE
 70
     6
  9
$SPLINESEGS
 70
     8
  9
$ATTDIA
 70
     0
  9
$ATTREQ
 70
     1
  9
$HANDLING
 70
     1
  9
$HANDSEED
  5
318
  9
$SURFTAB1
 70
     6
  9
$SURFTAB2
 70
     6
  9
$SURFTYPE
 70
     6
  9
$SURFU
 70
     6
  9
$SURFV
 70
     6
  9
$UCSNAME
  2

  9
$UCSORG
 10
0.0
 20
0.0
 30
0.0
  9
$UCSXDIR
 10
1.0
 20
0.0
 30
0.0
  9
$UCSYDIR
 10
0.0
 20
1.0
 30
0.0
  9
$PUCSNAME
  2

  9
$PUCSORG
 10
0.0
 20
0.0
 30
0.0
  9
$PUCSXDIR
 10
1.0
 20
0.0
 30
0.0
  9
$PUCSYDIR
 10
0.0
 20
1.0
 30
0.0
  9
$USERI1
 70
     0
  9
$USERI2
 70
     0
  9
$USERI3
 70
     0
  9
$USERI4
 70
     0
  9
$USERI5
 70
     0
  9
$USERR1
 40
0.0
  9
$USERR2
 40
0.0
  9
$USERR3
 40
0.0
  9
$USERR4
 40
0.0
  9
$USERR5
 40
0.0
  9
$WORLDVIEW
 70
     1
  9
$SHADEDGE
 70
     3
  9
$SHADEDIF
 70
    70
  9
$TILEMODE
 70
     1
  9
$MAXACTVP
 70
    64
  9
$PINSBASE
 10
0.0
 20
0.0
 30
0.0
  9
$PLIMCHECK
 70
     0
  9
$PEXTMIN
 10
1.0000000000E+20
 20
1.0000000000E+20
 30
1.0000000000E+20
  9
$PEXTMAX
 10
-1.0000000000E+20
 20
-1.0000000000E+20
 30
-1.0000000000E+20
  9
$PLIMMIN
 10
0.0
 20
0.0
  9
$PLIMMAX
 10
420.0
 20
297.0
  9
$UNITMODE
 70
     0
  9
$VISRETAIN
 70
     1
  9
$PLINEGEN
 70
     0
  9
$PSLTSCALE
 70
     1
  9
$TREEDEPTH
 70
  3020
  9
$PICKSTYLE
 70
     1
  9
$CMLSTYLE
  2
STANDARD
  9
$CMLJUST
 70
     0
  9
$CMLSCALE
 40
20.0
  9
$PROXYGRAPHICS
 70
     1
  9
$MEASUREMENT
 70
     1
  0
ENDSEC
  0
SECTION
  2
CLASSES
  0
CLASS
  1
ACDBDICTIONARYWDFLT
  2
AcDbDictionaryWithDefault
  3
ObjectDBX Classes
 90
        0
280
     0
281
     0
  0
CLASS
  1
VISUALSTYLE
  2
AcDbVisualStyle
  3
ObjectDBX Classes
 90
     4095
280
     0
281
     0
  0
CLASS
  1
MATERIAL
  2
AcDbMaterial
  3
ObjectDBX Classes
 90
     1153
280
     0
281
     0
  0
CLASS
  1
SCALE
  2
AcDbScale
  3
ObjectDBX Classes
 90
     1153
280
     0
281
     0
  0
CLASS
  1
TABLESTYLE
  2
AcDbTableStyle
  3
ObjectDBX Classes
 90
     4095
280
     0
281
     0
  0
CLASS
  1
MLEADERSTYLE
  2
AcDbMLeaderStyle
  3
ACDB_MLEADERSTYLE_CLASS
 90
     4095
280
     0
281
     0
  0
CLASS
  1
SUN
  2
AcDbSun
  3
SCENEOE
 90
     1153
280
     0
281
     0
  0
CLASS
  1
XRECORD
  2
AcDbXrecord
  3
ObjectDBX Classes
 90
        0
280
     0
281
     0
  0
CLASS
  1
LWPOLYLINE
  2
AcDbPolyline
  3
ObjectDBX Classes
 90
        0
280
     0
281
     1
  0
CLASS
  1
HATCH
  2
AcDbHatch
  3
ObjectDBX Classes
 90
        0
280
     0
281
     1
  0
ENDSEC
  0
SECTION
  2
TABLES
  0
TABLE
  2
VPORT
  5
8
330
0
100
AcDbSymbolTable
 70
     1
  0
VPORT
  5
29
330
8
100
AcDbSymbolTableRecord
100
AcDbViewportTableRecord
  2
*ACTIVE
 70
     0
 10
0.0
 20
0.0
 11
1.0
 21
1.0
 12
139.7
 22
107.95
 13
0.0
 23
0.0
 14
10.0
 24
10.0
 15
10.0
 25
10.0
 16
0.0
 26
0.0
 36
1.0
 17
0.0
 27
0.0
 37
0.0
 40
215.9
 41
1.2941176471
 42
50.0
 43
0.0
 44
0.0
 50
0.0
 51
0.0
 71
     0
 72
  2000
 73
     1
 74
     3
 75
     0
 76
     0
 77
     0
 78
     0
  0
ENDTAB
  0
TABLE
  2
LTYPE
  5
5
330
0
100
AcDbSymbolTable
 70
     8
  0
LTYPE
  5
14
330
5
100
AcDbSymbolTableRecord
100
AcDbLinetypeTableRecord
  2
BYBLOCK
 70
     0
  3

 72
    65
 73
     0
 40
0.0
  0
LTYPE
  5
15
330
5
100
AcDbSymbolTableRecord
100
AcDbLinetypeTableRecord
  2
BYLAYER
 70
     0
  3

 72
    65
 73
     0
 40
0.0
  0
LTYPE
  5
16
330
5
100
AcDbSymbolTableRecord
100
AcDbLinetypeTableRecord
  2
CONTINUOUS
 70
     0
  3
Solid line
 72
    65
 73
     0
 40
0.0
  0
LTYPE
  5
6E
330
5
100
AcDbSymbolTableRecord
100
AcDbLinetypeTableRecord
  2
SLD-SOLID
 70
     0
  3
SolidWorks Line Style
 72
    65
 73
     0
 40
0.0
  0
LTYPE
  5
6F
330
5
100
AcDbSymbolTableRecord
100
AcDbLinetypeTableRecord
  2
SLD-DASHED
 70
     0
  3
SolidWorks Line Style
 72
    65
 73
     2
 40
1.905
 49
1.27
 74
     0
 49
-0.635
 74
     0
  0
LTYPE
  5
70
330
5
100
AcDbSymbolTableRecord
100
AcDbLinetypeTableRecord
  2
SLD-PHANTOM
 70
     0
  3
SolidWorks Line Style
 72
    65
 73
     6
 40
12.7
 49
6.35
 74
     0
 49
-1.27
 74
     0
 49
1.27
 74
     0
 49
-1.27
 74
     0
 49
1.27
 74
     0
 49
-1.27
 74
     0
  0
LTYPE
  5
71
330
5
100
AcDbSymbolTableRecord
100
AcDbLinetypeTableRecord
  2
SLD-CHAIN
 70
     0
  3
SolidWorks Line Style
 72
    65
 73
     4
 40
10.16
 49
6.35
 74
     0
 49
-1.27
 74
     0
 49
1.27
 74
     0
 49
-1.27
 74
     0
  0
LTYPE
  5
72
330
5
100
AcDbSymbolTableRecord
100
AcDbLinetypeTableRecord
  2
SLD-CENTER
 70
     0
  3
SolidWorks Line Style
 72
    65
 73
     4
 40
19.05
 49
15.24
 74
     0
 49
-1.27
 74
     0
 49
1.27
 74
     0
 49
-1.27
 74
     0
  0
LTYPE
  5
73
330
5
100
AcDbSymbolTableRecord
100
AcDbLinetypeTableRecord
  2
SLD-STITCH
 70
     0
  3
SolidWorks Line Style
 72
    65
 73
     2
 40
0.635
 49
0.0
 74
     0
 49
-0.635
 74
     0
  0
LTYPE
  5
74
330
5
100
AcDbSymbolTableRecord
100
AcDbLinetypeTableRecord
  2
SLD-THIN-THICK-CHAIN
 70
     0
  3
SolidWorks Line Style
 72
    65
 73
     4
 40
10.16
 49
6.35
 74
     0
 49
-1.27
 74
     0
 49
1.27
 74
     0
 49
-1.27
 74
     0
  0
ENDTAB
  0
TABLE
  2
LAYER
  5
2
330
0
100
AcDbSymbolTable
 70
     1
  0
LAYER
  5
10
330
2
100
AcDbSymbolTableRecord
100
AcDbLayerTableRecord
  2
0
 70
     0
 62
     7
  6
CONTINUOUS
  0
ENDTAB
  0
TABLE
  2
STYLE
  5
3
330
0
100
AcDbSymbolTable
 70
     1
  0
STYLE
  5
11
330
3
100
AcDbSymbolTableRecord
100
AcDbTextStyleTableRecord
  2
STANDARD
 70
     0
 40
0.0
 41
1.0
 50
0.0
 71
     0
 42
3.5
  3
txt
  4

  0
ENDTAB
  0
TABLE
  2
VIEW
  5
6
330
0
100
AcDbSymbolTable
 70
     0
  0
ENDTAB
  0
TABLE
  2
UCS
  5
7
330
0
100
AcDbSymbolTable
 70
     0
  0
ENDTAB
  0
TABLE
  2
APPID
  5
9
330
0
100
AcDbSymbolTable
 70
     1
  0
APPID
  5
12
330
9
100
AcDbSymbolTableRecord
100
AcDbRegAppTableRecord
  2
ACAD
 70
     0
  0
ENDTAB
  0
TABLE
  2
DIMSTYLE
  5
A
330
0
100
AcDbSymbolTable
 70
     1
  0
DIMSTYLE
105
27
330
A
100
AcDbSymbolTableRecord
100
AcDbDimStyleTableRecord
  2
ISO-25
 70
     0
  3

  4

  5

  6

  7

 40
1.0
 41
2.5
 42
0.625
 43
3.75
 44
1.25
 45
0.0
 46
0.0
 47
0.0
 48
0.0
140
2.5
141
2.5
142
0.0
143
0.0393700787
144
1.0
145
0.0
146
1.0
147
0.625
 71
     0
 72
     0
 73
     0
 74
     0
 75
     0
 76
     0
 77
     1
 78
     8
170
     0
171
     3
172
     1
173
     0
174
     0
175
     0
176
     0
177
     0
178
     0
270
     2
271
     2
272
     2
273
     2
274
     3
340
11
275
     0
280
     0
281
     0
282
     0
283
     0
284
     8
285
     0
286
     0
287
     3
288
     0
  0
ENDTAB
  0
TABLE
  2
BLOCK_RECORD
  5
1
330
0
100
AcDbSymbolTable
 70
     4
  0
BLOCK_RECORD
  5
1F
330
1
100
AcDbSymbolTableRecord
100
AcDbBlockTableRecord
  2
*MODEL_SPACE
  0
BLOCK_RECORD
  5
1B
330
1
100
AcDbSymbolTableRecord
100
AcDbBlockTableRecord
  2
*PAPER_SPACE
  0
BLOCK_RECORD
  5
23
330
1
100
AcDbSymbolTableRecord
100
AcDbBlockTableRecord
  2
*PAPER_SPACE0
  0
BLOCK_RECORD
  5
75
330
1
100
AcDbSymbolTableRecord
100
AcDbBlockTableRecord
  2
SW_BROKEN_VIEW_0
  0
BLOCK_RECORD
  5
B9
330
1
100
AcDbSymbolTableRecord
100
AcDbBlockTableRecord
  2
SW_BROKEN_VIEW_1
  0
BLOCK_RECORD
  5
1BE
330
1
100
AcDbSymbolTableRecord
100
AcDbBlockTableRecord
  2
SW_BROKEN_VIEW_2
  0
ENDTAB
  0
ENDSEC
  0
SECTION
  2
BLOCKS
  0
BLOCK
  5
20
330
1F
100
AcDbEntity
  8
0
100
AcDbBlockBegin
  2
*MODEL_SPACE
 70
     0
 10
0.0
 20
0.0
 30
0.0
  3
*MODEL_SPACE
  1

  0
ENDBLK
  5
21
330
1F
100
AcDbEntity
  8
0
100
AcDbBlockEnd
  0
BLOCK
  5
1C
330
1B
100
AcDbEntity
 67
     1
  8
0
100
AcDbBlockBegin
  2
*PAPER_SPACE
 70
     0
 10
0.0
 20
0.0
 30
0.0
  3
*PAPER_SPACE
  1

  0
ENDBLK
  5
1D
330
1B
100
AcDbEntity
 67
     1
  8
0
100
AcDbBlockEnd
  0
BLOCK
  5
24
330
23
100
AcDbEntity
  8
0
100
AcDbBlockBegin
  2
*PAPER_SPACE0
 70
     0
 10
0.0
 20
0.0
 30
0.0
  3
*PAPER_SPACE0
  1

  0
ENDBLK
  5
25
330
23
100
AcDbEntity
  8
0
100
AcDbBlockEnd
  0
BLOCK
  5
76
330
75
100
AcDbEntity
  8
0
100
AcDbBlockBegin
  2
SW_BROKEN_VIEW_0
 70
     0
 10
0.0
 20
0.0
 30
0.0
  3
SW_BROKEN_VIEW_0
  1

  0
ENDBLK
  5
77
330
75
100
AcDbEntity
  8
0
100
AcDbBlockEnd
  0
BLOCK
  5
BA
330
B9
100
AcDbEntity
  8
0
100
AcDbBlockBegin
  2
SW_BROKEN_VIEW_1
 70
     0
 10
0.0
 20
0.0
 30
0.0
  3
SW_BROKEN_VIEW_1
  1

  0
ENDBLK
  5
BB
330
B9
100
AcDbEntity
  8
0
100
AcDbBlockEnd
  0
BLOCK
  5
1BF
330
1BE
100
AcDbEntity
  8
0
100
AcDbBlockBegin
  2
SW_BROKEN_VIEW_2
 70
     0
 10
0.0
 20
0.0
 30
0.0
  3
SW_BROKEN_VIEW_2
  1

  0
ENDBLK
  5
1C0
330
1BE
100
AcDbEntity
  8
0
100
AcDbBlockEnd
  0
ENDSEC
  0
SECTION
  2
ENTITIES
  0
INSERT
  5
78
330
1F
100
AcDbEntity
  8
0
  6
CONTINUOUS
 62
     7
100
AcDbBlockReference
  2
SW_BROKEN_VIEW_0
 10
0.0
 20
0.0
 30
0.0
  0
LINE
  5
79
330
1F
100
AcDbEntity
  8
0
  6
SLD-SOLID
 62
     7
100
AcDbLine
 10
78.8594632284
 20
641.1681243928
 30
0.0
 11
78.8594632284
 21
164.1664275677
 31
0.0
  0
LINE
  5
7A
330
1F
100
AcDbEntity
  8
0
  6
SLD-SOLID
 62
     7
100
AcDbLine
 10
103.8594636009
 20
166.3420269044
 30
0.0
 11
103.8594636009
 21
641.1681243928
 31
0.0
  0
LINE
  5
7B
330
1F
100
AcDbEntity
  8
0
  6
SLD-SOLID
 62
     7
100
AcDbLine
 10
78.8594632284
 20
641.6681477578
 30
0.0
 11
79.3594633103
 21
641.1681243928
 31
0.0
  0
LINE
  5
7C
330
1F
100
AcDbEntity
  8
0
  6
SLD-SOLID
 62
     7
100
AcDbLine
 10
103.3594635189
 20
641.1681243928
 30
0.0
 11
103.8594636009
 21
641.6681477578
 31
0.0
  0
LINE
  5
7D
330
1F
100
AcDbEntity
  8
0
  6
SLD-SOLID
 62
     7
100
AcDbLine
 10
78.8594632284
 20
860.7055613549
 30
0.0
 11
78.8594632284
 21
820.4155633004
 31
0.0
  0
LINE
  5
7E
330
1F
100
AcDbEntity
  8
0
  6
SLD-SOLID
 62
     7
100
AcDbLine
 10
78.8594632284
 20
795.9206769021
 30
0.0
 11
78.8594632284
 21
690.4155680687
 31
0.0
  0
LINE
  5
7F
330
1F
100
AcDbEntity
  8
0
  6
SLD-SOLID
 62
     7
100
AcDbLine
 10
78.8594632284
 20
665.9206816704
 30
0.0
 11
78.8594632284
 21
641.6681477578
 31
0.0
  0
LINE
  5
80
330
1F
100
AcDbEntity
  8
0
  6
SLD-SOLID
 62
     7
100
AcDbLine
 10
103.8594636009
 20
641.6681477578
 30
0.0
 11
103.8594636009
 21
665.9206816704
 31
0.0
  0
LINE
  5
81
330
1F
100
AcDbEntity
  8
0
  6
SLD-SOLID
 62
     7
100
AcDbLine
 10
103.8594636009
 20
690.4155680687
 30
0.0
 11
103.8594636009
 21
795.9206769021
 31
0.0
  0
LINE
  5
82
330
1F
100
AcDbEntity
  8
0
  6
SLD-SOLID
 62
     7
100
AcDbLine
 10
103.8594636009
 20
820.4155633004
 30
0.0
 11
103.8594636009
 21
860.7055613549
 31
0.0
  0
LINE
  5
83
330
1F
100
AcDbEntity
  8
0
  6
SLD-SOLID
 62
     7
100
AcDbLine
 10
73.8594633401
 20
940.5055114777
 30
0.0
 11
73.8594633401
 21
860.9055945427
 31
0.0
  0
LINE
  5
84
330
1F
100
AcDbEntity
  8
0
  6
SLD-SOLID
 62
     7
100
AcDbLine
 10
108.8594634891
 20
860.9055945427
 30
0.0
 11
108.8594634891
 21
940.5055114777
 31
0.0
  0
LINE
  5
85
330
1F
100
AcDbEntity
  8
0
  6
SLD-SOLID
 62
     7
100
AcDbLine
 10
108.8594634891
 20
940.5055114777
 30
0.0
 11
108.6594638289
 21
940.7055446656
 31
0.0
  0
LINE
  5
86
330
1F
100
AcDbEntity
  8
0
  6
SLD-SOLID
 62
     7
100
AcDbLine
 10
74.0594630004
 20
940.7055446656
 30
0.0
 11
73.8594633401
 21
940.5055114777
 31
0.0
  0
LINE
  5
87
330
1F
100
AcDbEntity
  8
0
  6
SLD-SOLID
 62
     7
100
AcDbLine
 10
73.8594633401
 20
860.9055945427
 30
0.0
 11
74.0594630004
 21
860.7055613549
 31
0.0
  0
LINE
  5
88
330
1F
100
AcDbEntity
  8
0
  6
SLD-SOLID
 62
     7
100
AcDbLine
 10
108.6594638289
 20
860.7055613549
 30
0.0
 11
108.8594634891
 21
860.9055945427
 31
0.0
  0
LINE
  5
89
330
1F
100
AcDbEntity
  8
0
  6
SLD-SOLID
 62
     7
100
AcDbLine
 10
103.8594636009
 20
641.1681243928
 30
0.0
 11
78.8594632284
 21
641.1681243928
 31
0.0
  0
CIRCLE
  5
8A
330
1F
100
AcDbEntity
  8
0
  6
SLD-SOLID
 62
     7
100
AcDbCircle
 10
91.3594592508
 20
808.1681284538
 30
0.0
 40
15.50000697862895
  0
CIRCLE
  5
8B
330
1F
100
AcDbEntity
  8
0
  6
SLD-SOLID
 62
     7
100
AcDbCircle
 10
91.3594620991
 20
808.1681199711
 30
0.0
 40
17.49999498227834
  0
CIRCLE
  5
8C
330
1F
100
AcDbEntity
  8
0
  6
SLD-SOLID
 62
     7
100
AcDbCircle
 10
91.3594733412
 20
678.1681292676
 30
0.0
 40
15.49998181507766
  0
CIRCLE
  5
8D
330
1F
100
AcDbEntity
  8
0
  6
SLD-SOLID
 62
     7
100
AcDbCircle
 10
91.3594710305
 20
678.1681259646
 30
0.0
 40
17.50000931737351
  0
LINE
  5
8E
330
1F
100
AcDbEntity
  8
0
  6
SLD-SOLID
 62
     7
100
AcDbLine
 10
91.3594634146
 20
641.6681477578
 30
0.0
 11
103.8594636009
 21
641.6681477578
 31
0.0
  0
LINE
  5
8F
330
1F
100
AcDbEntity
  8
0
  6
SLD-SOLID
 62
     7
100
AcDbLine
 10
78.8594632284
 20
641.6681477578
 30
0.0
 11
91.3594634146
 21
641.6681477578
 31
0.0
  0
LINE
  5
90
330
1F
100
AcDbEntity
  8
0
  6
SLD-SOLID
 62
     7
100
AcDbLine
 10
73.8594633401
 20
860.9055945427
 30
0.0
 11
108.8594634891
 21
860.9055945427
 31
0.0
  0
LINE
  5
91
330
1F
100
AcDbEntity
  8
0
  6
SLD-SOLID
 62
     7
100
AcDbLine
 10
108.8594634891
 20
940.5055114777
 30
0.0
 11
73.8594633401
 21
940.5055114777
 31
0.0
  0
LINE
  5
92
330
1F
100
AcDbEntity
  8
0
  6
SLD-SOLID
 62
     7
100
AcDbLine
 10
74.0594630004
 20
940.7055446656
 30
0.0
 11
108.6594638289
 21
940.7055446656
 31
0.0
  0
LINE
  5
93
330
1F
100
AcDbEntity
  8
0
  6
SLD-SOLID
 62
     7
100
AcDbLine
 10
108.6594638289
 20
860.7055613549
 30
0.0
 11
74.0594630004
 21
860.7055613549
 31
0.0
  0
LINE
  5
94
330
1F
100
AcDbEntity
  8
0
  6
SLD-SOLID
 62
     7
100
AcDbLine
 10
78.8594632284
 20
154.1664333737
 30
0.0
 11
78.8594632284
 21
-427.0991204584
 31
0.0
  0
LINE
  5
95
330
1F
100
AcDbEntity
  8
0
  6
SLD-SOLID
 62
     7
100
AcDbLine
 10
103.8594636009
 20
-427.0991204584
 30
0.0
 11
103.8594636009
 21
156.3420178092
 31
0.0
  0
LINE
  5
96
330
1F
100
AcDbEntity
  8
0
  6
SLD-SOLID
 62
     7
100
AcDbLine
 10
103.8594636009
 20
-637.0990990007
 30
0.0
 11
103.8594636009
 21
-606.346559366
 31
0.0
  0
LINE
  5
97
330
1F
100
AcDbEntity
  8
0
  6
SLD-SOLID
 62
     7
100
AcDbLine
 10
103.8594636009
 20
-581.8516729677
 30
0.0
 11
103.8594636009
 21
-476.3465641344
 31
0.0
  0
LINE
  5
98
330
1F
100
AcDbEntity
  8
0
  6
SLD-SOLID
 62
     7
100
AcDbLine
 10
103.8594636009
 20
-451.851677736
 30
0.0
 11
103.8594636009
 21
-427.5990842187
 31
0.0
  0
LINE
  5
99
330
1F
100
AcDbEntity
  8
0
  6
SLD-SOLID
 62
     7
100
AcDbLine
 10
78.8594632284
 20
-427.5990842187
 30
0.0
 11
78.8594632284
 21
-451.851677736
 31
0.0
  0
LINE
  5
9A
330
1F
100
AcDbEntity
  8
0
  6
SLD-SOLID
 62
     7
100
AcDbLine
 10
78.8594632284
 20
-476.3465641344
 30
0.0
 11
78.8594632284
 21
-581.8516729677
 31
0.0
  0
LINE
  5
9B
330
1F
100
AcDbEntity
  8
0
  6
SLD-SOLID
 62
     7
100
AcDbLine
 10
78.8594632284
 20
-606.346559366
 30
0.0
 11
78.8594632284
 21
-637.0990990007
 31
0.0
  0
LINE
  5
9C
330
1F
100
AcDbEntity
  8
0
  6
SLD-SOLID
 62
     7
100
AcDbLine
 10
103.8594636009
 20
-427.5990842187
 30
0.0
 11
103.3594635189
 21
-427.0991204584
 31
0.0
  0
LINE
  5
9D
330
1F
100
AcDbEntity
  8
0
  6
SLD-SOLID
 62
     7
100
AcDbLine
 10
79.3594633103
 20
-427.0991204584
 30
0.0
 11
78.8594632284
 21
-427.5990842187
 31
0.0
  0
LINE
  5
9E
330
1F
100
AcDbEntity
  8
0
  6
SLD-SOLID
 62
     7
100
AcDbLine
 10
108.8594634891
 20
-716.8990491235
 30
0.0
 11
108.8594634891
 21
-637.2991321886
 31
0.0
  0
LINE
  5
9F
330
1F
100
AcDbEntity
  8
0
  6
SLD-SOLID
 62
     7
100
AcDbLine
 10
73.8594633401
 20
-637.2991321886
 30
0.0
 11
73.8594633401
 21
-716.8990491235
 31
0.0
  0
LINE
  5
A0
330
1F
100
AcDbEntity
  8
0
  6
SLD-SOLID
 62
     7
100
AcDbLine
 10
73.8594633401
 20
-716.8990491235
 30
0.0
 11
74.0594630004
 21
-717.0990823114
 31
0.0
  0
LINE
  5
A1
330
1F
100
AcDbEntity
  8
0
  6
SLD-SOLID
 62
     7
100
AcDbLine
 10
108.6594638289
 20
-717.0990823114
 30
0.0
 11
108.8594634891
 21
-716.8990491235
 31
0.0
  0
LINE
  5
A2
330
1F
100
AcDbEntity
  8
0
  6
SLD-SOLID
 62
     7
100
AcDbLine
 10
108.8594634891
 20
-637.2991321886
 30
0.0
 11
108.6594638289
 21
-637.0990990007
 31
0.0
  0
LINE
  5
A3
330
1F
100
AcDbEntity
  8
0
  6
SLD-SOLID
 62
     7
100
AcDbLine
 10
74.0594630004
 20
-637.0990990007
 30
0.0
 11
73.8594633401
 21
-637.2991321886
 31
0.0
  0
LINE
  5
A4
330
1F
100
AcDbEntity
  8
0
  6
SLD-SOLID
 62
     7
100
AcDbLine
 10
103.8594636009
 20
-427.0991204584
 30
0.0
 11
78.8594632284
 21
-427.0991204584
 31
0.0
  0
CIRCLE
  5
A5
330
1F
100
AcDbEntity
  8
0
  6
SLD-SOLID
 62
     7
100
AcDbCircle
 10
91.3594669245
 20
-464.0991035405
 30
0.0
 40
15.49998522129289
  0
CIRCLE
  5
A6
330
1F
100
AcDbEntity
  8
0
  6
SLD-SOLID
 62
     7
100
AcDbCircle
 10
91.3594740637
 20
-464.0991224102
 30
0.0
 40
17.50001069715313
  0
CIRCLE
  5
A7
330
1F
100
AcDbEntity
  8
0
  6
SLD-SOLID
 62
     7
100
AcDbCircle
 10
91.3594733412
 20
-594.0991117689
 30
0.0
 40
15.4999818150778
  0
CIRCLE
  5
A8
330
1F
100
AcDbEntity
  8
0
  6
SLD-SOLID
 62
     7
100
AcDbCircle
 10
91.3594710305
 20
-594.0991150718
 30
0.0
 40
17.50000931737328
  0
LINE
  5
A9
330
1F
100
AcDbEntity
  8
0
  6
SLD-SOLID
 62
     7
100
AcDbLine
 10
91.3594634146
 20
-427.5990842187
 30
0.0
 11
78.8594632284
 21
-427.5990842187
 31
0.0
  0
LINE
  5
AA
330
1F
100
AcDbEntity
  8
0
  6
SLD-SOLID
 62
     7
100
AcDbLine
 10
103.8594636009
 20
-427.5990842187
 30
0.0
 11
91.3594634146
 21
-427.5990842187
 31
0.0
  0
LINE
  5
AB
330
1F
100
AcDbEntity
  8
0
  6
SLD-SOLID
 62
     7
100
AcDbLine
 10
108.8594634891
 20
-637.2991321886
 30
0.0
 11
73.8594633401
 21
-637.2991321886
 31
0.0
  0
LINE
  5
AC
330
1F
100
AcDbEntity
  8
0
  6
SLD-SOLID
 62
     7
100
AcDbLine
 10
73.8594633401
 20
-716.8990491235
 30
0.0
 11
108.8594634891
 21
-716.8990491235
 31
0.0
  0
LINE
  5
AD
330
1F
100
AcDbEntity
  8
0
  6
SLD-SOLID
 62
     7
100
AcDbLine
 10
108.6594638289
 20
-717.0990823114
 30
0.0
 11
74.0594630004
 21
-717.0990823114
 31
0.0
  0
LINE
  5
AE
330
1F
100
AcDbEntity
  8
0
  6
SLD-SOLID
 62
     7
100
AcDbLine
 10
74.0594630004
 20
-637.0990990007
 30
0.0
 11
108.6594638289
 21
-637.0990990007
 31
0.0
  0
LINE
  5
AF
330
1F
100
AcDbEntity
  8
0
  6
SLD-DASHED
 62
     7
100
AcDbLine
 10
107.0344634146
 20
155.2542260519
 30
0.0
 11
101.1969634146
 21
157.2542260519
 31
0.0
  0
LINE
  5
B0
330
1F
100
AcDbEntity
  8
0
  6
SLD-DASHED
 62
     7
100
AcDbLine
 10
101.1969634146
 20
157.2542260519
 30
0.0
 11
97.1969634146
 21
153.2542260519
 31
0.0
  0
LINE
  5
B1
330
1F
100
AcDbEntity
  8
0
  6
SLD-DASHED
 62
     7
100
AcDbLine
 10
97.1969634146
 20
153.2542260519
 30
0.0
 11
85.5219634146
 21
157.2542260519
 31
0.0
  0
LINE
  5
B2
330
1F
100
AcDbEntity
  8
0
  6
SLD-DASHED
 62
     7
100
AcDbLine
 10
85.5219634146
 20
157.2542260519
 30
0.0
 11
81.5219634146
 21
153.2542260519
 31
0.0
  0
LINE
  5
B3
330
1F
100
AcDbEntity
  8
0
  6
SLD-DASHED
 62
     7
100
AcDbLine
 10
81.5219634146
 20
153.2542260519
 30
0.0
 11
75.6844634146
 21
155.2542260519
 31
0.0
  0
LINE
  5
B4
330
1F
100
AcDbEntity
  8
0
  6
SLD-DASHED
 62
     7
100
AcDbLine
 10
107.0344634146
 20
165.2542260519
 30
0.0
 11
101.1969634146
 21
167.2542260519
 31
0.0
  0
LINE
  5
B5
330
1F
100
AcDbEntity
  8
0
  6
SLD-DASHED
 62
     7
100
AcDbLine
 10
101.1969634146
 20
167.2542260519
 30
0.0
 11
97.1969634146
 21
163.2542260519
 31
0.0
  0
LINE
  5
B6
330
1F
100
AcDbEntity
  8
0
  6
SLD-DASHED
 62
     7
100
AcDbLine
 10
97.1969634146
 20
163.2542260519
 30
0.0
 11
85.5219634146
 21
167.2542260519
 31
0.0
  0
LINE
  5
B7
330
1F
100
AcDbEntity
  8
0
  6
SLD-DASHED
 62
     7
100
AcDbLine
 10
85.5219634146
 20
167.2542260519
 30
0.0
 11
81.5219634146
 21
163.2542260519
 31
0.0
  0
LINE
  5
B8
330
1F
100
AcDbEntity
  8
0
  6
SLD-DASHED
 62
     7
100
AcDbLine
 10
81.5219634146
 20
163.2542260519
 30
0.0
 11
75.6844634146
 21
165.2542260519
 31
0.0
  0
INSERT
  5
BC
330
1F
100
AcDbEntity
  8
0
  6
CONTINUOUS
 62
     7
100
AcDbBlockReference
  2
SW_BROKEN_VIEW_1
 10
0.0
 20
0.0
 30
0.0
  0
LINE
  5
BD
330
1F
100
AcDbEntity
  8
0
  6
SLD-SOLID
 62
     7
100
AcDbLine
 10
461.2966745064
 20
641.1681243928
 30
0.0
 11
461.2966745064
 21
164.1664275677
 31
0.0
  0
LINE
  5
BE
330
1F
100
AcDbEntity
  8
0
  6
SLD-SOLID
 62
     7
100
AcDbLine
 10
486.2966753446
 20
166.3420269044
 30
0.0
 11
486.2966753446
 21
641.1681243928
 31
0.0
  0
ARC
  5
BF
330
1F
100
AcDbEntity
  8
0
  6
SLD-SOLID
 62
     7
100
AcDbCircle
 10
486.496690686
 20
813.868142863
 30
0.0
 40
0.7999829603718052
100
AcDbArc
 50
359.997809682
 51
90.0011231091
  0
ARC
  5
C0
330
1F
100
AcDbEntity
  8
0
  6
SLD-SOLID
 62
     7
100
AcDbCircle
 10
486.4965889271
 20
802.4681990964
 30
0.0
 40
0.8000847219035564
100
AcDbArc
 50
270.00616421
 51
359.9949029989
  0
LINE
  5
C1
330
1F
100
AcDbEntity
  8
0
  6
SLD-SOLID
 62
     7
100
AcDbLine
 10
486.4966750048
 20
814.6681258233
 30
0.0
 11
485.7263781033
 21
814.6681258233
 31
0.0
  0
LINE
  5
C2
330
1F
100
AcDbEntity
  8
0
  6
SLD-SOLID
 62
     7
100
AcDbLine
 10
485.7268772922
 20
801.6681143792
 30
0.0
 11
486.4966750048
 21
801.6681143792
 31
0.0
  0
ARC
  5
C3
330
1F
100
AcDbEntity
  8
0
  6
SLD-SOLID
 62
     7
100
AcDbCircle
 10
486.496690686
 20
683.8681476314
 30
0.0
 40
0.7999829603719757
100
AcDbArc
 50
359.997809682
 51
90.0011231091
  0
ARC
  5
C4
330
1F
100
AcDbEntity
  8
0
  6
SLD-SOLID
 62
     7
100
AcDbCircle
 10
486.496690686
 20
672.4681021078
 30
0.0
 40
0.799982960371822
100
AcDbArc
 50
269.9988768909
 51
0.002190318
  0
LINE
  5
C5
330
1F
100
AcDbEntity
  8
0
  6
SLD-SOLID
 62
     7
100
AcDbLine
 10
486.4966750048
 20
684.6681305916
 30
0.0
 11
485.7263781033
 21
684.6681305916
 31
0.0
  0
LINE
  5
C6
330
1F
100
AcDbEntity
  8
0
  6
SLD-SOLID
 62
     7
100
AcDbLine
 10
485.7268772922
 20
671.6681191475
 30
0.0
 11
486.4966750048
 21
671.6681191475
 31
0.0
  0
LINE
  5
C7
330
1F
100
AcDbEntity
  8
0
  6
SLD-SOLID
 62
     7
100
AcDbLine
 10
441.3738503955
 20
790.6681367905
 30
0.0
 11
441.5738519184
 21
790.8681103737
 31
0.0
  0
LINE
  5
C8
330
1F
100
AcDbEntity
  8
0
  6
SLD-SOLID
 62
     7
100
AcDbLine
 10
441.5738519184
 20
825.4681298287
 30
0.0
 11
441.3738503955
 21
825.6681630166
 31
0.0
  0
LINE
  5
C9
330
1F
100
AcDbEntity
  8
0
  6
SLD-SOLID
 62
     7
100
AcDbLine
 10
440.5738517545
 20
825.6681630166
 30
0.0
 11
438.5738514267
 21
823.6681291611
 31
0.0
  0
LINE
  5
CA
330
1F
100
AcDbEntity
  8
0
  6
SLD-SOLID
 62
     7
100
AcDbLine
 10
438.5738514267
 20
792.6681110413
 30
0.0
 11
440.5738517545
 21
790.6681367905
 31
0.0
  0
LINE
  5
CB
330
1F
100
AcDbEntity
  8
0
  6
SLD-SOLID
 62
     7
100
AcDbLine
 10
440.5738517545
 20
790.6681367905
 30
0.0
 11
441.3738503955
 21
790.6681367905
 31
0.0
  0
LINE
  5
CC
330
1F
100
AcDbEntity
  8
0
  6
SLD-SOLID
 62
     7
100
AcDbLine
 10
441.3738503955
 20
825.6681630166
 30
0.0
 11
440.5738517545
 21
825.6681630166
 31
0.0
  0
LINE
  5
CD
330
1F
100
AcDbEntity
  8
0
  6
SLD-SOLID
 62
     7
100
AcDbLine
 10
446.5738508754
 20
800.1681634934
 30
0.0
 11
448.2966747038
 21
800.1681634934
 31
0.0
  0
LINE
  5
CE
330
1F
100
AcDbEntity
  8
0
  6
SLD-SOLID
 62
     7
100
AcDbLine
 10
448.2966747038
 20
816.1681363137
 30
0.0
 11
446.5738508754
 21
816.1681363137
 31
0.0
  0
LINE
  5
CF
330
1F
100
AcDbEntity
  8
0
  6
SLD-SOLID
 62
     7
100
AcDbLine
 10
440.5738517545
 20
660.6681415589
 30
0.0
 11
441.3738503955
 21
660.6681415589
 31
0.0
  0
LINE
  5
D0
330
1F
100
AcDbEntity
  8
0
  6
SLD-SOLID
 62
     7
100
AcDbLine
 10
441.3738503955
 20
695.6681677849
 30
0.0
 11
440.5738517545
 21
695.6681677849
 31
0.0
  0
LINE
  5
D1
330
1F
100
AcDbEntity
  8
0
  6
SLD-SOLID
 62
     7
100
AcDbLine
 10
440.5738517545
 20
695.6681677849
 30
0.0
 11
438.5738514267
 21
693.6681339295
 31
0.0
  0
LINE
  5
D2
330
1F
100
AcDbEntity
  8
0
  6
SLD-SOLID
 62
     7
100
AcDbLine
 10
438.5738514267
 20
662.6681158097
 30
0.0
 11
440.5738517545
 21
660.6681415589
 31
0.0
  0
LINE
  5
D3
330
1F
100
AcDbEntity
  8
0
  6
SLD-SOLID
 62
     7
100
AcDbLine
 10
446.296674376
 20
670.1681682618
 30
0.0
 11
448.2966747038
 21
670.1681682618
 31
0.0
  0
LINE
  5
D4
330
1F
100
AcDbEntity
  8
0
  6
SLD-SOLID
 62
     7
100
AcDbLine
 10
448.2966747038
 20
686.1681410821
 30
0.0
 11
446.296674376
 21
686.1681410821
 31
0.0
  0
LINE
  5
D5
330
1F
100
AcDbEntity
  8
0
  6
SLD-SOLID
 62
     7
100
AcDbLine
 10
453.2966745921
 20
695.6681677849
 30
0.0
 11
452.2966744281
 21
695.6681677849
 31
0.0
  0
LINE
  5
D6
330
1F
100
AcDbEntity
  8
0
  6
SLD-SOLID
 62
     7
100
AcDbLine
 10
452.2966744281
 20
660.6681415589
 30
0.0
 11
453.2966745921
 21
660.6681415589
 31
0.0
  0
LINE
  5
D7
330
1F
100
AcDbEntity
  8
0
  6
SLD-SOLID
 62
     7
100
AcDbLine
 10
452.2966744281
 20
688.1681153328
 30
0.0
 11
448.2966747038
 21
688.1681153328
 31
0.0
  0
LINE
  5
D8
330
1F
100
AcDbEntity
  8
0
  6
SLD-SOLID
 62
     7
100
AcDbLine
 10
448.2966747038
 20
668.1681344063
 30
0.0
 11
452.2966744281
 21
668.1681344063
 31
0.0
  0
LINE
  5
D9
330
1F
100
AcDbEntity
  8
0
  6
SLD-SOLID
 62
     7
100
AcDbLine
 10
441.2966754191
 20
660.6681415589
 30
0.0
 11
442.2966737203
 21
660.6681415589
 31
0.0
  0
LINE
  5
DA
330
1F
100
AcDbEntity
  8
0
  6
SLD-SOLID
 62
     7
100
AcDbLine
 10
442.2966737203
 20
695.6681677849
 30
0.0
 11
441.2966754191
 21
695.6681677849
 31
0.0
  0
LINE
  5
DB
330
1F
100
AcDbEntity
  8
0
  6
SLD-SOLID
 62
     7
100
AcDbLine
 10
442.2966737203
 20
668.1681344063
 30
0.0
 11
446.296674376
 21
668.1681344063
 31
0.0
  0
LINE
  5
DC
330
1F
100
AcDbEntity
  8
0
  6
SLD-SOLID
 62
     7
100
AcDbLine
 10
446.296674376
 20
688.1681153328
 30
0.0
 11
442.2966737203
 21
688.1681153328
 31
0.0
  0
LINE
  5
DD
330
1F
100
AcDbEntity
  8
0
  6
SLD-SOLID
 62
     7
100
AcDbLine
 10
441.5738519184
 20
790.6681367905
 30
0.0
 11
442.5738520823
 21
790.6681367905
 31
0.0
  0
LINE
  5
DE
330
1F
100
AcDbEntity
  8
0
  6
SLD-SOLID
 62
     7
100
AcDbLine
 10
442.5738520823
 20
825.6681630166
 30
0.0
 11
441.5738519184
 21
825.6681630166
 31
0.0
  0
LINE
  5
DF
330
1F
100
AcDbEntity
  8
0
  6
SLD-SOLID
 62
     7
100
AcDbLine
 10
442.5738520823
 20
798.168129638
 30
0.0
 11
446.5738508754
 21
798.168129638
 31
0.0
  0
LINE
  5
E0
330
1F
100
AcDbEntity
  8
0
  6
SLD-SOLID
 62
     7
100
AcDbLine
 10
446.5738508754
 20
818.1681105645
 30
0.0
 11
442.5738520823
 21
818.1681105645
 31
0.0
  0
LINE
  5
E1
330
1F
100
AcDbEntity
  8
0
  6
SLD-SOLID
 62
     7
100
AcDbLine
 10
453.2966745921
 20
825.6681630166
 30
0.0
 11
452.2966744281
 21
825.6681630166
 31
0.0
  0
LINE
  5
E2
330
1F
100
AcDbEntity
  8
0
  6
SLD-SOLID
 62
     7
100
AcDbLine
 10
452.2966744281
 20
790.6681367905
 30
0.0
 11
453.2966745921
 21
790.6681367905
 31
0.0
  0
LINE
  5
E3
330
1F
100
AcDbEntity
  8
0
  6
SLD-SOLID
 62
     7
100
AcDbLine
 10
452.2966744281
 20
818.1681105645
 30
0.0
 11
448.2966747038
 21
818.1681105645
 31
0.0
  0
LINE
  5
E4
330
1F
100
AcDbEntity
  8
0
  6
SLD-SOLID
 62
     7
100
AcDbLine
 10
448.2966747038
 20
798.168129638
 30
0.0
 11
452.2966744281
 21
798.168129638
 31
0.0
  0
LINE
  5
E5
330
1F
100
AcDbEntity
  8
0
  6
SLD-SOLID
 62
     7
100
AcDbLine
 10
453.2966745921
 20
790.6681367905
 30
0.0
 11
459.2966746442
 21
790.6681367905
 31
0.0
  0
LINE
  5
E6
330
1F
100
AcDbEntity
  8
0
  6
SLD-SOLID
 62
     7
100
AcDbLine
 10
459.2966746442
 20
825.6681630166
 30
0.0
 11
453.2966745921
 21
825.6681630166
 31
0.0
  0
LINE
  5
E7
330
1F
100
AcDbEntity
  8
0
  6
SLD-SOLID
 62
     7
100
AcDbLine
 10
459.2966746442
 20
800.6681272538
 30
0.0
 11
461.2966745064
 21
800.6681272538
 31
0.0
  0
LINE
  5
E8
330
1F
100
AcDbEntity
  8
0
  6
SLD-SOLID
 62
     7
100
AcDbLine
 10
461.2966745064
 20
815.6681129487
 30
0.0
 11
459.2966746442
 21
815.6681129487
 31
0.0
  0
LINE
  5
E9
330
1F
100
AcDbEntity
  8
0
  6
SLD-SOLID
 62
     7
100
AcDbLine
 10
453.2966745921
 20
660.6681415589
 30
0.0
 11
459.2966746442
 21
660.6681415589
 31
0.0
  0
LINE
  5
EA
330
1F
100
AcDbEntity
  8
0
  6
SLD-SOLID
 62
     7
100
AcDbLine
 10
459.2966746442
 20
695.6681677849
 30
0.0
 11
453.2966745921
 21
695.6681677849
 31
0.0
  0
LINE
  5
EB
330
1F
100
AcDbEntity
  8
0
  6
SLD-SOLID
 62
     7
100
AcDbLine
 10
459.2966746442
 20
670.6681320221
 30
0.0
 11
461.2966745064
 21
670.6681320221
 31
0.0
  0
LINE
  5
EC
330
1F
100
AcDbEntity
  8
0
  6
SLD-SOLID
 62
     7
100
AcDbLine
 10
461.2966745064
 20
685.668117717
 30
0.0
 11
459.2966746442
 21
685.668117717
 31
0.0
  0
LINE
  5
ED
330
1F
100
AcDbEntity
  8
0
  6
SLD-SOLID
 62
     7
100
AcDbLine
 10
461.2966745064
 20
670.6681320221
 30
0.0
 11
461.2966745064
 21
641.6681477578
 31
0.0
  0
LINE
  5
EE
330
1F
100
AcDbEntity
  8
0
  6
SLD-SOLID
 62
     7
100
AcDbLine
 10
461.2966745064
 20
800.6681272538
 30
0.0
 11
461.2966745064
 21
685.668117717
 31
0.0
  0
LINE
  5
EF
330
1F
100
AcDbEntity
  8
0
  6
SLD-SOLID
 62
     7
100
AcDbLine
 10
461.2966745064
 20
860.7055613549
 30
0.0
 11
461.2966745064
 21
815.6681129487
 31
0.0
  0
LINE
  5
F0
330
1F
100
AcDbEntity
  8
0
  6
SLD-SOLID
 62
     7
100
AcDbLine
 10
486.2966753446
 20
815.6399795563
 30
0.0
 11
486.2966753446
 21
860.7055613549
 31
0.0
  0
LINE
  5
F1
330
1F
100
AcDbEntity
  8
0
  6
SLD-SOLID
 62
     7
100
AcDbLine
 10
486.2966753446
 20
685.6399843247
 30
0.0
 11
486.2966753446
 21
800.6681272538
 31
0.0
  0
LINE
  5
F2
330
1F
100
AcDbEntity
  8
0
  6
SLD-SOLID
 62
     7
100
AcDbLine
 10
486.2966753446
 20
641.6681477578
 30
0.0
 11
486.2966753446
 21
670.6681320221
 31
0.0
  0
LINE
  5
F3
330
1F
100
AcDbEntity
  8
0
  6
SLD-SOLID
 62
     7
100
AcDbLine
 10
461.2966745064
 20
641.6681477578
 30
0.0
 11
461.7966745883
 21
641.1681243928
 31
0.0
  0
LINE
  5
F4
330
1F
100
AcDbEntity
  8
0
  6
SLD-SOLID
 62
     7
100
AcDbLine
 10
485.7966743313
 20
641.1681243928
 30
0.0
 11
486.2966753446
 21
641.6681477578
 31
0.0
  0
LINE
  5
F5
330
1F
100
AcDbEntity
  8
0
  6
SLD-SOLID
 62
     7
100
AcDbLine
 10
491.2966743015
 20
940.5055114777
 30
0.0
 11
491.0966746412
 21
940.7055446656
 31
0.0
  0
LINE
  5
F6
330
1F
100
AcDbEntity
  8
0
  6
SLD-SOLID
 62
     7
100
AcDbLine
 10
456.496674744
 20
940.7055446656
 30
0.0
 11
456.2966741525
 21
940.5055114777
 31
0.0
  0
LINE
  5
F7
330
1F
100
AcDbEntity
  8
0
  6
SLD-SOLID
 62
     7
100
AcDbLine
 10
456.2966741525
 20
940.5055114777
 30
0.0
 11
456.2966741525
 21
860.9055945427
 31
0.0
  0
LINE
  5
F8
330
1F
100
AcDbEntity
  8
0
  6
SLD-SOLID
 62
     7
100
AcDbLine
 10
491.2966743015
 20
889.0150854142
 30
0.0
 11
491.2966743015
 21
940.5055114777
 31
0.0
  0
LINE
  5
F9
330
1F
100
AcDbEntity
  8
0
  6
SLD-SOLID
 62
     7
100
AcDbLine
 10
491.2966743015
 20
879.0150949509
 30
0.0
 11
491.2966743015
 21
882.3960492165
 31
0.0
  0
LINE
  5
FA
330
1F
100
AcDbEntity
  8
0
  6
SLD-SOLID
 62
     7
100
AcDbLine
 10
491.2966743015
 20
860.9055945427
 30
0.0
 11
491.2966743015
 21
872.3960587533
 31
0.0
  0
LINE
  5
FB
330
1F
100
AcDbEntity
  8
0
  6
SLD-SOLID
 62
     7
100
AcDbLine
 10
456.2966741525
 20
860.9055945427
 30
0.0
 11
456.496674744
 21
860.7055613549
 31
0.0
  0
LINE
  5
FC
330
1F
100
AcDbEntity
  8
0
  6
SLD-SOLID
 62
     7
100
AcDbLine
 10
491.0966746412
 20
860.7055613549
 30
0.0
 11
491.2966743015
 21
860.9055945427
 31
0.0
  0
LINE
  5
FD
330
1F
100
AcDbEntity
  8
0
  6
SLD-SOLID
 62
     7
100
AcDbLine
 10
486.2966753446
 20
641.1681243928
 30
0.0
 11
461.2966745064
 21
641.1681243928
 31
0.0
  0
LINE
  5
FE
330
1F
100
AcDbEntity
  8
0
  6
SLD-SOLID
 62
     7
100
AcDbLine
 10
487.2966736458
 20
807.8107902558
 30
0.0
 11
487.2966736458
 21
802.4681279213
 31
0.0
  0
LINE
  5
FF
330
1F
100
AcDbEntity
  8
0
  6
SLD-SOLID
 62
     7
100
AcDbLine
 10
487.2966736458
 20
813.8681122811
 30
0.0
 11
487.2966736458
 21
807.8107902558
 31
0.0
  0
LINE
  5
100
330
1F
100
AcDbEntity
  8
0
  6
SLD-SOLID
 62
     7
100
AcDbLine
 10
487.2966736458
 20
677.8107950242
 30
0.0
 11
487.2966736458
 21
672.4681326897
 31
0.0
  0
LINE
  5
101
330
1F
100
AcDbEntity
  8
0
  6
SLD-SOLID
 62
     7
100
AcDbLine
 10
487.2966736458
 20
683.8681170495
 30
0.0
 11
487.2966736458
 21
677.8107950242
 31
0.0
  0
LINE
  5
102
330
1F
100
AcDbEntity
  8
0
  6
SLD-SOLID
 62
     7
100
AcDbLine
 10
491.2966743015
 20
879.0150949509
 30
0.0
 11
491.2966743015
 21
872.3960587533
 31
0.0
  0
LINE
  5
103
330
1F
100
AcDbEntity
  8
0
  6
SLD-SOLID
 62
     7
100
AcDbLine
 10
491.1165136747
 20
873.0897376092
 30
0.0
 11
491.1165136747
 21
878.3213564904
 31
0.0
  0
LINE
  5
104
330
1F
100
AcDbEntity
  8
0
  6
SLD-SOLID
 62
     7
100
AcDbLine
 10
491.2966743015
 20
889.0150854142
 30
0.0
 11
491.2966743015
 21
882.3960492165
 31
0.0
  0
LINE
  5
105
330
1F
100
AcDbEntity
  8
0
  6
SLD-SOLID
 62
     7
100
AcDbLine
 10
491.1165136747
 20
883.0897876771
 30
0.0
 11
491.1165136747
 21
888.3213469536
 31
0.0
  0
LINE
  5
106
330
1F
100
AcDbEntity
  8
0
  6
SLD-SOLID
 62
     7
100
AcDbLine
 10
441.3738503955
 20
790.6681367905
 30
0.0
 11
441.3738503955
 21
825.6681630166
 31
0.0
  0
LINE
  5
107
330
1F
100
AcDbEntity
  8
0
  6
SLD-SOLID
 62
     7
100
AcDbLine
 10
438.5738514267
 20
823.6529895814
 30
0.0
 11
438.5738514267
 21
823.6681291611
 31
0.0
  0
LINE
  5
108
330
1F
100
AcDbEntity
  8
0
  6
SLD-SOLID
 62
     7
100
AcDbLine
 10
438.5738514267
 20
792.6681110413
 30
0.0
 11
438.5738514267
 21
823.6529895814
 31
0.0
  0
LINE
  5
109
330
1F
100
AcDbEntity
  8
0
  6
SLD-SOLID
 62
     7
100
AcDbLine
 10
440.5738517545
 20
825.6681630166
 30
0.0
 11
440.5738517545
 21
790.6681367905
 31
0.0
  0
LINE
  5
10A
330
1F
100
AcDbEntity
  8
0
  6
SLD-SOLID
 62
     7
100
AcDbLine
 10
441.3738503955
 20
660.6681415589
 30
0.0
 11
441.3738503955
 21
695.6681677849
 31
0.0
  0
LINE
  5
10B
330
1F
100
AcDbEntity
  8
0
  6
SLD-SOLID
 62
     7
100
AcDbLine
 10
441.5738519184
 20
695.4681345971
 30
0.0
 11
441.5738519184
 21
660.8681151421
 31
0.0
  0
LINE
  5
10C
330
1F
100
AcDbEntity
  8
0
  6
SLD-SOLID
 62
     7
100
AcDbLine
 10
440.5738517545
 20
695.6681677849
 30
0.0
 11
440.5738517545
 21
660.6681415589
 31
0.0
  0
LINE
  5
10D
330
1F
100
AcDbEntity
  8
0
  6
SLD-SOLID
 62
     7
100
AcDbLine
 10
438.5738514267
 20
662.6681158097
 30
0.0
 11
438.5738514267
 21
693.6681339295
 31
0.0
  0
LINE
  5
10E
330
1F
100
AcDbEntity
  8
0
  6
SLD-SOLID
 62
     7
100
AcDbLine
 10
452.2966744281
 20
663.5176608117
 30
0.0
 11
452.2966744281
 21
660.6681415589
 31
0.0
  0
LINE
  5
10F
330
1F
100
AcDbEntity
  8
0
  6
SLD-SOLID
 62
     7
100
AcDbLine
 10
452.2966744281
 20
695.6681677849
 30
0.0
 11
452.2966744281
 21
663.5176608117
 31
0.0
  0
LINE
  5
110
330
1F
100
AcDbEntity
  8
0
  6
SLD-SOLID
 62
     7
100
AcDbLine
 10
453.2966745921
 20
663.5176608117
 30
0.0
 11
453.2966745921
 21
660.6681415589
 31
0.0
  0
LINE
  5
111
330
1F
100
AcDbEntity
  8
0
  6
SLD-SOLID
 62
     7
100
AcDbLine
 10
453.2966745921
 20
695.6681677849
 30
0.0
 11
453.2966745921
 21
663.5176608117
 31
0.0
  0
LINE
  5
112
330
1F
100
AcDbEntity
  8
0
  6
SLD-SOLID
 62
     7
100
AcDbLine
 10
448.2966747038
 20
669.796473697
 30
0.0
 11
448.2966747038
 21
668.1681344063
 31
0.0
  0
LINE
  5
113
330
1F
100
AcDbEntity
  8
0
  6
SLD-SOLID
 62
     7
100
AcDbLine
 10
448.2966747038
 20
688.1681153328
 30
0.0
 11
448.2966747038
 21
669.796473697
 31
0.0
  0
LINE
  5
114
330
1F
100
AcDbEntity
  8
0
  6
SLD-SOLID
 62
     7
100
AcDbLine
 10
441.2966754191
 20
675.0142046959
 30
0.0
 11
441.2966754191
 21
695.6681677849
 31
0.0
  0
LINE
  5
115
330
1F
100
AcDbEntity
  8
0
  6
SLD-SOLID
 62
     7
100
AcDbLine
 10
441.2966754191
 20
660.6681415589
 30
0.0
 11
441.2966754191
 21
675.0142046959
 31
0.0
  0
LINE
  5
116
330
1F
100
AcDbEntity
  8
0
  6
SLD-SOLID
 62
     7
100
AcDbLine
 10
442.2966737203
 20
675.0142046959
 30
0.0
 11
442.2966737203
 21
695.6681677849
 31
0.0
  0
LINE
  5
117
330
1F
100
AcDbEntity
  8
0
  6
SLD-SOLID
 62
     7
100
AcDbLine
 10
442.2966737203
 20
660.6681415589
 30
0.0
 11
442.2966737203
 21
675.0142046959
 31
0.0
  0
LINE
  5
118
330
1F
100
AcDbEntity
  8
0
  6
SLD-SOLID
 62
     7
100
AcDbLine
 10
446.296674376
 20
676.3658592255
 30
0.0
 11
446.296674376
 21
688.1681153328
 31
0.0
  0
LINE
  5
119
330
1F
100
AcDbEntity
  8
0
  6
SLD-SOLID
 62
     7
100
AcDbLine
 10
446.296674376
 20
668.1681344063
 30
0.0
 11
446.296674376
 21
676.3658592255
 31
0.0
  0
LINE
  5
11A
330
1F
100
AcDbEntity
  8
0
  6
SLD-SOLID
 62
     7
100
AcDbLine
 10
441.5738519184
 20
805.0141999276
 30
0.0
 11
441.5738519184
 21
825.6681630166
 31
0.0
  0
LINE
  5
11B
330
1F
100
AcDbEntity
  8
0
  6
SLD-SOLID
 62
     7
100
AcDbLine
 10
441.5738519184
 20
790.6681367905
 30
0.0
 11
441.5738519184
 21
805.0141999276
 31
0.0
  0
LINE
  5
11C
330
1F
100
AcDbEntity
  8
0
  6
SLD-SOLID
 62
     7
100
AcDbLine
 10
442.5738520823
 20
805.0141999276
 30
0.0
 11
442.5738520823
 21
825.6681630166
 31
0.0
  0
LINE
  5
11D
330
1F
100
AcDbEntity
  8
0
  6
SLD-SOLID
 62
     7
100
AcDbLine
 10
442.5738520823
 20
790.6681367905
 30
0.0
 11
442.5738520823
 21
805.0141999276
 31
0.0
  0
LINE
  5
11E
330
1F
100
AcDbEntity
  8
0
  6
SLD-SOLID
 62
     7
100
AcDbLine
 10
446.5738508754
 20
806.3659140618
 30
0.0
 11
446.5738508754
 21
818.1681105645
 31
0.0
  0
LINE
  5
11F
330
1F
100
AcDbEntity
  8
0
  6
SLD-SOLID
 62
     7
100
AcDbLine
 10
446.5738508754
 20
798.168129638
 30
0.0
 11
446.5738508754
 21
806.3659140618
 31
0.0
  0
LINE
  5
120
330
1F
100
AcDbEntity
  8
0
  6
SLD-SOLID
 62
     7
100
AcDbLine
 10
452.2966744281
 20
824.1361448319
 30
0.0
 11
452.2966744281
 21
790.6681367905
 31
0.0
  0
LINE
  5
121
330
1F
100
AcDbEntity
  8
0
  6
SLD-SOLID
 62
     7
100
AcDbLine
 10
452.2966744281
 20
825.6681630166
 30
0.0
 11
452.2966744281
 21
824.1361448319
 31
0.0
  0
LINE
  5
122
330
1F
100
AcDbEntity
  8
0
  6
SLD-SOLID
 62
     7
100
AcDbLine
 10
453.2966745921
 20
824.1361448319
 30
0.0
 11
453.2966745921
 21
790.6681367905
 31
0.0
  0
LINE
  5
123
330
1F
100
AcDbEntity
  8
0
  6
SLD-SOLID
 62
     7
100
AcDbLine
 10
453.2966745921
 20
825.6681630166
 30
0.0
 11
453.2966745921
 21
824.1361448319
 31
0.0
  0
LINE
  5
124
330
1F
100
AcDbEntity
  8
0
  6
SLD-SOLID
 62
     7
100
AcDbLine
 10
448.2966747038
 20
817.2926971467
 30
0.0
 11
448.2966747038
 21
798.168129638
 31
0.0
  0
LINE
  5
125
330
1F
100
AcDbEntity
  8
0
  6
SLD-SOLID
 62
     7
100
AcDbLine
 10
448.2966747038
 20
818.1681105645
 30
0.0
 11
448.2966747038
 21
817.2926971467
 31
0.0
  0
LINE
  5
126
330
1F
100
AcDbEntity
  8
0
  6
SLD-SOLID
 62
     7
100
AcDbLine
 10
459.2966746442
 20
791.9643590005
 30
0.0
 11
459.2966746442
 21
825.6681630166
 31
0.0
  0
LINE
  5
127
330
1F
100
AcDbEntity
  8
0
  6
SLD-SOLID
 62
     7
100
AcDbLine
 10
459.2966746442
 20
790.6681367905
 30
0.0
 11
459.2966746442
 21
791.9643590005
 31
0.0
  0
LINE
  5
128
330
1F
100
AcDbEntity
  8
0
  6
SLD-SOLID
 62
     7
100
AcDbLine
 10
453.2966745921
 20
791.9643590005
 30
0.0
 11
453.2966745921
 21
825.6681630166
 31
0.0
  0
LINE
  5
129
330
1F
100
AcDbEntity
  8
0
  6
SLD-SOLID
 62
     7
100
AcDbLine
 10
453.2966745921
 20
790.6681367905
 30
0.0
 11
453.2966745921
 21
791.9643590005
 31
0.0
  0
LINE
  5
12A
330
1F
100
AcDbEntity
  8
0
  6
SLD-SOLID
 62
     7
100
AcDbLine
 10
459.2966746442
 20
660.6681415589
 30
0.0
 11
459.2966746442
 21
695.6681677849
 31
0.0
  0
LINE
  5
12B
330
1F
100
AcDbEntity
  8
0
  6
SLD-SOLID
 62
     7
100
AcDbLine
 10
453.2966745921
 20
660.6681415589
 30
0.0
 11
453.2966745921
 21
695.6681677849
 31
0.0
  0
LWPOLYLINE
  5
12C
330
1F
100
AcDbEntity
  8
0
  6
SLD-SOLID
 62
     7
100
AcDbPolyline
 90
       16
 70
   128
 43
0.0
 10
486.2799785934
 20
815.6399795563
 10
486.1333586179
 20
815.3926798852
 10
485.6495588921
 20
814.5313927682
 10
484.9136035793
 20
813.0247065575
 10
484.4975221805
 20
811.9770953209
 10
484.1282341532
 20
810.7644984276
 10
483.8105190448
 20
808.6944887192
 10
483.9257627629
 20
806.5561720879
 10
484.3867916517
 20
804.6823808701
 10
485.1132679634
 20
802.8704592736
 10
485.5266168617
 20
802.036947921
 10
485.8933288507
 20
801.3615676911
 10
486.1448809408
 20
800.9239503892
 10
486.2818300627
 20
800.692922786
 10
486.2966753446
 20
800.6681272538
 10
486.2966753446
 20
800.6681272538
  0
LWPOLYLINE
  5
12D
330
1F
100
AcDbEntity
  8
0
  6
SLD-SOLID
 62
     7
100
AcDbPolyline
 90
       16
 70
   128
 43
0.0
 10
486.2799785934
 20
685.6399843247
 10
486.1333586179
 20
685.3926846535
 10
485.6495588921
 20
684.5313975365
 10
484.9136035793
 20
683.0247113259
 10
484.4975221805
 20
681.9771000893
 10
484.1282341532
 20
680.764503196
 10
483.8105190448
 20
678.6944934876
 10
483.9257627629
 20
676.5561768563
 10
484.3867916517
 20
674.6823856385
 10
485.1132679634
 20
672.870464042
 10
485.5266168617
 20
672.0369526894
 10
485.8933288507
 20
671.3615724595
 10
486.1448809408
 20
670.9239551575
 10
486.2818300627
 20
670.6929275544
 10
486.2966753446
 20
670.6681320221
 10
486.2966753446
 20
670.6681320221
  0
SPLINE
  5
12E
330
1F
100
AcDbEntity
  8
0
  6
SLD-SOLID
 62
     7
100
AcDbSpline
210
0.0
220
0.0
230
1.0
 70
     8
 71
     3
 72
    22
 73
    18
 74
     0
 42
0.00000001
 43
0.00000001
 40
0.0
 40
0.0
 40
0.0
 40
0.0
 40
0.0009760231539947
 40
0.0298120628400844
 40
0.099726688582966
 40
0.2136924195581347
 40
0.2876918470496212
 40
0.3702684388536775
 40
0.4989749207987992
 40
0.6279009541025324
 40
0.7479866578481578
 40
0.8693834220134756
 40
0.923387006800988
 40
0.965821112258254
 40
0.989919849829913
 40
0.9992477463924331
 40
1.0
 40
1.0
 40
1.0
 40
1.0
 10
461.3076152183147
 20
685.6498786957334
 30
0.0
 10
461.3048406961207
 20
685.6545076987733
 30
0.0
 10
461.2200945201117
 20
685.7958979198444
 30
0.0
 10
461.8227100215316
 20
684.7834259404681
 30
0.0
 10
462.0889590087053
 20
684.2616882326216
 30
0.0
 10
462.8074122963818
 20
682.8001542180026
 30
0.0
 10
463.2783309556598
 20
681.4863735157786
 30
0.0
 10
463.6762997364216
 20
679.9985300986141
 30
0.0
 10
463.8692910584808
 20
678.1850111786613
 30
0.0
 10
463.6576321378001
 20
676.1607125643621
 30
0.0
 10
463.1073537341422
 20
674.2634550681048
 30
0.0
 10
462.4576768583249
 20
672.7894242411874
 30
0.0
 10
461.9486915397667
 20
671.8025812006705
 30
0.0
 10
461.5804617970275
 20
671.1504300402718
 30
0.0
 10
461.4715965984731
 20
670.9611475143826
 30
0.0
 10
461.271202195125
 20
670.6250923110492
 30
0.0
 10
461.3008250044109
 20
670.6751269147184
 30
0.0
 10
461.3030356723846
 20
670.678860858209
 30
0.0
  0
SPLINE
  5
12F
330
1F
100
AcDbEntity
  8
0
  6
SLD-SOLID
 62
     7
100
AcDbSpline
210
0.0
220
0.0
230
1.0
 70
     8
 71
     3
 72
    22
 73
    18
 74
     0
 42
0.00000001
 43
0.00000001
 40
0.0
 40
0.0
 40
0.0
 40
0.0
 40
0.0009760231539947
 40
0.0298120628400844
 40
0.099726688582966
 40
0.2136924195581347
 40
0.2876918470496212
 40
0.3702684388536775
 40
0.4989749207987992
 40
0.6279009541025324
 40
0.7479866578481578
 40
0.8693834220134756
 40
0.923387006800988
 40
0.965821112258254
 40
0.989919849829913
 40
0.9992477463924331
 40
1.0
 40
1.0
 40
1.0
 40
1.0
 10
461.3076152183147
 20
815.6498739273618
 30
0.0
 10
461.3048406961207
 20
815.6545029304018
 30
0.0
 10
461.2200945201117
 20
815.7958931514727
 30
0.0
 10
461.8227100215316
 20
814.7834211720965
 30
0.0
 10
462.0889590087053
 20
814.26168346425
 30
0.0
 10
462.8074122963818
 20
812.8001494496309
 30
0.0
 10
463.2783309556598
 20
811.4863687474071
 30
0.0
 10
463.6762997364216
 20
809.9985253302425
 30
0.0
 10
463.8692910584808
 20
808.1850064102898
 30
0.0
 10
463.6576321378001
 20
806.1607077959906
 30
0.0
 10
463.1073537341422
 20
804.2634502997332
 30
0.0
 10
462.4576768583249
 20
802.7894194728159
 30
0.0
 10
461.9486915397667
 20
801.8025764322988
 30
0.0
 10
461.5804617970275
 20
801.1504252719006
 30
0.0
 10
461.4715965984731
 20
800.9611427460102
 30
0.0
 10
461.271202195125
 20
800.6250875426782
 30
0.0
 10
461.3008250044109
 20
800.6751221463468
 30
0.0
 10
461.3030356723846
 20
800.6788560898374
 30
0.0
  0
LINE
  5
130
330
1F
100
AcDbEntity
  8
0
  6
SLD-SOLID
 62
     7
100
AcDbLine
 10
461.2966745064
 20
641.6681477578
 30
0.0
 11
486.2966753446
 21
641.6681477578
 31
0.0
  0
LINE
  5
131
330
1F
100
AcDbEntity
  8
0
  6
SLD-SOLID
 62
     7
100
AcDbLine
 10
491.2966743015
 20
940.5055114777
 30
0.0
 11
456.2966741525
 21
940.5055114777
 31
0.0
  0
LINE
  5
132
330
1F
100
AcDbEntity
  8
0
  6
SLD-SOLID
 62
     7
100
AcDbLine
 10
456.496674744
 20
940.7055446656
 30
0.0
 11
491.0966746412
 21
940.7055446656
 31
0.0
  0
LINE
  5
133
330
1F
100
AcDbEntity
  8
0
  6
SLD-SOLID
 62
     7
100
AcDbLine
 10
456.2966741525
 20
860.9055945427
 30
0.0
 11
491.2966743015
 21
860.9055945427
 31
0.0
  0
LINE
  5
134
330
1F
100
AcDbEntity
  8
0
  6
SLD-SOLID
 62
     7
100
AcDbLine
 10
491.0966746412
 20
860.7055613549
 30
0.0
 11
456.496674744
 21
860.7055613549
 31
0.0
  0
LINE
  5
135
330
1F
100
AcDbEntity
  8
0
  6
SLD-SOLID
 62
     8
100
AcDbLine
 10
486.4966750048
 20
807.7606031449
 30
0.0
 11
486.4966750048
 21
814.6681258233
 31
0.0
  0
LINE
  5
136
330
1F
100
AcDbEntity
  8
0
  6
SLD-SOLID
 62
     8
100
AcDbLine
 10
486.4966750048
 20
801.6681143792
 30
0.0
 11
486.4966750048
 21
807.7606031449
 31
0.0
  0
LINE
  5
137
330
1F
100
AcDbEntity
  8
0
  6
SLD-SOLID
 62
     8
100
AcDbLine
 10
486.4966750048
 20
677.7606079133
 30
0.0
 11
486.4966750048
 21
684.6681305916
 31
0.0
  0
LINE
  5
138
330
1F
100
AcDbEntity
  8
0
  6
SLD-SOLID
 62
     8
100
AcDbLine
 10
486.4966750048
 20
671.6681191475
 30
0.0
 11
486.4966750048
 21
677.7606079133
 31
0.0
  0
LINE
  5
139
330
1F
100
AcDbEntity
  8
0
  6
SLD-SOLID
 62
     7
100
AcDbLine
 10
461.2966745064
 20
154.1664333737
 30
0.0
 11
461.2966745064
 21
-427.0991204584
 31
0.0
  0
LINE
  5
13A
330
1F
100
AcDbEntity
  8
0
  6
SLD-SOLID
 62
     7
100
AcDbLine
 10
486.2966753446
 20
-427.0991204584
 30
0.0
 11
486.2966753446
 21
156.3420178092
 31
0.0
  0
ARC
  5
13B
330
1F
100
AcDbEntity
  8
0
  6
SLD-SOLID
 62
     7
100
AcDbCircle
 10
486.496690686
 20
-588.399093405
 30
0.0
 40
0.7999829603718052
100
AcDbArc
 50
359.997809682
 51
90.0011231091
  0
ARC
  5
13C
330
1F
100
AcDbEntity
  8
0
  6
SLD-SOLID
 62
     7
100
AcDbCircle
 10
486.496690686
 20
-599.7991389287
 30
0.0
 40
0.7999829603719357
100
AcDbArc
 50
269.9988768909
 51
0.002190318
  0
LINE
  5
13D
330
1F
100
AcDbEntity
  8
0
  6
SLD-SOLID
 62
     7
100
AcDbLine
 10
486.4966750048
 20
-587.5991104448
 30
0.0
 11
485.7296805732
 21
-587.5991104448
 31
0.0
  0
LINE
  5
13E
330
1F
100
AcDbEntity
  8
0
  6
SLD-SOLID
 62
     7
100
AcDbLine
 10
485.7253760003
 20
-600.5991218889
 30
0.0
 11
486.4966750048
 21
-600.5991218889
 31
0.0
  0
ARC
  5
13F
330
1F
100
AcDbEntity
  8
0
  6
SLD-SOLID
 62
     7
100
AcDbCircle
 10
486.496690686
 20
-458.3990981734
 30
0.0
 40
0.7999829603718052
100
AcDbArc
 50
359.997809682
 51
90.0011231091
  0
ARC
  5
140
330
1F
100
AcDbEntity
  8
0
  6
SLD-SOLID
 62
     7
100
AcDbCircle
 10
486.4965889271
 20
-469.79904194
 30
0.0
 40
0.800084721903733
100
AcDbArc
 50
270.0061642101
 51
359.9949029989
  0
LINE
  5
141
330
1F
100
AcDbEntity
  8
0
  6
SLD-SOLID
 62
     7
100
AcDbLine
 10
486.4966750048
 20
-457.5991152132
 30
0.0
 11
485.7296805732
 21
-457.5991152132
 31
0.0
  0
LINE
  5
142
330
1F
100
AcDbEntity
  8
0
  6
SLD-SOLID
 62
     7
100
AcDbLine
 10
485.7253760003
 20
-470.5991266572
 30
0.0
 11
486.4966750048
 21
-470.5991266572
 31
0.0
  0
LINE
  5
143
330
1F
100
AcDbEntity
  8
0
  6
SLD-SOLID
 62
     7
100
AcDbLine
 10
440.5738517545
 20
-446.5990780199
 30
0.0
 11
438.5738514267
 21
-448.5991118753
 31
0.0
  0
LINE
  5
144
330
1F
100
AcDbEntity
  8
0
  6
SLD-SOLID
 62
     7
100
AcDbLine
 10
438.5738514267
 20
-479.5991299951
 30
0.0
 11
440.5738517545
 21
-481.5991042459
 31
0.0
  0
LINE
  5
145
330
1F
100
AcDbEntity
  8
0
  6
SLD-SOLID
 62
     7
100
AcDbLine
 10
440.5738517545
 20
-481.5991042459
 30
0.0
 11
441.3738503955
 21
-481.5991042459
 31
0.0
  0
LINE
  5
146
330
1F
100
AcDbEntity
  8
0
  6
SLD-SOLID
 62
     7
100
AcDbLine
 10
441.3738503955
 20
-446.5990780199
 30
0.0
 11
440.5738517545
 21
-446.5990780199
 31
0.0
  0
LINE
  5
147
330
1F
100
AcDbEntity
  8
0
  6
SLD-SOLID
 62
     7
100
AcDbLine
 10
446.296674376
 20
-472.099077543
 30
0.0
 11
448.2966747038
 21
-472.099077543
 31
0.0
  0
LINE
  5
148
330
1F
100
AcDbEntity
  8
0
  6
SLD-SOLID
 62
     7
100
AcDbLine
 10
448.2966747038
 20
-456.0991047227
 30
0.0
 11
446.296674376
 21
-456.0991047227
 31
0.0
  0
LINE
  5
149
330
1F
100
AcDbEntity
  8
0
  6
SLD-SOLID
 62
     7
100
AcDbLine
 10
440.5738517545
 20
-611.5990994775
 30
0.0
 11
441.3738503955
 21
-611.5990994775
 31
0.0
  0
LINE
  5
14A
330
1F
100
AcDbEntity
  8
0
  6
SLD-SOLID
 62
     7
100
AcDbLine
 10
441.3738503955
 20
-576.5991328561
 30
0.0
 11
440.5738517545
 21
-576.5991328561
 31
0.0
  0
LINE
  5
14B
330
1F
100
AcDbEntity
  8
0
  6
SLD-SOLID
 62
     7
100
AcDbLine
 10
440.5738517545
 20
-576.5991328561
 30
0.0
 11
438.5738514267
 21
-578.5991071069
 31
0.0
  0
LINE
  5
14C
330
1F
100
AcDbEntity
  8
0
  6
SLD-SOLID
 62
     7
100
AcDbLine
 10
438.5738514267
 20
-609.5991252267
 30
0.0
 11
440.5738517545
 21
-611.5990994775
 31
0.0
  0
LINE
  5
14D
330
1F
100
AcDbEntity
  8
0
  6
SLD-SOLID
 62
     7
100
AcDbLine
 10
446.296674376
 20
-602.0991323793
 30
0.0
 11
448.2966747038
 21
-602.0991323793
 31
0.0
  0
LINE
  5
14E
330
1F
100
AcDbEntity
  8
0
  6
SLD-SOLID
 62
     7
100
AcDbLine
 10
448.2966747038
 20
-586.0990999544
 30
0.0
 11
446.296674376
 21
-586.0990999544
 31
0.0
  0
LINE
  5
14F
330
1F
100
AcDbEntity
  8
0
  6
SLD-SOLID
 62
     7
100
AcDbLine
 10
453.2966745921
 20
-576.5991328561
 30
0.0
 11
452.2966744281
 21
-576.5991328561
 31
0.0
  0
LINE
  5
150
330
1F
100
AcDbEntity
  8
0
  6
SLD-SOLID
 62
     7
100
AcDbLine
 10
452.2966744281
 20
-611.5990994775
 30
0.0
 11
453.2966745921
 21
-611.5990994775
 31
0.0
  0
LINE
  5
151
330
1F
100
AcDbEntity
  8
0
  6
SLD-SOLID
 62
     7
100
AcDbLine
 10
452.2966744281
 20
-584.0991257036
 30
0.0
 11
448.2966747038
 21
-584.0991257036
 31
0.0
  0
LINE
  5
152
330
1F
100
AcDbEntity
  8
0
  6
SLD-SOLID
 62
     7
100
AcDbLine
 10
448.2966747038
 20
-604.0991066301
 30
0.0
 11
452.2966744281
 21
-604.0991066301
 31
0.0
  0
LINE
  5
153
330
1F
100
AcDbEntity
  8
0
  6
SLD-SOLID
 62
     7
100
AcDbLine
 10
441.2966754191
 20
-481.5991042459
 30
0.0
 11
442.2966737203
 21
-481.5991042459
 31
0.0
  0
LINE
  5
154
330
1F
100
AcDbEntity
  8
0
  6
SLD-SOLID
 62
     7
100
AcDbLine
 10
442.2966737203
 20
-446.5990780199
 30
0.0
 11
441.2966754191
 21
-446.5990780199
 31
0.0
  0
LINE
  5
155
330
1F
100
AcDbEntity
  8
0
  6
SLD-SOLID
 62
     7
100
AcDbLine
 10
442.2966737203
 20
-474.0991113985
 30
0.0
 11
446.296674376
 21
-474.0991113985
 31
0.0
  0
LINE
  5
156
330
1F
100
AcDbEntity
  8
0
  6
SLD-SOLID
 62
     7
100
AcDbLine
 10
446.296674376
 20
-454.0991304719
 30
0.0
 11
442.2966737203
 21
-454.0991304719
 31
0.0
  0
LINE
  5
157
330
1F
100
AcDbEntity
  8
0
  6
SLD-SOLID
 62
     7
100
AcDbLine
 10
441.2966754191
 20
-611.5990994775
 30
0.0
 11
442.2966737203
 21
-611.5990994775
 31
0.0
  0
LINE
  5
158
330
1F
100
AcDbEntity
  8
0
  6
SLD-SOLID
 62
     7
100
AcDbLine
 10
442.2966737203
 20
-576.5991328561
 30
0.0
 11
441.2966754191
 21
-576.5991328561
 31
0.0
  0
LINE
  5
159
330
1F
100
AcDbEntity
  8
0
  6
SLD-SOLID
 62
     7
100
AcDbLine
 10
442.2966737203
 20
-604.0991066301
 30
0.0
 11
446.296674376
 21
-604.0991066301
 31
0.0
  0
LINE
  5
15A
330
1F
100
AcDbEntity
  8
0
  6
SLD-SOLID
 62
     7
100
AcDbLine
 10
446.296674376
 20
-584.0991257036
 30
0.0
 11
442.2966737203
 21
-584.0991257036
 31
0.0
  0
LINE
  5
15B
330
1F
100
AcDbEntity
  8
0
  6
SLD-SOLID
 62
     7
100
AcDbLine
 10
453.2966745921
 20
-446.5990780199
 30
0.0
 11
452.2966744281
 21
-446.5990780199
 31
0.0
  0
LINE
  5
15C
330
1F
100
AcDbEntity
  8
0
  6
SLD-SOLID
 62
     7
100
AcDbLine
 10
452.2966744281
 20
-481.5991042459
 30
0.0
 11
453.2966745921
 21
-481.5991042459
 31
0.0
  0
LINE
  5
15D
330
1F
100
AcDbEntity
  8
0
  6
SLD-SOLID
 62
     7
100
AcDbLine
 10
452.2966744281
 20
-454.0991304719
 30
0.0
 11
448.2966747038
 21
-454.0991304719
 31
0.0
  0
LINE
  5
15E
330
1F
100
AcDbEntity
  8
0
  6
SLD-SOLID
 62
     7
100
AcDbLine
 10
448.2966747038
 20
-474.0991113985
 30
0.0
 11
452.2966744281
 21
-474.0991113985
 31
0.0
  0
LINE
  5
15F
330
1F
100
AcDbEntity
  8
0
  6
SLD-SOLID
 62
     7
100
AcDbLine
 10
453.2966745921
 20
-611.5990994775
 30
0.0
 11
459.2966746442
 21
-611.5990994775
 31
0.0
  0
LINE
  5
160
330
1F
100
AcDbEntity
  8
0
  6
SLD-SOLID
 62
     7
100
AcDbLine
 10
459.2966746442
 20
-576.5991328561
 30
0.0
 11
453.2966745921
 21
-576.5991328561
 31
0.0
  0
LINE
  5
161
330
1F
100
AcDbEntity
  8
0
  6
SLD-SOLID
 62
     7
100
AcDbLine
 10
459.2966746442
 20
-601.5991090143
 30
0.0
 11
461.2966745064
 21
-601.5991090143
 31
0.0
  0
LINE
  5
162
330
1F
100
AcDbEntity
  8
0
  6
SLD-SOLID
 62
     7
100
AcDbLine
 10
461.2966745064
 20
-586.5991233194
 30
0.0
 11
459.2966746442
 21
-586.5991233194
 31
0.0
  0
LINE
  5
163
330
1F
100
AcDbEntity
  8
0
  6
SLD-SOLID
 62
     7
100
AcDbLine
 10
453.2966745921
 20
-481.5991042459
 30
0.0
 11
459.2966746442
 21
-481.5991042459
 31
0.0
  0
LINE
  5
164
330
1F
100
AcDbEntity
  8
0
  6
SLD-SOLID
 62
     7
100
AcDbLine
 10
459.2966746442
 20
-446.5990780199
 30
0.0
 11
453.2966745921
 21
-446.5990780199
 31
0.0
  0
LINE
  5
165
330
1F
100
AcDbEntity
  8
0
  6
SLD-SOLID
 62
     7
100
AcDbLine
 10
459.2966746442
 20
-471.5991137826
 30
0.0
 11
461.2966745064
 21
-471.5991137826
 31
0.0
  0
LINE
  5
166
330
1F
100
AcDbEntity
  8
0
  6
SLD-SOLID
 62
     7
100
AcDbLine
 10
461.2966745064
 20
-456.5991280878
 30
0.0
 11
459.2966746442
 21
-456.5991280878
 31
0.0
  0
LINE
  5
167
330
1F
100
AcDbEntity
  8
0
  6
SLD-SOLID
 62
     7
100
AcDbLine
 10
486.2966753446
 20
-456.5991280878
 30
0.0
 11
486.2966753446
 21
-427.5990842187
 31
0.0
  0
LINE
  5
168
330
1F
100
AcDbEntity
  8
0
  6
SLD-SOLID
 62
     7
100
AcDbLine
 10
486.2966753446
 20
-586.5991233194
 30
0.0
 11
486.2966753446
 21
-471.5709803903
 31
0.0
  0
LINE
  5
169
330
1F
100
AcDbEntity
  8
0
  6
SLD-SOLID
 62
     7
100
AcDbLine
 10
486.2966753446
 20
-637.0990990007
 30
0.0
 11
486.2966753446
 21
-601.5709756219
 31
0.0
  0
LINE
  5
16A
330
1F
100
AcDbEntity
  8
0
  6
SLD-SOLID
 62
     7
100
AcDbLine
 10
461.2966745064
 20
-601.5991090143
 30
0.0
 11
461.2966745064
 21
-637.0990990007
 31
0.0
  0
LINE
  5
16B
330
1F
100
AcDbEntity
  8
0
  6
SLD-SOLID
 62
     7
100
AcDbLine
 10
461.2966745064
 20
-471.5991137826
 30
0.0
 11
461.2966745064
 21
-586.5991233194
 31
0.0
  0
LINE
  5
16C
330
1F
100
AcDbEntity
  8
0
  6
SLD-SOLID
 62
     7
100
AcDbLine
 10
461.2966745064
 20
-427.5990842187
 30
0.0
 11
461.2966745064
 21
-456.5991280878
 31
0.0
  0
LINE
  5
16D
330
1F
100
AcDbEntity
  8
0
  6
SLD-SOLID
 62
     7
100
AcDbLine
 10
486.2966753446
 20
-427.5990842187
 30
0.0
 11
485.7966743313
 21
-427.0991204584
 31
0.0
  0
LINE
  5
16E
330
1F
100
AcDbEntity
  8
0
  6
SLD-SOLID
 62
     7
100
AcDbLine
 10
461.7966745883
 20
-427.0991204584
 30
0.0
 11
461.2966745064
 21
-427.5990842187
 31
0.0
  0
LINE
  5
16F
330
1F
100
AcDbEntity
  8
0
  6
SLD-SOLID
 62
     7
100
AcDbLine
 10
456.2966741525
 20
-716.8990491235
 30
0.0
 11
456.496674744
 21
-717.0990823114
 31
0.0
  0
LINE
  5
170
330
1F
100
AcDbEntity
  8
0
  6
SLD-SOLID
 62
     7
100
AcDbLine
 10
491.0966746412
 20
-717.0990823114
 30
0.0
 11
491.2966743015
 21
-716.8990491235
 31
0.0
  0
LINE
  5
171
330
1F
100
AcDbEntity
  8
0
  6
SLD-SOLID
 62
     7
100
AcDbLine
 10
491.2966743015
 20
-637.2991321886
 30
0.0
 11
491.0966746412
 21
-637.0990990007
 31
0.0
  0
LINE
  5
172
330
1F
100
AcDbEntity
  8
0
  6
SLD-SOLID
 62
     7
100
AcDbLine
 10
456.496674744
 20
-637.0990990007
 30
0.0
 11
456.2966741525
 21
-637.2991321886
 31
0.0
  0
LINE
  5
173
330
1F
100
AcDbEntity
  8
0
  6
SLD-SOLID
 62
     7
100
AcDbLine
 10
491.2966743015
 20
-648.7895963991
 30
0.0
 11
491.2966743015
 21
-637.2991321886
 31
0.0
  0
LINE
  5
174
330
1F
100
AcDbEntity
  8
0
  6
SLD-SOLID
 62
     7
100
AcDbLine
 10
491.2966743015
 20
-658.7895868623
 30
0.0
 11
491.2966743015
 21
-655.4086325967
 31
0.0
  0
LINE
  5
175
330
1F
100
AcDbEntity
  8
0
  6
SLD-SOLID
 62
     7
100
AcDbLine
 10
491.2966743015
 20
-716.8990491235
 30
0.0
 11
491.2966743015
 21
-665.40862306
 31
0.0
  0
LINE
  5
176
330
1F
100
AcDbEntity
  8
0
  6
SLD-SOLID
 62
     7
100
AcDbLine
 10
456.2966741525
 20
-637.2991321886
 30
0.0
 11
456.2966741525
 21
-716.8990491235
 31
0.0
  0
LINE
  5
177
330
1F
100
AcDbEntity
  8
0
  6
SLD-SOLID
 62
     7
100
AcDbLine
 10
486.2966753446
 20
-427.0991204584
 30
0.0
 11
461.2966745064
 21
-427.0991204584
 31
0.0
  0
LINE
  5
178
330
1F
100
AcDbEntity
  8
0
  6
SLD-SOLID
 62
     7
100
AcDbLine
 10
487.2966736458
 20
-588.3993028009
 30
0.0
 11
487.2966736458
 21
-599.7991083467
 31
0.0
  0
LINE
  5
179
330
1F
100
AcDbEntity
  8
0
  6
SLD-SOLID
 62
     7
100
AcDbLine
 10
487.2966736458
 20
-464.4564507806
 30
0.0
 11
487.2966736458
 21
-469.7991131151
 31
0.0
  0
LINE
  5
17A
330
1F
100
AcDbEntity
  8
0
  6
SLD-SOLID
 62
     7
100
AcDbLine
 10
487.2966736458
 20
-458.3991287553
 30
0.0
 11
487.2966736458
 21
-464.4564507806
 31
0.0
  0
LINE
  5
17B
330
1F
100
AcDbEntity
  8
0
  6
SLD-SOLID
 62
     7
100
AcDbLine
 10
491.2966743015
 20
-648.7895963991
 30
0.0
 11
491.2966743015
 21
-655.4086325967
 31
0.0
  0
LINE
  5
17C
330
1F
100
AcDbEntity
  8
0
  6
SLD-SOLID
 62
     7
100
AcDbLine
 10
491.1165136747
 20
-654.7148941362
 30
0.0
 11
491.1165136747
 21
-649.483275255
 31
0.0
  0
LINE
  5
17D
330
1F
100
AcDbEntity
  8
0
  6
SLD-SOLID
 62
     7
100
AcDbLine
 10
491.2966743015
 20
-658.7895868623
 30
0.0
 11
491.2966743015
 21
-665.40862306
 31
0.0
  0
LINE
  5
17E
330
1F
100
AcDbEntity
  8
0
  6
SLD-SOLID
 62
     7
100
AcDbLine
 10
491.1165136747
 20
-664.7148845994
 30
0.0
 11
491.1165136747
 21
-659.4833253229
 31
0.0
  0
LINE
  5
17F
330
1F
100
AcDbEntity
  8
0
  6
SLD-SOLID
 62
     7
100
AcDbLine
 10
441.3738503955
 20
-481.5991042459
 30
0.0
 11
441.3738503955
 21
-446.5990780199
 31
0.0
  0
LINE
  5
180
330
1F
100
AcDbEntity
  8
0
  6
SLD-SOLID
 62
     7
100
AcDbLine
 10
441.5738519184
 20
-446.7991112077
 30
0.0
 11
441.5738519184
 21
-481.3991306627
 31
0.0
  0
LINE
  5
181
330
1F
100
AcDbEntity
  8
0
  6
SLD-SOLID
 62
     7
100
AcDbLine
 10
438.5738514267
 20
-449.2045758569
 30
0.0
 11
438.5738514267
 21
-448.5991118753
 31
0.0
  0
LINE
  5
182
330
1F
100
AcDbEntity
  8
0
  6
SLD-SOLID
 62
     7
100
AcDbLine
 10
438.5738514267
 20
-479.5991299951
 30
0.0
 11
438.5738514267
 21
-449.2045758569
 31
0.0
  0
LINE
  5
183
330
1F
100
AcDbEntity
  8
0
  6
SLD-SOLID
 62
     7
100
AcDbLine
 10
440.5738517545
 20
-447.2827432954
 30
0.0
 11
440.5738517545
 21
-481.5991042459
 31
0.0
  0
LINE
  5
184
330
1F
100
AcDbEntity
  8
0
  6
SLD-SOLID
 62
     7
100
AcDbLine
 10
440.5738517545
 20
-446.5990780199
 30
0.0
 11
440.5738517545
 21
-447.2827432954
 31
0.0
  0
LINE
  5
185
330
1F
100
AcDbEntity
  8
0
  6
SLD-SOLID
 62
     7
100
AcDbLine
 10
441.3738503955
 20
-611.5990994775
 30
0.0
 11
441.3738503955
 21
-576.5991328561
 31
0.0
  0
LINE
  5
186
330
1F
100
AcDbEntity
  8
0
  6
SLD-SOLID
 62
     7
100
AcDbLine
 10
441.5738519184
 20
-576.7991064394
 30
0.0
 11
441.5738519184
 21
-611.3991258943
 31
0.0
  0
LINE
  5
187
330
1F
100
AcDbEntity
  8
0
  6
SLD-SOLID
 62
     7
100
AcDbLine
 10
440.5738517545
 20
-576.5991328561
 30
0.0
 11
440.5738517545
 21
-611.5990994775
 31
0.0
  0
LINE
  5
188
330
1F
100
AcDbEntity
  8
0
  6
SLD-SOLID
 62
     7
100
AcDbLine
 10
438.5738514267
 20
-609.5991252267
 30
0.0
 11
438.5738514267
 21
-578.5991071069
 31
0.0
  0
LINE
  5
189
330
1F
100
AcDbEntity
  8
0
  6
SLD-SOLID
 62
     7
100
AcDbLine
 10
452.2966744281
 20
-608.7495802248
 30
0.0
 11
452.2966744281
 21
-611.5990994775
 31
0.0
  0
LINE
  5
18A
330
1F
100
AcDbEntity
  8
0
  6
SLD-SOLID
 62
     7
100
AcDbLine
 10
452.2966744281
 20
-576.5991328561
 30
0.0
 11
452.2966744281
 21
-608.7495802248
 31
0.0
  0
LINE
  5
18B
330
1F
100
AcDbEntity
  8
0
  6
SLD-SOLID
 62
     7
100
AcDbLine
 10
453.2966745921
 20
-608.7495802248
 30
0.0
 11
453.2966745921
 21
-611.5990994775
 31
0.0
  0
LINE
  5
18C
330
1F
100
AcDbEntity
  8
0
  6
SLD-SOLID
 62
     7
100
AcDbLine
 10
453.2966745921
 20
-576.5991328561
 30
0.0
 11
453.2966745921
 21
-608.7495802248
 31
0.0
  0
LINE
  5
18D
330
1F
100
AcDbEntity
  8
0
  6
SLD-SOLID
 62
     7
100
AcDbLine
 10
448.2966747038
 20
-602.4707673395
 30
0.0
 11
448.2966747038
 21
-604.0991066301
 31
0.0
  0
LINE
  5
18E
330
1F
100
AcDbEntity
  8
0
  6
SLD-SOLID
 62
     7
100
AcDbLine
 10
448.2966747038
 20
-584.0991257036
 30
0.0
 11
448.2966747038
 21
-602.4707673395
 31
0.0
  0
LINE
  5
18F
330
1F
100
AcDbEntity
  8
0
  6
SLD-SOLID
 62
     7
100
AcDbLine
 10
441.2966754191
 20
-481.5991042459
 30
0.0
 11
441.2966754191
 21
-446.5990780199
 31
0.0
  0
LINE
  5
190
330
1F
100
AcDbEntity
  8
0
  6
SLD-SOLID
 62
     7
100
AcDbLine
 10
442.2966737203
 20
-481.5991042459
 30
0.0
 11
442.2966737203
 21
-446.5990780199
 31
0.0
  0
LINE
  5
191
330
1F
100
AcDbEntity
  8
0
  6
SLD-SOLID
 62
     7
100
AcDbLine
 10
446.296674376
 20
-474.0991113985
 30
0.0
 11
446.296674376
 21
-454.0991304719
 31
0.0
  0
LINE
  5
192
330
1F
100
AcDbEntity
  8
0
  6
SLD-SOLID
 62
     7
100
AcDbLine
 10
442.2966737203
 20
-597.2530363405
 30
0.0
 11
442.2966737203
 21
-576.5991328561
 31
0.0
  0
LINE
  5
193
330
1F
100
AcDbEntity
  8
0
  6
SLD-SOLID
 62
     7
100
AcDbLine
 10
442.2966737203
 20
-611.5990994775
 30
0.0
 11
442.2966737203
 21
-597.2530363405
 31
0.0
  0
LINE
  5
194
330
1F
100
AcDbEntity
  8
0
  6
SLD-SOLID
 62
     7
100
AcDbLine
 10
441.2966754191
 20
-597.2530363405
 30
0.0
 11
441.2966754191
 21
-576.5991328561
 31
0.0
  0
LINE
  5
195
330
1F
100
AcDbEntity
  8
0
  6
SLD-SOLID
 62
     7
100
AcDbLine
 10
441.2966754191
 20
-611.5990994775
 30
0.0
 11
441.2966754191
 21
-597.2530363405
 31
0.0
  0
LINE
  5
196
330
1F
100
AcDbEntity
  8
0
  6
SLD-SOLID
 62
     7
100
AcDbLine
 10
446.296674376
 20
-595.9013818109
 30
0.0
 11
446.296674376
 21
-584.0991257036
 31
0.0
  0
LINE
  5
197
330
1F
100
AcDbEntity
  8
0
  6
SLD-SOLID
 62
     7
100
AcDbLine
 10
446.296674376
 20
-604.0991066301
 30
0.0
 11
446.296674376
 21
-595.9013818109
 31
0.0
  0
LINE
  5
198
330
1F
100
AcDbEntity
  8
0
  6
SLD-SOLID
 62
     7
100
AcDbLine
 10
452.2966744281
 20
-478.7495849931
 30
0.0
 11
452.2966744281
 21
-481.5991042459
 31
0.0
  0
LINE
  5
199
330
1F
100
AcDbEntity
  8
0
  6
SLD-SOLID
 62
     7
100
AcDbLine
 10
452.2966744281
 20
-446.5990780199
 30
0.0
 11
452.2966744281
 21
-478.7495849931
 31
0.0
  0
LINE
  5
19A
330
1F
100
AcDbEntity
  8
0
  6
SLD-SOLID
 62
     7
100
AcDbLine
 10
453.2966745921
 20
-478.7495849931
 30
0.0
 11
453.2966745921
 21
-481.5991042459
 31
0.0
  0
LINE
  5
19B
330
1F
100
AcDbEntity
  8
0
  6
SLD-SOLID
 62
     7
100
AcDbLine
 10
453.2966745921
 20
-446.5990780199
 30
0.0
 11
453.2966745921
 21
-478.7495849931
 31
0.0
  0
LINE
  5
19C
330
1F
100
AcDbEntity
  8
0
  6
SLD-SOLID
 62
     7
100
AcDbLine
 10
448.2966747038
 20
-472.4707721078
 30
0.0
 11
448.2966747038
 21
-474.0991113985
 31
0.0
  0
LINE
  5
19D
330
1F
100
AcDbEntity
  8
0
  6
SLD-SOLID
 62
     7
100
AcDbLine
 10
448.2966747038
 20
-454.0991304719
 30
0.0
 11
448.2966747038
 21
-472.4707721078
 31
0.0
  0
LINE
  5
19E
330
1F
100
AcDbEntity
  8
0
  6
SLD-SOLID
 62
     7
100
AcDbLine
 10
453.2966745921
 20
-611.5990994775
 30
0.0
 11
453.2966745921
 21
-576.5991328561
 31
0.0
  0
LINE
  5
19F
330
1F
100
AcDbEntity
  8
0
  6
SLD-SOLID
 62
     7
100
AcDbLine
 10
459.2966746442
 20
-611.5990994775
 30
0.0
 11
459.2966746442
 21
-576.5991328561
 31
0.0
  0
LINE
  5
1A0
330
1F
100
AcDbEntity
  8
0
  6
SLD-SOLID
 62
     7
100
AcDbLine
 10
459.2966746442
 20
-481.5991042459
 30
0.0
 11
459.2966746442
 21
-446.5990780199
 31
0.0
  0
LINE
  5
1A1
330
1F
100
AcDbEntity
  8
0
  6
SLD-SOLID
 62
     7
100
AcDbLine
 10
453.2966745921
 20
-481.5991042459
 30
0.0
 11
453.2966745921
 21
-446.5990780199
 31
0.0
  0
SPLINE
  5
1A2
330
1F
100
AcDbEntity
  8
0
  6
SLD-SOLID
 62
     7
100
AcDbSpline
210
0.0
220
0.0
230
1.0
 70
     8
 71
     3
 72
    21
 73
    17
 74
     0
 42
0.00000001
 43
0.00000001
 40
0.0
 40
0.0
 40
0.0
 40
0.0
 40
0.0252450990281856
 40
0.0949107619395789
 40
0.2063911670251051
 40
0.27956276710103
 40
0.36136431771265
 40
0.4904365084937585
 40
0.6203748473072
 40
0.7404375079117511
 40
0.8620233472239374
 40
0.9171497239435393
 40
0.9610674301073636
 40
0.9870168429332474
 40
0.9981666940575531
 40
1.0
 40
1.0
 40
1.0
 40
1.0
 10
486.2966753445597
 20
-586.5991233193892
 30
0.0
 10
486.227756897699
 20
-586.7150323827165
 30
0.0
 10
485.9686530496235
 20
-587.1508008264773
 30
0.0
 10
485.4337747758697
 20
-588.1150968717928
 30
0.0
 10
484.8464682423801
 20
-589.3422848080529
 30
0.0
 10
484.3466581912053
 20
-590.676412428341
 30
0.0
 10
483.9430946495167
 20
-592.1414438065626
 30
0.0
 10
483.7234752056298
 20
-593.9611916450318
 30
0.0
 10
483.9131717898416
 20
-595.9942183888018
 30
0.0
 10
484.4495109997748
 20
-597.9044052638335
 30
0.0
 10
485.0916989249835
 20
-599.3858908191331
 30
0.0
 10
485.6062156657727
 20
-600.3933534180428
 30
0.0
 10
485.9803642990066
 20
-601.0601517924846
 30
0.0
 10
486.1057886020805
 20
-601.2792969311672
 30
0.0
 10
486.3264737934026
 20
-601.6493774138273
 30
0.0
 10
486.2857316484275
 20
-601.5806766194644
 30
0.0
 10
486.279978593442
 20
-601.5709756219404
 30
0.0
  0
SPLINE
  5
1A3
330
1F
100
AcDbEntity
  8
0
  6
SLD-SOLID
 62
     7
100
AcDbSpline
210
0.0
220
0.0
230
1.0
 70
     8
 71
     3
 72
    21
 73
    17
 74
     0
 42
0.00000001
 43
0.00000001
 40
0.0
 40
0.0
 40
0.0
 40
0.0
 40
0.0252450995085153
 40
0.0949107637454129
 40
0.2063911709520379
 40
0.2795627724201733
 40
0.3613643245882029
 40
0.490436517825123
 40
0.620374859110856
 40
0.7404375219997975
 40
0.862023363625355
 40
0.9171497413938274
 40
0.9610674483932586
 40
0.987013647384239
 40
0.9981666940226713
 40
0.9999999999999999
 40
0.9999999999999999
 40
0.9999999999999999
 40
0.9999999999999999
 10
486.2966753445597
 20
-456.5991280877608
 30
0.0
 10
486.2277568976901
 20
-456.7150371510928
 30
0.0
 10
485.9686530495817
 20
-457.1508055948712
 30
0.0
 10
485.4337747765644
 20
-458.1151016397934
 30
0.0
 10
484.8464682388044
 20
-459.3422895783337
 30
0.0
 10
484.3466581998582
 20
-460.6764171920927
 30
0.0
 10
483.9430946033207
 20
-462.1414485995986
 30
0.0
 10
483.7234754917434
 20
-463.9611962606451
 30
0.0
 10
483.9131707643309
 20
-465.9942237047011
 30
0.0
 10
484.4495145190019
 20
-467.9044081532646
 30
0.0
 10
485.0916886583887
 20
-469.3859010689119
 30
0.0
 10
485.6062303688107
 20
-470.3933503363587
 30
0.0
 10
485.9803184632195
 20
-471.0601587485056
 30
0.0
 10
486.1058428784281
 20
-471.279263047239
 30
0.0
 10
486.3264813584036
 20
-471.6493974419438
 30
0.0
 10
486.2857313438465
 20
-471.5806811839286
 30
0.0
 10
486.279978593442
 20
-471.570980390312
 30
0.0
  0
SPLINE
  5
1A4
330
1F
100
AcDbEntity
  8
0
  6
SLD-SOLID
 62
     7
100
AcDbSpline
210
0.0
220
0.0
230
1.0
 70
     8
 71
     3
 72
    14
 73
    10
 74
     0
 42
0.00000001
 43
0.00000001
 40
0.0
 40
0.0
 40
0.0
 40
0.0
 40
0.2792887980056059
 40
0.5349598192447899
 40
0.7755336400834325
 40
0.8772290387659419
 40
0.9538953118135576
 40
0.9925890863525204
 40
1.0
 40
1.0
 40
1.0
 40
1.0
 10
463.7966745669053
 20
-464.0991209352034
 30
0.0
 10
463.7476504837973
 20
-464.8429109719533
 30
0.0
 10
463.6537479899434
 20
-466.267593187843
 30
0.0
 10
463.0111996778234
 20
-468.2435035001847
 30
0.0
 10
462.3556773946179
 20
-469.6923905739488
 30
0.0
 10
461.8316005325316
 20
-470.6757216896777
 30
0.0
 10
461.5463756397466
 20
-471.1774567154022
 30
0.0
 10
461.3807354269138
 20
-471.4587498404492
 30
0.0
 10
461.3177410046881
 20
-471.5639113849569
 30
0.0
 10
461.3076152183147
 20
-471.5808151566999
 30
0.0
  0
SPLINE
  5
1A5
330
1F
100
AcDbEntity
  8
0
  6
SLD-SOLID
 62
     7
100
AcDbSpline
210
0.0
220
0.0
230
1.0
 70
     8
 71
     3
 72
    14
 73
    10
 74
     0
 42
0.00000001
 43
0.00000001
 40
0.0
 40
0.0
 40
0.0
 40
0.0
 40
0.0432601620724316
 40
0.1714186980953808
 40
0.3863753672418806
 40
0.5295889127762468
 40
0.690289288017931
 40
0.8400104200316633
 40
1.0
 40
1.0
 40
1.0
 40
1.0
 10
461.3030356723846
 20
-456.6098569238203
 30
0.0
 10
461.36195526916
 20
-456.7088671965219
 30
0.0
 10
461.5954245879904
 20
-457.1011961021826
 30
0.0
 10
462.0977301548658
 20
-457.999527516914
 30
0.0
 10
462.6669895611565
 20
-459.1647490492788
 30
0.0
 10
463.1712288245733
 20
-460.4528011148084
 30
0.0
 10
463.5127014040251
 20
-461.6131220857486
 30
0.0
 10
463.7501927815595
 20
-462.8473553767544
 30
0.0
 10
463.7808419148055
 20
-463.6727438403895
 30
0.0
 10
463.7966745669053
 20
-464.0991209352034
 30
0.0
  0
SPLINE
  5
1A6
330
1F
100
AcDbEntity
  8
0
  6
SLD-SOLID
 62
     7
100
AcDbSpline
210
0.0
220
0.0
230
1.0
 70
     8
 71
     3
 72
    14
 73
    10
 74
     0
 42
0.00000001
 43
0.00000001
 40
0.0
 40
0.0
 40
0.0
 40
0.0
 40
0.2792886762295594
 40
0.5349667378469061
 40
0.7755336371908041
 40
0.8772355903033314
 40
0.9538953319162138
 40
0.9925890895838414
 40
1.0
 40
1.0
 40
1.0
 40
1.0
 10
463.7966745669053
 20
-594.0991161668318
 30
0.0
 10
463.7476456404229
 20
-594.8429043321207
 30
0.0
 10
463.6537326138923
 20
-596.2676020098263
 30
0.0
 10
463.0112410886397
 20
-598.2435366459431
 30
0.0
 10
462.3556235669786
 20
-599.6923975749586
 30
0.0
 10
461.8316374272702
 20
-600.6757571479255
 30
0.0
 10
461.5463616332905
 20
-601.1774638934587
 30
0.0
 10
461.380735559491
 20
-601.4587451465161
 30
0.0
 10
461.3177410230475
 20
-601.5639066268938
 30
0.0
 10
461.3076152183147
 20
-601.5808103883285
 30
0.0
  0
SPLINE
  5
1A7
330
1F
100
AcDbEntity
  8
0
  6
SLD-SOLID
 62
     7
100
AcDbSpline
210
0.0
220
0.0
230
1.0
 70
     8
 71
     3
 72
    14
 73
    10
 74
     0
 42
0.00000001
 43
0.00000001
 40
0.0
 40
0.0
 40
0.0
 40
0.0
 40
0.0432601722852009
 40
0.1714187385635511
 40
0.3863821767080965
 40
0.5295888017225742
 40
0.6902892149020692
 40
0.8400103822616554
 40
1.0
 40
1.0
 40
1.0
 40
1.0
 10
461.3030356723846
 20
-586.6098521554487
 30
0.0
 10
461.3619551914815
 20
-586.7088624634964
 30
0.0
 10
461.5954242025102
 20
-587.1011915092156
 30
0.0
 10
462.0977460570988
 20
-587.9995351068815
 30
0.0
 10
462.6669578754052
 20
-589.1647777160368
 30
0.0
 10
463.1712440882814
 20
-590.4528101087092
 30
0.0
 10
463.5126988190411
 20
-591.613118355022
 30
0.0
 10
463.750193459192
 20
-592.8473503363729
 30
0.0
 10
463.780842145621
 20
-593.6727389793657
 30
0.0
 10
463.7966745669053
 20
-594.0991161668318
 30
0.0
  0
LINE
  5
1A8
330
1F
100
AcDbEntity
  8
0
  6
SLD-SOLID
 62
     7
100
AcDbLine
 10
486.2966753446
 20
-427.5990842187
 30
0.0
 11
461.2966745064
 21
-427.5990842187
 31
0.0
  0
LINE
  5
1A9
330
1F
100
AcDbEntity
  8
0
  6
SLD-SOLID
 62
     7
100
AcDbLine
 10
473.796674227
 20
-716.8990491235
 30
0.0
 11
491.2966743015
 21
-716.8990491235
 31
0.0
  0
LINE
  5
1AA
330
1F
100
AcDbEntity
  8
0
  6
SLD-SOLID
 62
     7
100
AcDbLine
 10
456.2966741525
 20
-716.8990491235
 30
0.0
 11
473.796674227
 21
-716.8990491235
 31
0.0
  0
LINE
  5
1AB
330
1F
100
AcDbEntity
  8
0
  6
SLD-SOLID
 62
     7
100
AcDbLine
 10
473.796674227
 20
-717.0990823114
 30
0.0
 11
456.496674744
 21
-717.0990823114
 31
0.0
  0
LINE
  5
1AC
330
1F
100
AcDbEntity
  8
0
  6
SLD-SOLID
 62
     7
100
AcDbLine
 10
491.0966746412
 20
-717.0990823114
 30
0.0
 11
473.796674227
 21
-717.0990823114
 31
0.0
  0
LINE
  5
1AD
330
1F
100
AcDbEntity
  8
0
  6
SLD-SOLID
 62
     7
100
AcDbLine
 10
473.796674227
 20
-637.0990990007
 30
0.0
 11
491.0966746412
 21
-637.0990990007
 31
0.0
  0
LINE
  5
1AE
330
1F
100
AcDbEntity
  8
0
  6
SLD-SOLID
 62
     7
100
AcDbLine
 10
456.496674744
 20
-637.0990990007
 30
0.0
 11
473.796674227
 21
-637.0990990007
 31
0.0
  0
LINE
  5
1AF
330
1F
100
AcDbEntity
  8
0
  6
SLD-SOLID
 62
     7
100
AcDbLine
 10
473.796674227
 20
-637.2991321886
 30
0.0
 11
456.2966741525
 21
-637.2991321886
 31
0.0
  0
LINE
  5
1B0
330
1F
100
AcDbEntity
  8
0
  6
SLD-SOLID
 62
     7
100
AcDbLine
 10
491.2966743015
 20
-637.2991321886
 30
0.0
 11
473.796674227
 21
-637.2991321886
 31
0.0
  0
LINE
  5
1B1
330
1F
100
AcDbEntity
  8
0
  6
SLD-SOLID
 62
     8
100
AcDbLine
 10
486.4966750048
 20
-600.5991218889
 30
0.0
 11
486.4966750048
 21
-587.5993488634
 31
0.0
  0
LINE
  5
1B2
330
1F
100
AcDbEntity
  8
0
  6
SLD-SOLID
 62
     8
100
AcDbLine
 10
486.4966750048
 20
-464.5066378915
 30
0.0
 11
486.4966750048
 21
-457.5991152132
 31
0.0
  0
LINE
  5
1B3
330
1F
100
AcDbEntity
  8
0
  6
SLD-SOLID
 62
     8
100
AcDbLine
 10
486.4966750048
 20
-470.5991266572
 30
0.0
 11
486.4966750048
 21
-464.5066378915
 31
0.0
  0
LINE
  5
1B4
330
1F
100
AcDbEntity
  8
0
  6
SLD-DASHED
 62
     7
100
AcDbLine
 10
489.4716745518
 20
155.2542260519
 30
0.0
 11
483.6341745518
 21
157.2542260519
 31
0.0
  0
LINE
  5
1B5
330
1F
100
AcDbEntity
  8
0
  6
SLD-DASHED
 62
     7
100
AcDbLine
 10
483.6341745518
 20
157.2542260519
 30
0.0
 11
479.6341745518
 21
153.2542260519
 31
0.0
  0
LINE
  5
1B6
330
1F
100
AcDbEntity
  8
0
  6
SLD-DASHED
 62
     7
100
AcDbLine
 10
479.6341745518
 20
153.2542260519
 30
0.0
 11
467.9591745518
 21
157.2542260519
 31
0.0
  0
LINE
  5
1B7
330
1F
100
AcDbEntity
  8
0
  6
SLD-DASHED
 62
     7
100
AcDbLine
 10
467.9591745518
 20
157.2542260519
 30
0.0
 11
463.9591745518
 21
153.2542260519
 31
0.0
  0
LINE
  5
1B8
330
1F
100
AcDbEntity
  8
0
  6
SLD-DASHED
 62
     7
100
AcDbLine
 10
463.9591745518
 20
153.2542260519
 30
0.0
 11
458.1216745518
 21
155.2542260519
 31
0.0
  0
LINE
  5
1B9
330
1F
100
AcDbEntity
  8
0
  6
SLD-DASHED
 62
     7
100
AcDbLine
 10
489.4716745518
 20
165.2542260519
 30
0.0
 11
483.6341745518
 21
167.2542260519
 31
0.0
  0
LINE
  5
1BA
330
1F
100
AcDbEntity
  8
0
  6
SLD-DASHED
 62
     7
100
AcDbLine
 10
483.6341745518
 20
167.2542260519
 30
0.0
 11
479.6341745518
 21
163.2542260519
 31
0.0
  0
LINE
  5
1BB
330
1F
100
AcDbEntity
  8
0
  6
SLD-DASHED
 62
     7
100
AcDbLine
 10
479.6341745518
 20
163.2542260519
 30
0.0
 11
467.9591745518
 21
167.2542260519
 31
0.0
  0
LINE
  5
1BC
330
1F
100
AcDbEntity
  8
0
  6
SLD-DASHED
 62
     7
100
AcDbLine
 10
467.9591745518
 20
167.2542260519
 30
0.0
 11
463.9591745518
 21
163.2542260519
 31
0.0
  0
LINE
  5
1BD
330
1F
100
AcDbEntity
  8
0
  6
SLD-DASHED
 62
     7
100
AcDbLine
 10
463.9591745518
 20
163.2542260519
 30
0.0
 11
458.1216745518
 21
165.2542260519
 31
0.0
  0
INSERT
  5
1C1
330
1F
100
AcDbEntity
  8
0
  6
CONTINUOUS
 62
     7
100
AcDbBlockReference
  2
SW_BROKEN_VIEW_2
 10
0.0
 20
0.0
 30
0.0
  0
LINE
  5
1C2
330
1F
100
AcDbEntity
  8
0
  6
SLD-SOLID
 62
     7
100
AcDbLine
 10
883.0056802122
 20
641.1681243928
 30
0.0
 11
883.0056802122
 21
164.1664275677
 31
0.0
  0
LINE
  5
1C3
330
1F
100
AcDbEntity
  8
0
  6
SLD-SOLID
 62
     7
100
AcDbLine
 10
908.0056805847
 20
166.3420269044
 30
0.0
 11
908.0056805847
 21
641.1681243928
 31
0.0
  0
LINE
  5
1C4
330
1F
100
AcDbEntity
  8
0
  6
SLD-SOLID
 62
     7
100
AcDbLine
 10
883.0056802122
 20
860.7055613549
 30
0.0
 11
883.0056802122
 21
641.6681477578
 31
0.0
  0
LINE
  5
1C5
330
1F
100
AcDbEntity
  8
0
  6
SLD-SOLID
 62
     7
100
AcDbLine
 10
908.0056805847
 20
641.6681477578
 30
0.0
 11
908.0056805847
 21
860.7055613549
 31
0.0
  0
LINE
  5
1C6
330
1F
100
AcDbEntity
  8
0
  6
SLD-SOLID
 62
     7
100
AcDbLine
 10
883.0056802122
 20
641.6681477578
 30
0.0
 11
883.5056802942
 21
641.1681243928
 31
0.0
  0
LINE
  5
1C7
330
1F
100
AcDbEntity
  8
0
  6
SLD-SOLID
 62
     7
100
AcDbLine
 10
907.5056805028
 20
641.1681243928
 30
0.0
 11
908.0056805847
 21
641.6681477578
 31
0.0
  0
LINE
  5
1C8
330
1F
100
AcDbEntity
  8
0
  6
SLD-SOLID
 62
     7
100
AcDbLine
 10
878.005680324
 20
860.9055945427
 30
0.0
 11
878.2056799842
 21
860.7055613549
 31
0.0
  0
LINE
  5
1C9
330
1F
100
AcDbEntity
  8
0
  6
SLD-SOLID
 62
     7
100
AcDbLine
 10
912.8056808127
 20
860.7055613549
 30
0.0
 11
913.005680473
 21
860.9055945427
 31
0.0
  0
LINE
  5
1CA
330
1F
100
AcDbEntity
  8
0
  6
SLD-SOLID
 62
     7
100
AcDbLine
 10
913.005680473
 20
940.5055114777
 30
0.0
 11
912.8056808127
 21
940.7055446656
 31
0.0
  0
LINE
  5
1CB
330
1F
100
AcDbEntity
  8
0
  6
SLD-SOLID
 62
     7
100
AcDbLine
 10
878.2056799842
 20
940.7055446656
 30
0.0
 11
878.005680324
 21
940.5055114777
 31
0.0
  0
LINE
  5
1CC
330
1F
100
AcDbEntity
  8
0
  6
SLD-SOLID
 62
     7
100
AcDbLine
 10
878.005680324
 20
940.5055114777
 30
0.0
 11
878.005680324
 21
860.9055945427
 31
0.0
  0
LINE
  5
1CD
330
1F
100
AcDbEntity
  8
0
  6
SLD-SOLID
 62
     7
100
AcDbLine
 10
913.005680473
 20
860.9055945427
 30
0.0
 11
913.005680473
 21
940.5055114777
 31
0.0
  0
LINE
  5
1CE
330
1F
100
AcDbEntity
  8
0
  6
SLD-SOLID
 62
     7
100
AcDbLine
 10
895.5056803985
 20
641.1681243928
 30
0.0
 11
883.0056802122
 21
641.1681243928
 31
0.0
  0
LINE
  5
1CF
330
1F
100
AcDbEntity
  8
0
  6
SLD-SOLID
 62
     7
100
AcDbLine
 10
908.0056805847
 20
641.1681243928
 30
0.0
 11
895.5056803985
 21
641.1681243928
 31
0.0
  0
CIRCLE
  5
1D0
330
1F
100
AcDbEntity
  8
0
  6
SLD-SOLID
 62
     7
100
AcDbCircle
 10
895.5056852805
 20
808.168157243
 30
0.0
 40
5.700005064951087
  0
LINE
  5
1D1
330
1F
100
AcDbEntity
  8
0
  6
SLD-SOLID
 62
     7
100
AcDbLine
 10
895.7235837748
 20
804.6993085892
 30
0.0
 11
898.6187108545
 21
806.6224524529
 31
0.0
  0
LINE
  5
1D2
330
1F
100
AcDbEntity
  8
0
  6
SLD-SOLID
 62
     7
100
AcDbLine
 10
898.6187108545
 20
806.6224524529
 30
0.0
 11
898.4008074491
 21
810.0912639649
 31
0.0
  0
LINE
  5
1D3
330
1F
100
AcDbEntity
  8
0
  6
SLD-SOLID
 62
     7
100
AcDbLine
 10
895.2877770222
 20
811.6369316132
 30
0.0
 11
898.4008074491
 21
810.0912639649
 31
0.0
  0
LINE
  5
1D4
330
1F
100
AcDbEntity
  8
0
  6
SLD-SOLID
 62
     7
100
AcDbLine
 10
892.3926499425
 20
809.7138473542
 30
0.0
 11
895.2877770222
 21
811.6369316132
 31
0.0
  0
LINE
  5
1D5
330
1F
100
AcDbEntity
  8
0
  6
SLD-SOLID
 62
     7
100
AcDbLine
 10
892.3926499425
 20
809.7138473542
 30
0.0
 11
892.6105533479
 21
806.2450358422
 31
0.0
  0
LINE
  5
1D6
330
1F
100
AcDbEntity
  8
0
  6
SLD-SOLID
 62
     7
100
AcDbLine
 10
895.7235837748
 20
804.6993085892
 30
0.0
 11
892.6105533479
 21
806.2450358422
 31
0.0
  0
CIRCLE
  5
1D7
330
1F
100
AcDbEntity
  8
0
  6
SLD-SOLID
 62
     7
100
AcDbCircle
 10
895.505685451
 20
808.1681412598
 30
0.0
 40
6.500006418426994
  0
ARC
  5
1D8
330
1F
100
AcDbEntity
  8
0
  6
SLD-SOLID
 62
     7
100
AcDbCircle
 10
895.5055856066
 20
808.168181909
 30
0.0
 40
3.009909267034033
100
AcDbArc
 50
123.5934564165
 51
183.5957341874
  0
ARC
  5
1D9
330
1F
100
AcDbEntity
  8
0
  6
SLD-SOLID
 62
     7
100
AcDbCircle
 10
895.5056882644
 20
808.1679891571
 30
0.0
 40
3.01012662662886
100
AcDbArc
 50
63.5958398234
 51
123.5930540958
  0
ARC
  5
1DA
330
1F
100
AcDbEntity
  8
0
  6
SLD-SOLID
 62
     7
100
AcDbCircle
 10
895.5056546834
 20
808.1681184399
 30
0.0
 40
3.010025765443037
100
AcDbArc
 50
3.5944476948
 51
63.5941729322
  0
ARC
  5
1DB
330
1F
100
AcDbEntity
  8
0
  6
SLD-SOLID
 62
     7
100
AcDbCircle
 10
895.5057860212
 20
808.1681083474
 30
0.0
 40
3.009895318795571
100
AcDbArc
 50
303.5933852707
 51
3.594796177
  0
ARC
  5
1DC
330
1F
100
AcDbEntity
  8
0
  6
SLD-SOLID
 62
     7
100
AcDbCircle
 10
895.5057003686
 20
808.1678675243
 30
0.0
 40
3.009742114909713
100
AcDbArc
 50
243.591613846
 51
303.5972800732
  0
ARC
  5
1DD
330
1F
100
AcDbEntity
  8
0
  6
SLD-SOLID
 62
     7
100
AcDbCircle
 10
895.5055106187
 20
808.1680559926
 30
0.0
 40
3.009826532248629
100
AcDbArc
 50
183.5934314588
 51
243.5964447328
  0
CIRCLE
  5
1DE
330
1F
100
AcDbEntity
  8
0
  6
SLD-SOLID
 62
     7
100
AcDbCircle
 10
895.5056852805
 20
678.1681620113
 30
0.0
 40
5.700005064951087
  0
LINE
  5
1DF
330
1F
100
AcDbEntity
  8
0
  6
SLD-SOLID
 62
     7
100
AcDbLine
 10
895.7235837748
 20
674.6993133576
 30
0.0
 11
898.6187108545
 21
676.6224572213
 31
0.0
  0
LINE
  5
1E0
330
1F
100
AcDbEntity
  8
0
  6
SLD-SOLID
 62
     7
100
AcDbLine
 10
898.6187108545
 20
676.6224572213
 30
0.0
 11
898.4008074491
 21
680.0912687333
 31
0.0
  0
LINE
  5
1E1
330
1F
100
AcDbEntity
  8
0
  6
SLD-SOLID
 62
     7
100
AcDbLine
 10
895.2877770222
 20
681.6369363816
 30
0.0
 11
898.4008074491
 21
680.0912687333
 31
0.0
  0
LINE
  5
1E2
330
1F
100
AcDbEntity
  8
0
  6
SLD-SOLID
 62
     7
100
AcDbLine
 10
892.3926499425
 20
679.7138521226
 30
0.0
 11
895.2877770222
 21
681.6369363816
 31
0.0
  0
LINE
  5
1E3
330
1F
100
AcDbEntity
  8
0
  6
SLD-SOLID
 62
     7
100
AcDbLine
 10
892.3926499425
 20
679.7138521226
 30
0.0
 11
892.6105533479
 21
676.2450406106
 31
0.0
  0
LINE
  5
1E4
330
1F
100
AcDbEntity
  8
0
  6
SLD-SOLID
 62
     7
100
AcDbLine
 10
895.7235837748
 20
674.6993133576
 30
0.0
 11
892.6105533479
 21
676.2450406106
 31
0.0
  0
CIRCLE
  5
1E5
330
1F
100
AcDbEntity
  8
0
  6
SLD-SOLID
 62
     7
100
AcDbCircle
 10
895.5056781453
 20
678.1681313146
 30
0.0
 40
6.499995145195026
  0
ARC
  5
1E6
330
1F
100
AcDbEntity
  8
0
  6
SLD-SOLID
 62
     7
100
AcDbCircle
 10
895.505762817
 20
678.1680986885
 30
0.0
 40
3.010080611917398
100
AcDbArc
 50
123.5953395055
 51
183.5938510984
  0
ARC
  5
1E7
330
1F
100
AcDbEntity
  8
0
  6
SLD-SOLID
 62
     7
100
AcDbCircle
 10
895.5056882644
 20
678.1679939254
 30
0.0
 40
3.01012662662886
100
AcDbArc
 50
63.5958398234
 51
123.5930540958
  0
ARC
  5
1E8
330
1F
100
AcDbEntity
  8
0
  6
SLD-SOLID
 62
     7
100
AcDbCircle
 10
895.5056546834
 20
678.1681232082
 30
0.0
 40
3.010025765442736
100
AcDbArc
 50
3.5944476948
 51
63.5941729322
  0
ARC
  5
1E9
330
1F
100
AcDbEntity
  8
0
  6
SLD-SOLID
 62
     7
100
AcDbCircle
 10
895.5057860212
 20
678.1681131158
 30
0.0
 40
3.009895318795381
100
AcDbArc
 50
303.5933852707
 51
3.594796177
  0
ARC
  5
1EA
330
1F
100
AcDbEntity
  8
0
  6
SLD-SOLID
 62
     7
100
AcDbCircle
 10
895.5056345995
 20
678.1680677685
 30
0.0
 40
3.009941329946474
100
AcDbArc
 50
243.5948947512
 51
303.5962638672
  0
ARC
  5
1EB
330
1F
100
AcDbEntity
  8
0
  6
SLD-SOLID
 62
     7
100
AcDbCircle
 10
895.5057061136
 20
678.168126531
 30
0.0
 40
3.010025765442685
100
AcDbArc
 50
183.5944476948
 51
243.5941729322
  0
LINE
  5
1EC
330
1F
100
AcDbEntity
  8
0
  6
SLD-SOLID
 62
     7
100
AcDbLine
 10
893.5056803035
 20
874.5508858712
 30
0.0
 11
895.5056803985
 21
873.3961650879
 31
0.0
  0
LINE
  5
1ED
330
1F
100
AcDbEntity
  8
0
  6
SLD-SOLID
 62
     7
100
AcDbLine
 10
897.5056804935
 20
874.5508858712
 30
0.0
 11
895.5056803985
 21
873.3961650879
 31
0.0
  0
LINE
  5
1EE
330
1F
100
AcDbEntity
  8
0
  6
SLD-SOLID
 62
     7
100
AcDbLine
 10
897.5056804935
 20
876.860267833
 30
0.0
 11
897.5056804935
 21
874.5508858712
 31
0.0
  0
LINE
  5
1EF
330
1F
100
AcDbEntity
  8
0
  6
SLD-SOLID
 62
     7
100
AcDbLine
 10
897.5056804935
 20
876.860267833
 30
0.0
 11
895.5056803985
 21
878.0149886162
 31
0.0
  0
LINE
  5
1F0
330
1F
100
AcDbEntity
  8
0
  6
SLD-SOLID
 62
     7
100
AcDbLine
 10
893.5056803035
 20
876.860267833
 30
0.0
 11
895.5056803985
 21
878.0149886162
 31
0.0
  0
LINE
  5
1F1
330
1F
100
AcDbEntity
  8
0
  6
SLD-SOLID
 62
     7
100
AcDbLine
 10
893.5056803035
 20
876.860267833
 30
0.0
 11
893.5056803035
 21
874.5508858712
 31
0.0
  0
CIRCLE
  5
1F2
330
1F
100
AcDbEntity
  8
0
  6
SLD-SOLID
 62
     7
100
AcDbCircle
 10
895.5056630764
 20
875.7055647319
 30
0.0
 40
3.309503444197657
  0
ARC
  5
1F3
330
1F
100
AcDbEntity
  8
0
  6
SLD-SOLID
 62
     7
100
AcDbCircle
 10
895.5054932621
 20
875.705620218
 30
0.0
 40
3.621736017003528
100
AcDbArc
 50
313.7575254389
 51
359.9988424798
  0
ARC
  5
1F4
330
1F
100
AcDbEntity
  8
0
  6
SLD-SOLID
 62
     7
100
AcDbCircle
 10
895.5056961751
 20
875.7055470498
 30
0.0
 40
3.62156465650956
100
AcDbArc
 50
133.7563679187
 51
226.2436320813
  0
ARC
  5
1F5
330
1F
100
AcDbEntity
  8
0
  6
SLD-SOLID
 62
     7
100
AcDbCircle
 10
895.5058800898
 20
875.7056390516
 30
0.0
 40
3.621349189698235
100
AcDbArc
 50
359.9985443772
 51
46.2450877041
  0
LINE
  5
1F6
330
1F
100
AcDbEntity
  8
0
  6
SLD-SOLID
 62
     7
100
AcDbLine
 10
893.5056803035
 20
884.5508763344
 30
0.0
 11
895.5056803985
 21
883.3961555512
 31
0.0
  0
LINE
  5
1F7
330
1F
100
AcDbEntity
  8
0
  6
SLD-SOLID
 62
     7
100
AcDbLine
 10
897.5056804935
 20
884.5508763344
 30
0.0
 11
895.5056803985
 21
883.3961555512
 31
0.0
  0
LINE
  5
1F8
330
1F
100
AcDbEntity
  8
0
  6
SLD-SOLID
 62
     7
100
AcDbLine
 10
897.5056804935
 20
886.8602582963
 30
0.0
 11
897.5056804935
 21
884.5508763344
 31
0.0
  0
LINE
  5
1F9
330
1F
100
AcDbEntity
  8
0
  6
SLD-SOLID
 62
     7
100
AcDbLine
 10
897.5056804935
 20
886.8602582963
 30
0.0
 11
895.5056803985
 21
888.0149790795
 31
0.0
  0
LINE
  5
1FA
330
1F
100
AcDbEntity
  8
0
  6
SLD-SOLID
 62
     7
100
AcDbLine
 10
893.5056803035
 20
886.8602582963
 30
0.0
 11
895.5056803985
 21
888.0149790795
 31
0.0
  0
LINE
  5
1FB
330
1F
100
AcDbEntity
  8
0
  6
SLD-SOLID
 62
     7
100
AcDbLine
 10
893.5056803035
 20
886.8602582963
 30
0.0
 11
893.5056803035
 21
884.5508763344
 31
0.0
  0
CIRCLE
  5
1FC
330
1F
100
AcDbEntity
  8
0
  6
SLD-SOLID
 62
     7
100
AcDbCircle
 10
895.5056630764
 20
885.7055551952
 30
0.0
 40
3.309503444197657
  0
ARC
  5
1FD
330
1F
100
AcDbEntity
  8
0
  6
SLD-SOLID
 62
     7
100
AcDbCircle
 10
895.505715175
 20
885.7055755323
 30
0.0
 40
3.621514103523219
100
AcDbArc
 50
313.7560264134
 51
359.9993984984
  0
ARC
  5
1FE
330
1F
100
AcDbEntity
  8
0
  6
SLD-SOLID
 62
     7
100
AcDbCircle
 10
895.5056263782
 20
885.7055673153
 30
0.0
 40
3.621494859719487
100
AcDbArc
 50
133.7558964153
 51
226.2441035847
  0
ARC
  5
1FF
330
1F
100
AcDbEntity
  8
0
  6
SLD-SOLID
 62
     7
100
AcDbCircle
 10
895.5058800898
 20
885.7056295149
 30
0.0
 40
3.621349189698235
100
AcDbArc
 50
359.9985443772
 51
46.2450877041
  0
ARC
  5
200
330
1F
100
AcDbEntity
  8
0
  6
SLD-SOLID
 62
     7
100
AcDbCircle
 10
895.5056710194
 20
808.1681201012
 30
0.0
 40
17.49998957414492
100
AcDbArc
 50
135.5846832355
 51
224.4153167645
  0
ARC
  5
201
330
1F
100
AcDbEntity
  8
0
  6
SLD-SOLID
 62
     7
100
AcDbCircle
 10
895.5056983725
 20
808.1681201012
 30
0.0
 40
17.49998343493878
100
AcDbArc
 50
315.5846635416
 51
44.4153364584
  0
ARC
  5
202
330
1F
100
AcDbEntity
  8
0
  6
SLD-SOLID
 62
     7
100
AcDbCircle
 10
895.505667095
 20
678.1681248696
 30
0.0
 40
17.49998677105606
100
AcDbArc
 50
135.5846742435
 51
224.4153257565
  0
ARC
  5
203
330
1F
100
AcDbEntity
  8
0
  6
SLD-SOLID
 62
     7
100
AcDbCircle
 10
895.5056937019
 20
678.1681248696
 30
0.0
 40
17.49998677105606
100
AcDbArc
 50
315.5846742435
 51
44.4153257565
  0
SPLINE
  5
204
330
1F
100
AcDbEntity
  8
0
  6
SLD-SOLID
 62
     7
100
AcDbSpline
210
0.0
220
0.0
230
1.0
 70
    11
 71
     3
 72
    34
 73
    30
 74
     0
 42
0.00000001
 43
0.00000001
 40
0.0
 40
0.0
 40
0.0
 40
0.0
 40
0.0129703554940448
 40
0.0616097211079703
 40
0.1089181119079849
 40
0.1587978725930184
 40
0.1865146343664507
 40
0.2155999873864481
 40
0.2598739196827193
 40
0.3043336448566162
 40
0.3471138674909425
 40
0.3964017575884983
 40
0.4242710450686075
 40
0.4534915969982945
 40
0.4803401787725335
 40
0.5085419438877572
 40
0.5561606652462965
 40
0.601635370210834
 40
0.650701579918456
 40
0.6780633075678977
 40
0.7066249762518377
 40
0.7516811767320077
 40
0.7973055831093628
 40
0.8397522832349478
 40
0.8876040516524484
 40
0.9151330466432076
 40
0.9438763729242297
 40
0.9712096963263513
 40
1.0
 40
1.0
 40
1.0
 40
1.0
 10
894.8966608018823
 20
800.6929227860045
 30
0.0
 10
895.0995527759553
 20
800.6815437758586
 30
0.0
 10
896.0632979827404
 20
800.627493010489
 30
0.0
 10
897.780784910155
 20
800.9045547012587
 30
0.0
 10
899.8611661687843
 20
801.9172965761131
 30
0.0
 10
901.3042060495835
 20
803.2916648240957
 30
0.0
 10
902.2044926019729
 20
804.7080520017805
 30
0.0
 10
902.8076795213916
 20
806.181047904603
 30
0.0
 10
903.1024893658614
 20
808.0284228251414
 30
0.0
 10
902.850102924304
 20
810.1003263194884
 30
0.0
 10
902.0181088643203
 20
812.0971593178218
 30
0.0
 10
900.8085540529698
 20
813.5782090867693
 30
0.0
 10
899.4696073006575
 20
814.5821665310496
 30
0.0
 10
898.287327042083
 20
815.1750727853337
 30
0.0
 10
897.0158664812872
 20
815.5525484718565
 30
0.0
 10
895.4110918811035
 20
815.7402270066615
 30
0.0
 10
893.494365073624
 20
815.505427982668
 30
0.0
 10
891.4299705923328
 20
814.5964277534797
 30
0.0
 10
889.9594453090763
 20
813.326527371915
 30
0.0
 10
889.0023358828356
 20
811.9804487077347
 30
0.0
 10
888.320235238866
 20
810.5444438729965
 30
0.0
 10
887.9212578305766
 20
808.6925910579919
 30
0.0
 10
888.0765246086683
 20
806.5839108386817
 30
0.0
 10
888.814317230705
 20
804.5608890032668
 30
0.0
 10
889.9260882903808
 20
803.0495733841339
 30
0.0
 10
891.1790355936271
 20
801.9935829102114
 30
0.0
 10
892.3198892269503
 20
801.3384389527048
 30
0.0
 10
893.5746920916504
 20
800.870285673526
 30
0.0
 10
894.4484436450655
 20
800.7530581648181
 30
0.0
 10
894.8966608018823
 20
800.6929227860044
 30
0.0
  0
SPLINE
  5
205
330
1F
100
AcDbEntity
  8
0
  6
SLD-SOLID
 62
     7
100
AcDbSpline
210
0.0
220
0.0
230
1.0
 70
    11
 71
     3
 72
    34
 73
    30
 74
     0
 42
0.00000001
 43
0.00000001
 40
0.0
 40
0.0
 40
0.0
 40
0.0
 40
0.0129703554940454
 40
0.0616097211079703
 40
0.1089181119079849
 40
0.1587978725930184
 40
0.1865146343664507
 40
0.2155999873864481
 40
0.2598739196827193
 40
0.3043336448566162
 40
0.3471138674909425
 40
0.3964017575884983
 40
0.4242710450686075
 40
0.4534915969982945
 40
0.4803401787725335
 40
0.5085419438877572
 40
0.5561606652462965
 40
0.601635370210834
 40
0.650701579918456
 40
0.6780633075678977
 40
0.7066249762518377
 40
0.7516811767320077
 40
0.7973055831093628
 40
0.8397522832349478
 40
0.8876040516524484
 40
0.9151330466432076
 40
0.9438763729242297
 40
0.9712096963263513
 40
1.0
 40
1.0
 40
1.0
 40
1.0
 10
894.8966608018823
 20
670.6929275543761
 30
0.0
 10
895.0995527759553
 20
670.6815485442303
 30
0.0
 10
896.0632979827404
 20
670.6274977788606
 30
0.0
 10
897.780784910155
 20
670.90455946963
 30
0.0
 10
899.8611661687843
 20
671.9173013444846
 30
0.0
 10
901.3042060495835
 20
673.2916695924671
 30
0.0
 10
902.2044926019729
 20
674.7080567701521
 30
0.0
 10
902.8076795213916
 20
676.1810526729745
 30
0.0
 10
903.1024893658614
 20
678.028427593513
 30
0.0
 10
902.850102924304
 20
680.1003310878601
 30
0.0
 10
902.0181088643203
 20
682.0971640861934
 30
0.0
 10
900.8085540529698
 20
683.5782138551409
 30
0.0
 10
899.4696073006575
 20
684.5821712994211
 30
0.0
 10
898.287327042083
 20
685.1750775537055
 30
0.0
 10
897.0158664812872
 20
685.5525532402279
 30
0.0
 10
895.4110918811035
 20
685.7402317750333
 30
0.0
 10
893.494365073624
 20
685.5054327510396
 30
0.0
 10
891.4299705923328
 20
684.5964325218512
 30
0.0
 10
889.9594453090763
 20
683.3265321402866
 30
0.0
 10
889.0023358828356
 20
681.9804534761062
 30
0.0
 10
888.320235238866
 20
680.5444486413679
 30
0.0
 10
887.9212578305766
 20
678.6925958263633
 30
0.0
 10
888.0765246086683
 20
676.5839156070533
 30
0.0
 10
888.814317230705
 20
674.5608937716381
 30
0.0
 10
889.9260882903808
 20
673.0495781525055
 30
0.0
 10
891.1790355936271
 20
671.993587678583
 30
0.0
 10
892.3198892269503
 20
671.3384437210765
 30
0.0
 10
893.5746920916504
 20
670.8702904418976
 30
0.0
 10
894.4484436450655
 20
670.7530629331898
 30
0.0
 10
894.8966608018823
 20
670.692927554376
 30
0.0
  0
LINE
  5
206
330
1F
100
AcDbEntity
  8
0
  6
SLD-SOLID
 62
     7
100
AcDbLine
 10
883.0056802122
 20
641.6681477578
 30
0.0
 11
908.0056805847
 21
641.6681477578
 31
0.0
  0
LINE
  5
207
330
1F
100
AcDbEntity
  8
0
  6
SLD-SOLID
 62
     7
100
AcDbLine
 10
912.8056808127
 20
860.7055613549
 30
0.0
 11
878.2056799842
 21
860.7055613549
 31
0.0
  0
LINE
  5
208
330
1F
100
AcDbEntity
  8
0
  6
SLD-SOLID
 62
     7
100
AcDbLine
 10
878.005680324
 20
860.9055945427
 30
0.0
 11
913.005680473
 21
860.9055945427
 31
0.0
  0
LINE
  5
209
330
1F
100
AcDbEntity
  8
0
  6
SLD-SOLID
 62
     7
100
AcDbLine
 10
913.005680473
 20
940.5055114777
 30
0.0
 11
878.005680324
 21
940.5055114777
 31
0.0
  0
LINE
  5
20A
330
1F
100
AcDbEntity
  8
0
  6
SLD-SOLID
 62
     7
100
AcDbLine
 10
878.2056799842
 20
940.7055446656
 30
0.0
 11
912.8056808127
 21
940.7055446656
 31
0.0
  0
SPLINE
  5
20B
330
1F
100
AcDbEntity
  8
0
  6
SLD-SOLID
 62
     7
100
AcDbSpline
210
0.0
220
0.0
230
1.0
 70
    11
 71
     3
 72
    31
 73
    27
 74
     0
 42
0.00000001
 43
0.00000001
 40
0.0
 40
0.0
 40
0.0
 40
0.0
 40
0.050305860283529
 40
0.0973526656651394
 40
0.1234654782632769
 40
0.1504847773947058
 40
0.1995519382203218
 40
0.2466081253354118
 40
0.2948595819038061
 40
0.3465837270824612
 40
0.4022701181263303
 40
0.4605799275447737
 40
0.4897694667698475
 40
0.5197984099871706
 40
0.5484311290831834
 40
0.5779824494242253
 40
0.6050409096859848
 40
0.6330545223473681
 40
0.6834554225074073
 40
0.7308313487204289
 40
0.7783544740357472
 40
0.8287542391893924
 40
0.8831776765757338
 40
0.9408252695234709
 40
0.9699984302983448
 40
1.0
 40
1.0
 40
1.0
 40
1.0
 10
892.9731789263174
 20
876.9925901444028
 30
0.0
 10
893.1196908040478
 20
877.2636240098531
 30
0.0
 10
893.4032228173812
 20
877.7881328670396
 30
0.0
 10
893.9926803870238
 20
878.2813254217446
 30
0.0
 10
894.5366710836317
 20
878.5588674338863
 30
0.0
 10
895.1357794562058
 20
878.7363304724213
 30
0.0
 10
895.9006303835508
 20
878.7514231503467
 30
0.0
 10
896.7478621468596
 20
878.4686788453556
 30
0.0
 10
897.4747490169952
 20
877.9234983035652
 30
0.0
 10
898.0286194278942
 20
877.1371188495068
 30
0.0
 10
898.3306724549516
 20
876.1585055271397
 30
0.0
 10
898.3106801301792
 20
875.271144502697
 30
0.0
 10
898.1197689429406
 20
874.5798885727793
 30
0.0
 10
897.8913737173127
 20
874.0939658954026
 30
0.0
 10
897.5811723575641
 20
873.6533857155833
 30
0.0
 10
897.2101084619009
 20
873.2873485851217
 30
0.0
 10
896.7821564072085
 20
872.9969594685729
 30
0.0
 10
896.1918320250238
 20
872.7383799413706
 30
0.0
 10
895.4170054412797
 20
872.629259805546
 30
0.0
 10
894.5372437828827
 20
872.8167547157561
 30
0.0
 10
893.7652687400184
 20
873.2759791644179
 30
0.0
 10
893.1455387802276
 20
873.984228175294
 30
0.0
 10
892.7484035707466
 20
874.9068974215999
 30
0.0
 10
892.6754933894919
 20
875.7776062747031
 30
0.0
 10
892.781132081183
 20
876.4841397241541
 30
0.0
 10
892.9085686341347
 20
876.8215322434534
 30
0.0
 10
892.9731789263174
 20
876.9925901444028
 30
0.0
  0
SPLINE
  5
20C
330
1F
100
AcDbEntity
  8
0
  6
SLD-SOLID
 62
     7
100
AcDbSpline
210
0.0
220
0.0
230
1.0
 70
    11
 71
     3
 72
    31
 73
    27
 74
     0
 42
0.00000001
 43
0.00000001
 40
0.0
 40
0.0
 40
0.0
 40
0.0
 40
0.0503030540826124
 40
0.09734982351463
 40
0.1234626161593409
 40
0.150481894644675
 40
0.1995490801337567
 40
0.2466062566009481
 40
0.2948576762992468
 40
0.3465817819542416
 40
0.4022681304468032
 40
0.4605778953093222
 40
0.489764261962775
 40
0.5197961388313413
 40
0.5484288360484065
 40
0.5779778420486582
 40
0.6050381144057481
 40
0.6330517056612578
 40
0.6834525673087599
 40
0.7308284573206996
 40
0.7783515463224577
 40
0.8287512729644331
 40
0.8831746687645202
 40
0.9408222176623485
 40
0.9699953561453102
 40
1.0
 40
1.0
 40
1.0
 40
1.0
 10
892.9731789263174
 20
886.9926402123044
 30
0.0
 10
893.1196946046509
 20
887.2636518283887
 30
0.0
 10
893.4032415122498
 20
887.7881315737511
 30
0.0
 10
893.9926795835848
 20
888.2813149565461
 30
0.0
 10
894.5366713696778
 20
888.5588605139815
 30
0.0
 10
895.135779018694
 20
888.7363066938126
 30
0.0
 10
895.9006427039807
 20
888.7515160912101
 30
0.0
 10
896.7478503529775
 20
888.468646285597
 30
0.0
 10
897.4747506595934
 20
887.9234966911208
 30
0.0
 10
898.0286202705987
 20
887.1371065430769
 30
0.0
 10
898.3306667038586
 20
886.1584984521597
 30
0.0
 10
898.3106988438897
 20
885.2711489489603
 30
0.0
 10
898.1197439260853
 20
884.5799079325941
 30
0.0
 10
897.8913883265436
 20
884.0939719535577
 30
0.0
 10
897.5811924633666
 20
883.6533727516999
 30
0.0
 10
897.2100685607406
 20
883.2874090567291
 30
0.0
 10
896.7821788553424
 20
882.9969374942467
 30
0.0
 10
896.1918256654088
 20
882.7383792367909
 30
0.0
 10
895.4170074059289
 20
882.6292475448388
 30
0.0
 10
894.5372432555209
 20
882.816745895264
 30
0.0
 10
893.7652689449477
 20
883.275969405312
 30
0.0
 10
893.1455384950709
 20
883.9842187781187
 30
0.0
 10
892.7484045880248
 20
884.9068875387464
 30
0.0
 10
892.675490240519
 20
885.7775977678368
 30
0.0
 10
892.7811404612718
 20
886.4841470963976
 30
0.0
 10
892.9085692717464
 20
886.8215621703991
 30
0.0
 10
892.9731789263174
 20
886.9926402123044
 30
0.0
  0
LINE
  5
20D
330
1F
100
AcDbEntity
  8
0
  6
SLD-SOLID
 62
     7
100
AcDbLine
 10
883.0056802122
 20
154.1664333737
 30
0.0
 11
883.0056802122
 21
-427.0991204584
 31
0.0
  0
LINE
  5
20E
330
1F
100
AcDbEntity
  8
0
  6
SLD-SOLID
 62
     7
100
AcDbLine
 10
908.0056805847
 20
-427.0991204584
 30
0.0
 11
908.0056805847
 21
156.3420178092
 31
0.0
  0
LINE
  5
20F
330
1F
100
AcDbEntity
  8
0
  6
SLD-SOLID
 62
     7
100
AcDbLine
 10
908.0056805847
 20
-637.0990990007
 30
0.0
 11
908.0056805847
 21
-427.5990842187
 31
0.0
  0
LINE
  5
210
330
1F
100
AcDbEntity
  8
0
  6
SLD-SOLID
 62
     7
100
AcDbLine
 10
883.0056802122
 20
-427.5990842187
 30
0.0
 11
883.0056802122
 21
-637.0990990007
 31
0.0
  0
LINE
  5
211
330
1F
100
AcDbEntity
  8
0
  6
SLD-SOLID
 62
     7
100
AcDbLine
 10
908.0056805847
 20
-427.5990842187
 30
0.0
 11
907.5056805028
 21
-427.0991204584
 31
0.0
  0
LINE
  5
212
330
1F
100
AcDbEntity
  8
0
  6
SLD-SOLID
 62
     7
100
AcDbLine
 10
883.5056802942
 20
-427.0991204584
 30
0.0
 11
883.0056802122
 21
-427.5990842187
 31
0.0
  0
LINE
  5
213
330
1F
100
AcDbEntity
  8
0
  6
SLD-SOLID
 62
     7
100
AcDbLine
 10
878.005680324
 20
-716.8990491235
 30
0.0
 11
878.2056799842
 21
-717.0990823114
 31
0.0
  0
LINE
  5
214
330
1F
100
AcDbEntity
  8
0
  6
SLD-SOLID
 62
     7
100
AcDbLine
 10
912.8056808127
 20
-717.0990823114
 30
0.0
 11
913.005680473
 21
-716.8990491235
 31
0.0
  0
LINE
  5
215
330
1F
100
AcDbEntity
  8
0
  6
SLD-SOLID
 62
     7
100
AcDbLine
 10
913.005680473
 20
-637.2991321886
 30
0.0
 11
912.8056808127
 21
-637.0990990007
 31
0.0
  0
LINE
  5
216
330
1F
100
AcDbEntity
  8
0
  6
SLD-SOLID
 62
     7
100
AcDbLine
 10
878.2056799842
 20
-637.0990990007
 30
0.0
 11
878.005680324
 21
-637.2991321886
 31
0.0
  0
LINE
  5
217
330
1F
100
AcDbEntity
  8
0
  6
SLD-SOLID
 62
     7
100
AcDbLine
 10
913.005680473
 20
-716.8990491235
 30
0.0
 11
913.005680473
 21
-637.2991321886
 31
0.0
  0
LINE
  5
218
330
1F
100
AcDbEntity
  8
0
  6
SLD-SOLID
 62
     7
100
AcDbLine
 10
878.005680324
 20
-637.2991321886
 30
0.0
 11
878.005680324
 21
-716.8990491235
 31
0.0
  0
LINE
  5
219
330
1F
100
AcDbEntity
  8
0
  6
SLD-SOLID
 62
     7
100
AcDbLine
 10
895.5056803985
 20
-427.0991204584
 30
0.0
 11
883.0056802122
 21
-427.0991204584
 31
0.0
  0
LINE
  5
21A
330
1F
100
AcDbEntity
  8
0
  6
SLD-SOLID
 62
     7
100
AcDbLine
 10
908.0056805847
 20
-427.0991204584
 30
0.0
 11
895.5056803985
 21
-427.0991204584
 31
0.0
  0
CIRCLE
  5
21B
330
1F
100
AcDbEntity
  8
0
  6
SLD-SOLID
 62
     7
100
AcDbCircle
 10
895.5056680047
 20
-594.0990948235
 30
0.0
 40
5.700014164827372
  0
LINE
  5
21C
330
1F
100
AcDbEntity
  8
0
  6
SLD-SOLID
 62
     7
100
AcDbLine
 10
892.0301663907
 20
-594.1296933496
 30
0.0
 11
893.7944135847
 21
-597.1242903078
 31
0.0
  0
LINE
  5
21D
330
1F
100
AcDbEntity
  8
0
  6
SLD-SOLID
 62
     7
100
AcDbLine
 10
893.7944135847
 20
-597.1242903078
 30
0.0
 11
897.2699275924
 21
-597.093713125
 31
0.0
  0
LINE
  5
21E
330
1F
100
AcDbEntity
  8
0
  6
SLD-SOLID
 62
     7
100
AcDbLine
 10
898.9811944062
 20
-594.0685389841
 30
0.0
 11
897.2699275924
 21
-597.093713125
 31
0.0
  0
LINE
  5
21F
330
1F
100
AcDbEntity
  8
0
  6
SLD-SOLID
 62
     7
100
AcDbLine
 10
897.2169472123
 20
-591.0739420259
 30
0.0
 11
898.9811944062
 21
-594.0685389841
 31
0.0
  0
LINE
  5
220
330
1F
100
AcDbEntity
  8
0
  6
SLD-SOLID
 62
     7
100
AcDbLine
 10
897.2169472123
 20
-591.0739420259
 30
0.0
 11
893.7414332045
 21
-591.1045192087
 31
0.0
  0
LINE
  5
221
330
1F
100
AcDbEntity
  8
0
  6
SLD-SOLID
 62
     7
100
AcDbLine
 10
892.0301663907
 20
-594.1296933496
 30
0.0
 11
893.7414332045
 21
-591.1045192087
 31
0.0
  0
CIRCLE
  5
222
330
1F
100
AcDbEntity
  8
0
  6
SLD-SOLID
 62
     7
100
AcDbCircle
 10
895.5056895534
 20
-594.099110476
 30
0.0
 40
6.499999210820566
  0
ARC
  5
223
330
1F
100
AcDbEntity
  8
0
  6
SLD-SOLID
 62
     7
100
AcDbCircle
 10
895.5056224733
 20
-594.0991099239
 30
0.0
 40
3.01005818905529
100
AcDbArc
 50
330.5045366111
 51
30.5039592406
  0
ARC
  5
224
330
1F
100
AcDbEntity
  8
0
  6
SLD-SOLID
 62
     7
100
AcDbCircle
 10
895.5055251979
 20
-594.0993489549
 30
0.0
 40
3.010263336639974
100
AcDbArc
 50
30.5069393303
 51
90.5012527212
  0
ARC
  5
225
330
1F
100
AcDbEntity
  8
0
  6
SLD-SOLID
 62
     7
100
AcDbCircle
 10
895.5057768664
 20
-594.0992161204
 30
0.0
 40
3.009871519821414
100
AcDbArc
 50
270.5024360483
 51
330.5048491182
  0
ARC
  5
226
330
1F
100
AcDbEntity
  8
0
  6
SLD-SOLID
 62
     7
100
AcDbCircle
 10
895.5056449284
 20
-594.0991608394
 30
0.0
 40
3.00992795848791
100
AcDbArc
 50
210.5032538087
 51
270.5049382428
  0
ARC
  5
227
330
1F
100
AcDbEntity
  8
0
  6
SLD-SOLID
 62
     7
100
AcDbCircle
 10
895.505629063
 20
-594.0990931147
 30
0.0
 40
3.009948665730731
100
AcDbArc
 50
150.5039979686
 51
210.5045178535
  0
ARC
  5
228
330
1F
100
AcDbEntity
  8
0
  6
SLD-SOLID
 62
     7
100
AcDbCircle
 10
895.5057481923
 20
-594.0991776091
 30
0.0
 40
3.010093956624041
100
AcDbArc
 50
90.5055256877
 51
150.5037145775
  0
CIRCLE
  5
229
330
1F
100
AcDbEntity
  8
0
  6
SLD-SOLID
 62
     7
100
AcDbCircle
 10
895.5056852805
 20
-464.0990837935
 30
0.0
 40
5.700005064951077
  0
LINE
  5
22A
330
1F
100
AcDbEntity
  8
0
  6
SLD-SOLID
 62
     7
100
AcDbLine
 10
895.7235837748
 20
-467.5679324472
 30
0.0
 11
898.6187108545
 21
-465.6447885835
 31
0.0
  0
LINE
  5
22B
330
1F
100
AcDbEntity
  8
0
  6
SLD-SOLID
 62
     7
100
AcDbLine
 10
898.6187108545
 20
-465.6447885835
 30
0.0
 11
898.4008074491
 21
-462.1759770715
 31
0.0
  0
LINE
  5
22C
330
1F
100
AcDbEntity
  8
0
  6
SLD-SOLID
 62
     7
100
AcDbLine
 10
895.2877770222
 20
-460.6303094232
 30
0.0
 11
898.4008074491
 21
-462.1759770715
 31
0.0
  0
LINE
  5
22D
330
1F
100
AcDbEntity
  8
0
  6
SLD-SOLID
 62
     7
100
AcDbLine
 10
892.3926499425
 20
-462.5533936822
 30
0.0
 11
895.2877770222
 21
-460.6303094232
 31
0.0
  0
LINE
  5
22E
330
1F
100
AcDbEntity
  8
0
  6
SLD-SOLID
 62
     7
100
AcDbLine
 10
892.3926499425
 20
-462.5533936822
 30
0.0
 11
892.6105533479
 21
-466.0222051942
 31
0.0
  0
LINE
  5
22F
330
1F
100
AcDbEntity
  8
0
  6
SLD-SOLID
 62
     7
100
AcDbLine
 10
895.7235837748
 20
-467.5679324472
 30
0.0
 11
892.6105533479
 21
-466.0222051942
 31
0.0
  0
CIRCLE
  5
230
330
1F
100
AcDbEntity
  8
0
  6
SLD-SOLID
 62
     7
100
AcDbCircle
 10
895.5056781453
 20
-464.0991144902
 30
0.0
 40
6.499995145195109
  0
ARC
  5
231
330
1F
100
AcDbEntity
  8
0
  6
SLD-SOLID
 62
     7
100
AcDbCircle
 10
895.505762817
 20
-464.0991471163
 30
0.0
 40
3.010080611917179
100
AcDbArc
 50
123.5953395055
 51
183.5938510984
  0
ARC
  5
232
330
1F
100
AcDbEntity
  8
0
  6
SLD-SOLID
 62
     7
100
AcDbCircle
 10
895.5056882644
 20
-464.0992518794
 30
0.0
 40
3.010126626628758
100
AcDbArc
 50
63.5958398234
 51
123.5930540958
  0
ARC
  5
233
330
1F
100
AcDbEntity
  8
0
  6
SLD-SOLID
 62
     7
100
AcDbCircle
 10
895.5056546834
 20
-464.0991225966
 30
0.0
 40
3.010025765442683
100
AcDbArc
 50
3.5944476948
 51
63.5941729322
  0
ARC
  5
234
330
1F
100
AcDbEntity
  8
0
  6
SLD-SOLID
 62
     7
100
AcDbCircle
 10
895.5057860212
 20
-464.099132689
 30
0.0
 40
3.009895318795318
100
AcDbArc
 50
303.5933852707
 51
3.594796177
  0
ARC
  5
235
330
1F
100
AcDbEntity
  8
0
  6
SLD-SOLID
 62
     7
100
AcDbCircle
 10
895.5057003686
 20
-464.0993735121
 30
0.0
 40
3.009742114909713
100
AcDbArc
 50
243.591613846
 51
303.5972800732
  0
ARC
  5
236
330
1F
100
AcDbEntity
  8
0
  6
SLD-SOLID
 62
     7
100
AcDbCircle
 10
895.5055106187
 20
-464.0991850438
 30
0.0
 40
3.009826532248698
100
AcDbArc
 50
183.5934314588
 51
243.5964447328
  0
LINE
  5
237
330
1F
100
AcDbEntity
  8
0
  6
SLD-SOLID
 62
     7
100
AcDbLine
 10
893.5056803035
 20
-653.2538054788
 30
0.0
 11
895.5056803985
 21
-654.408526262
 31
0.0
  0
LINE
  5
238
330
1F
100
AcDbEntity
  8
0
  6
SLD-SOLID
 62
     7
100
AcDbLine
 10
897.5056804935
 20
-653.2538054788
 30
0.0
 11
895.5056803985
 21
-654.408526262
 31
0.0
  0
LINE
  5
239
330
1F
100
AcDbEntity
  8
0
  6
SLD-SOLID
 62
     7
100
AcDbLine
 10
897.5056804935
 20
-650.944423517
 30
0.0
 11
897.5056804935
 21
-653.2538054788
 31
0.0
  0
LINE
  5
23A
330
1F
100
AcDbEntity
  8
0
  6
SLD-SOLID
 62
     7
100
AcDbLine
 10
897.5056804935
 20
-650.944423517
 30
0.0
 11
895.5056803985
 21
-649.7897027338
 31
0.0
  0
LINE
  5
23B
330
1F
100
AcDbEntity
  8
0
  6
SLD-SOLID
 62
     7
100
AcDbLine
 10
893.5056803035
 20
-650.944423517
 30
0.0
 11
895.5056803985
 21
-649.7897027338
 31
0.0
  0
LINE
  5
23C
330
1F
100
AcDbEntity
  8
0
  6
SLD-SOLID
 62
     7
100
AcDbLine
 10
893.5056803035
 20
-650.944423517
 30
0.0
 11
893.5056803035
 21
-653.2538054788
 31
0.0
  0
CIRCLE
  5
23D
330
1F
100
AcDbEntity
  8
0
  6
SLD-SOLID
 62
     7
100
AcDbCircle
 10
895.5056958127
 20
-652.0991122585
 30
0.0
 40
3.309479233164986
  0
ARC
  5
23E
330
1F
100
AcDbEntity
  8
0
  6
SLD-SOLID
 62
     7
100
AcDbCircle
 10
895.505715176
 20
-652.0991062815
 30
0.0
 40
3.621514102455769
100
AcDbArc
 50
313.7560264092
 51
0.0003415096
  0
ARC
  5
23F
330
1F
100
AcDbEntity
  8
0
  6
SLD-SOLID
 62
     7
100
AcDbCircle
 10
895.5056961751
 20
-652.0990846956
 30
0.0
 40
3.621564656509799
100
AcDbArc
 50
133.7563679187
 51
226.2436320813
  0
ARC
  5
240
330
1F
100
AcDbEntity
  8
0
  6
SLD-SOLID
 62
     7
100
AcDbCircle
 10
895.5052961002
 20
-652.0992420493
 30
0.0
 40
3.621933181608237
100
AcDbArc
 50
0.0024891962
 51
46.241142885
  0
LINE
  5
241
330
1F
100
AcDbEntity
  8
0
  6
SLD-SOLID
 62
     7
100
AcDbLine
 10
893.5056803035
 20
-663.2537959421
 30
0.0
 11
895.5056803985
 21
-664.4085167253
 31
0.0
  0
LINE
  5
242
330
1F
100
AcDbEntity
  8
0
  6
SLD-SOLID
 62
     7
100
AcDbLine
 10
897.5056804935
 20
-663.2537959421
 30
0.0
 11
895.5056803985
 21
-664.4085167253
 31
0.0
  0
LINE
  5
243
330
1F
100
AcDbEntity
  8
0
  6
SLD-SOLID
 62
     7
100
AcDbLine
 10
897.5056804935
 20
-660.9444139802
 30
0.0
 11
897.5056804935
 21
-663.2537959421
 31
0.0
  0
LINE
  5
244
330
1F
100
AcDbEntity
  8
0
  6
SLD-SOLID
 62
     7
100
AcDbLine
 10
897.5056804935
 20
-660.9444139802
 30
0.0
 11
895.5056803985
 21
-659.789693197
 31
0.0
  0
LINE
  5
245
330
1F
100
AcDbEntity
  8
0
  6
SLD-SOLID
 62
     7
100
AcDbLine
 10
893.5056803035
 20
-660.9444139802
 30
0.0
 11
895.5056803985
 21
-659.789693197
 31
0.0
  0
LINE
  5
246
330
1F
100
AcDbEntity
  8
0
  6
SLD-SOLID
 62
     7
100
AcDbLine
 10
893.5056803035
 20
-660.9444139802
 30
0.0
 11
893.5056803035
 21
-663.2537959421
 31
0.0
  0
CIRCLE
  5
247
330
1F
100
AcDbEntity
  8
0
  6
SLD-SOLID
 62
     7
100
AcDbCircle
 10
895.5056630764
 20
-662.0991170813
 30
0.0
 40
3.309503444197546
  0
ARC
  5
248
330
1F
100
AcDbEntity
  8
0
  6
SLD-SOLID
 62
     7
100
AcDbCircle
 10
895.505715176
 20
-662.0990967447
 30
0.0
 40
3.621514102455746
100
AcDbArc
 50
313.7560264092
 51
0.0003415096
  0
ARC
  5
249
330
1F
100
AcDbEntity
  8
0
  6
SLD-SOLID
 62
     7
100
AcDbCircle
 10
895.5056263782
 20
-662.0991049612
 30
0.0
 40
3.62149485971957
100
AcDbArc
 50
133.7558964153
 51
226.2441035847
  0
ARC
  5
24A
330
1F
100
AcDbEntity
  8
0
  6
SLD-SOLID
 62
     7
100
AcDbCircle
 10
895.505880093
 20
-662.0990427588
 30
0.0
 40
3.621349185497076
100
AcDbArc
 50
359.9994873781
 51
46.2450877101
  0
ARC
  5
24B
330
1F
100
AcDbEntity
  8
0
  6
SLD-SOLID
 62
     7
100
AcDbCircle
 10
895.5056692691
 20
-594.0991161668
 30
0.0
 40
17.49998832395502
100
AcDbArc
 50
135.5846792251
 51
224.4153207749
  0
ARC
  5
24C
330
1F
100
AcDbEntity
  8
0
  6
SLD-SOLID
 62
     7
100
AcDbCircle
 10
895.5056915279
 20
-594.0991161668
 30
0.0
 40
17.49998832395535
100
AcDbArc
 50
315.5846792251
 51
44.4153207749
  0
ARC
  5
24D
330
1F
100
AcDbEntity
  8
0
  6
SLD-SOLID
 62
     7
100
AcDbCircle
 10
895.505670904
 20
-464.0991209352
 30
0.0
 40
17.499989491737
100
AcDbArc
 50
135.5846829712
 51
224.4153170288
  0
ARC
  5
24E
330
1F
100
AcDbEntity
  8
0
  6
SLD-SOLID
 62
     7
100
AcDbCircle
 10
895.5056938471
 20
-464.0991209352
 30
0.0
 40
17.49998666733269
100
AcDbArc
 50
315.5846739108
 51
44.4153260892
  0
SPLINE
  5
24F
330
1F
100
AcDbEntity
  8
0
  6
SLD-SOLID
 62
     7
100
AcDbSpline
210
0.0
220
0.0
230
1.0
 70
    11
 71
     3
 72
    34
 73
    30
 74
     0
 42
0.00000001
 43
0.00000001
 40
0.0
 40
0.0
 40
0.0
 40
0.0
 40
0.0129702990467268
 40
0.061609452967978
 40
0.1089178258508818
 40
0.1587975676449495
 40
0.1865153891008499
 40
0.2155995571991381
 40
0.2598734727275392
 40
0.3043331810632007
 40
0.3471145581238442
 40
0.3964024295545934
 40
0.4242717064797651
 40
0.4534916789811334
 40
0.4803406118029941
 40
0.508542366237361
 40
0.556161224069702
 40
0.6016359118116008
 40
0.6507021029363731
 40
0.6780627868566869
 40
0.7066244447234638
 40
0.7516806281394951
 40
0.7973062821972019
 40
0.8397529662469446
 40
0.8876036945653707
 40
0.9151334963371324
 40
0.9438761775722417
 40
0.9712094906224116
 40
1.0
 40
1.0
 40
1.0
 40
1.0
 10
896.1146999950729
 20
-586.6238592469709
 30
0.0
 10
895.9118080606996
 20
-586.6125032390703
 30
0.0
 10
894.9480630426918
 20
-586.5585617353221
 30
0.0
 10
893.2305687343138
 20
-586.8354420308848
 30
0.0
 10
891.150201571833
 20
-587.8482508856989
 30
0.0
 10
889.7071224613017
 20
-589.2225991528526
 30
0.0
 10
888.8069005671838
 20
-590.6390261978454
 30
0.0
 10
888.2036606635146
 20
-592.1119940359125
 30
0.0
 10
887.9088744181561
 20
-593.9593632543673
 30
0.0
 10
888.1612685807601
 20
-596.031275867099
 30
0.0
 10
888.9932316976659
 20
-598.0281472295707
 30
0.0
 10
890.2028128522633
 20
-599.509193593154
 30
0.0
 10
891.541735935409
 20
-600.5131796632805
 30
0.0
 10
892.7240619070911
 20
-601.1059775313352
 30
0.0
 10
893.9954802022569
 20
-601.4835658377935
 30
0.0
 10
895.600277044321
 20
-601.6712237905972
 30
0.0
 10
897.5169880352208
 20
-601.4363459956357
 30
0.0
 10
899.5813967447334
 20
-600.5273733792388
 30
0.0
 10
901.0518850783362
 20
-599.2574612390862
 30
0.0
 10
902.0090425157958
 20
-597.9114377273714
 30
0.0
 10
902.6911210540698
 20
-596.4754366521394
 30
0.0
 10
903.090106713957
 20
-594.6235674213507
 30
0.0
 10
902.934837565749
 20
-592.5148706281987
 30
0.0
 10
902.1970671969474
 20
-590.4918239656487
 30
0.0
 10
901.0852225961072
 20
-588.9805835344758
 30
0.0
 10
899.8323640944633
 20
-587.9245048284159
 30
0.0
 10
898.6914514089085
 20
-587.2694455950983
 30
0.0
 10
897.4366659168974
 20
-586.8012906182547
 30
0.0
 10
896.5629172919644
 20
-586.6840179910866
 30
0.0
 10
896.1146999950729
 20
-586.623859246971
 30
0.0
  0
SPLINE
  5
250
330
1F
100
AcDbEntity
  8
0
  6
SLD-SOLID
 62
     7
100
AcDbSpline
210
0.0
220
0.0
230
1.0
 70
    11
 71
     3
 72
    34
 73
    30
 74
     0
 42
0.00000001
 43
0.00000001
 40
0.0
 40
0.0
 40
0.0
 40
0.0
 40
0.0129703004898022
 40
0.0616094598226425
 40
0.1089178379690733
 40
0.1587975853127583
 40
0.1865154098525421
 40
0.2155995811867333
 40
0.2598735016410478
 40
0.3043332149232941
 40
0.3471145967437913
 40
0.3964024736583064
 40
0.4242717536842123
 40
0.4534917294365932
 40
0.4803403040296373
 40
0.5085422085167335
 40
0.556161071647146
 40
0.6016357644485562
 40
0.6507019610324303
 40
0.6780636813634259
 40
0.7066241965446283
 40
0.7516803849736082
 40
0.7973060441076227
 40
0.8397527328799812
 40
0.8876034665222768
 40
0.9151332713570027
 40
0.9438759557900213
 40
0.971209704026899
 40
1.0
 40
1.0
 40
1.0
 40
1.0
 10
896.1146999950729
 20
-456.6238640153425
 30
0.0
 10
895.9118080606999
 20
-456.6125080074411
 30
0.0
 10
894.9480630426933
 20
-456.5585665036881
 30
0.0
 10
893.2305687342855
 20
-456.8354467993639
 30
0.0
 10
891.1502015719342
 20
-457.8482556536853
 30
0.0
 10
889.7071224609774
 20
-459.2226039224598
 30
0.0
 10
888.8069005678262
 20
-460.6390309637682
 30
0.0
 10
888.2036606603647
 20
-462.1119988162922
 30
0.0
 10
887.908874436947
 20
-463.9593679511036
 30
0.0
 10
888.1612685123779
 20
-466.0312808961579
 30
0.0
 10
888.993231957546
 20
-468.0281510072242
 30
0.0
 10
890.202811926936
 20
-469.5092018890704
 30
0.0
 10
891.5417378003567
 20
-470.5131773220733
 30
0.0
 10
892.7240495982653
 20
-471.1060072761248
 30
0.0
 10
893.9954963749421
 20
-471.4834730475491
 30
0.0
 10
895.6002670873681
 20
-471.671276353662
 30
0.0
 10
897.5169920751006
 20
-471.4363372909913
 30
0.0
 10
899.5813896856603
 20
-470.5273781258275
 30
0.0
 10
901.0519187451631
 20
-469.2574687703371
 30
0.0
 10
902.0090078804558
 20
-467.9114018303644
 30
0.0
 10
902.6911450422857
 20
-466.4754341811532
 30
0.0
 10
903.0901002425874
 20
-464.6235687266561
 30
0.0
 10
902.9348390958894
 20
-462.5148764777739
 30
0.0
 10
902.1970669985503
 20
-460.4918276132814
 30
0.0
 10
901.0852216650451
 20
-458.9805913745166
 30
0.0
 10
899.832366140693
 20
-457.9245033653398
 30
0.0
 10
898.6914374615374
 20
-457.2694712861946
 30
0.0
 10
897.4366851425643
 20
-456.8012046418237
 30
0.0
 10
896.5629204438955
 20
-456.6839915404865
 30
0.0
 10
896.1146999950729
 20
-456.6238640153426
 30
0.0
  0
LINE
  5
251
330
1F
100
AcDbEntity
  8
0
  6
SLD-SOLID
 62
     7
100
AcDbLine
 10
908.0056805847
 20
-427.5990842187
 30
0.0
 11
883.0056802122
 21
-427.5990842187
 31
0.0
  0
LINE
  5
252
330
1F
100
AcDbEntity
  8
0
  6
SLD-SOLID
 62
     7
100
AcDbLine
 10
878.005680324
 20
-716.8990491235
 30
0.0
 11
913.005680473
 21
-716.8990491235
 31
0.0
  0
LINE
  5
253
330
1F
100
AcDbEntity
  8
0
  6
SLD-SOLID
 62
     7
100
AcDbLine
 10
912.8056808127
 20
-717.0990823114
 30
0.0
 11
878.2056799842
 21
-717.0990823114
 31
0.0
  0
LINE
  5
254
330
1F
100
AcDbEntity
  8
0
  6
SLD-SOLID
 62
     7
100
AcDbLine
 10
878.2056799842
 20
-637.0990990007
 30
0.0
 11
912.8056808127
 21
-637.0990990007
 31
0.0
  0
LINE
  5
255
330
1F
100
AcDbEntity
  8
0
  6
SLD-SOLID
 62
     7
100
AcDbLine
 10
913.005680473
 20
-637.2991321886
 30
0.0
 11
878.005680324
 21
-637.2991321886
 31
0.0
  0
SPLINE
  5
256
330
1F
100
AcDbEntity
  8
0
  6
SLD-SOLID
 62
     7
100
AcDbSpline
210
0.0
220
0.0
230
1.0
 70
    11
 71
     3
 72
    31
 73
    27
 74
     0
 42
0.00000001
 43
0.00000001
 40
0.0
 40
0.0
 40
0.0
 40
0.0
 40
0.050305860283529
 40
0.0973526656651394
 40
0.1234654782632769
 40
0.1504847773947058
 40
0.1995519382203218
 40
0.2466081253354118
 40
0.2948595819038061
 40
0.3465837270824612
 40
0.4022701181263303
 40
0.4605799275447737
 40
0.4897694667698475
 40
0.5197984099871706
 40
0.5484311290831834
 40
0.5779824494242253
 40
0.6050409096859848
 40
0.6330545223473681
 40
0.6834554225074073
 40
0.7308313487204289
 40
0.7783544740357472
 40
0.8287542391893924
 40
0.8831776765757338
 40
0.9408252695234709
 40
0.9699984302983448
 40
1.0
 40
1.0
 40
1.0
 40
1.0
 10
898.0381818706378
 20
-653.3861277902143
 30
0.0
 10
897.8916699929074
 20
-653.6571616556645
 30
0.0
 10
897.6081379795738
 20
-654.1816705128509
 30
0.0
 10
897.0186804099312
 20
-654.674863067556
 30
0.0
 10
896.4746897133233
 20
-654.952405079698
 30
0.0
 10
895.8755813407492
 20
-655.1298681182328
 30
0.0
 10
895.1107304134043
 20
-655.1449607961582
 30
0.0
 10
894.2634986500956
 20
-654.8622164911673
 30
0.0
 10
893.5366117799599
 20
-654.3170359493766
 30
0.0
 10
892.9827413690608
 20
-653.5306564953182
 30
0.0
 10
892.6806883420036
 20
-652.5520431729512
 30
0.0
 10
892.7006806667758
 20
-651.6646821485086
 30
0.0
 10
892.8915918540146
 20
-650.9734262185907
 30
0.0
 10
893.1199870796423
 20
-650.4875035412143
 30
0.0
 10
893.4301884393909
 20
-650.0469233613948
 30
0.0
 10
893.8012523350543
 20
-649.6808862309333
 30
0.0
 10
894.2292043897467
 20
-649.3904971143844
 30
0.0
 10
894.8195287719312
 20
-649.1319175871821
 30
0.0
 10
895.5943553556755
 20
-649.0227974513576
 30
0.0
 10
896.4741170140725
 20
-649.2102923615674
 30
0.0
 10
897.2460920569367
 20
-649.6695168102295
 30
0.0
 10
897.8658220167275
 20
-650.3777658211054
 30
0.0
 10
898.2629572262085
 20
-651.3004350674115
 30
0.0
 10
898.3358674074633
 20
-652.1711439205146
 30
0.0
 10
898.2302287157721
 20
-652.8776773699656
 30
0.0
 10
898.1027921628204
 20
-653.2150698892648
 30
0.0
 10
898.0381818706378
 20
-653.3861277902143
 30
0.0
  0
SPLINE
  5
257
330
1F
100
AcDbEntity
  8
0
  6
SLD-SOLID
 62
     7
100
AcDbSpline
210
0.0
220
0.0
230
1.0
 70
    11
 71
     3
 72
    31
 73
    27
 74
     0
 42
0.00000001
 43
0.00000001
 40
0.0
 40
0.0
 40
0.0
 40
0.0
 40
0.0503030540826124
 40
0.09734982351463
 40
0.1234626161593409
 40
0.150481894644675
 40
0.1995490801337567
 40
0.2466062566009481
 40
0.2948576762992468
 40
0.3465817819542416
 40
0.4022681304468032
 40
0.4605778953093222
 40
0.489764261962775
 40
0.5197961388313413
 40
0.5484288360484065
 40
0.5779778420486582
 40
0.6050381144057481
 40
0.6330517056612578
 40
0.6834525673087599
 40
0.7308284573206996
 40
0.7783515463224577
 40
0.8287512729644331
 40
0.8831746687645202
 40
0.9408222176623485
 40
0.9699953561453102
 40
1.0
 40
1.0
 40
1.0
 40
1.0
 10
898.0381818706378
 20
-663.386177858116
 30
0.0
 10
897.8916661923042
 20
-663.6571894742003
 30
0.0
 10
897.6081192847053
 20
-664.1816692195627
 30
0.0
 10
897.0186812133702
 20
-664.6748526023578
 30
0.0
 10
896.4746894272772
 20
-664.9523981597928
 30
0.0
 10
895.8755817782611
 20
-665.1298443396241
 30
0.0
 10
895.1107180929744
 20
-665.1450537370216
 30
0.0
 10
894.2635104439777
 20
-664.8621839314084
 30
0.0
 10
893.5366101373618
 20
-664.3170343369325
 30
0.0
 10
892.9827405263565
 20
-663.5306441888883
 30
0.0
 10
892.6806940930965
 20
-662.5520360979715
 30
0.0
 10
892.7006619530654
 20
-661.664686594772
 30
0.0
 10
892.8916168708698
 20
-660.9734455784056
 30
0.0
 10
893.1199724704115
 20
-660.4875095993693
 30
0.0
 10
893.4301683335884
 20
-660.0469103975113
 30
0.0
 10
893.8012922362145
 20
-659.6809467025406
 30
0.0
 10
894.2291819416128
 20
-659.3904751400581
 30
0.0
 10
894.8195351315463
 20
-659.1319168826025
 30
0.0
 10
895.5943533910262
 20
-659.0227851906503
 30
0.0
 10
896.4741175414341
 20
-659.2102835410756
 30
0.0
 10
897.2460918520075
 20
-659.6695070511237
 30
0.0
 10
897.8658223018841
 20
-660.3777564239301
 30
0.0
 10
898.2629562089304
 20
-661.3004251845582
 30
0.0
 10
898.335870556436
 20
-662.1711354136482
 30
0.0
 10
898.2302203356834
 20
-662.877684742209
 30
0.0
 10
898.1027915252088
 20
-663.2150998162108
 30
0.0
 10
898.0381818706378
 20
-663.386177858116
 30
0.0
  0
LINE
  5
258
330
1F
100
AcDbEntity
  8
0
  6
SLD-DASHED
 62
     7
100
AcDbLine
 10
911.1806803985
 20
155.2542260519
 30
0.0
 11
905.3431803985
 21
157.2542260519
 31
0.0
  0
LINE
  5
259
330
1F
100
AcDbEntity
  8
0
  6
SLD-DASHED
 62
     7
100
AcDbLine
 10
905.3431803985
 20
157.2542260519
 30
0.0
 11
901.3431803985
 21
153.2542260519
 31
0.0
  0
LINE
  5
25A
330
1F
100
AcDbEntity
  8
0
  6
SLD-DASHED
 62
     7
100
AcDbLine
 10
901.3431803985
 20
153.2542260519
 30
0.0
 11
889.6681803985
 21
157.2542260519
 31
0.0
  0
LINE
  5
25B
330
1F
100
AcDbEntity
  8
0
  6
SLD-DASHED
 62
     7
100
AcDbLine
 10
889.6681803985
 20
157.2542260519
 30
0.0
 11
885.6681803985
 21
153.2542260519
 31
0.0
  0
LINE
  5
25C
330
1F
100
AcDbEntity
  8
0
  6
SLD-DASHED
 62
     7
100
AcDbLine
 10
885.6681803985
 20
153.2542260519
 30
0.0
 11
879.8306803985
 21
155.2542260519
 31
0.0
  0
LINE
  5
25D
330
1F
100
AcDbEntity
  8
0
  6
SLD-DASHED
 62
     7
100
AcDbLine
 10
911.1806803985
 20
165.2542260519
 30
0.0
 11
905.3431803985
 21
167.2542260519
 31
0.0
  0
LINE
  5
25E
330
1F
100
AcDbEntity
  8
0
  6
SLD-DASHED
 62
     7
100
AcDbLine
 10
905.3431803985
 20
167.2542260519
 30
0.0
 11
901.3431803985
 21
163.2542260519
 31
0.0
  0
LINE
  5
25F
330
1F
100
AcDbEntity
  8
0
  6
SLD-DASHED
 62
     7
100
AcDbLine
 10
901.3431803985
 20
163.2542260519
 30
0.0
 11
889.6681803985
 21
167.2542260519
 31
0.0
  0
LINE
  5
260
330
1F
100
AcDbEntity
  8
0
  6
SLD-DASHED
 62
     7
100
AcDbLine
 10
889.6681803985
 20
167.2542260519
 30
0.0
 11
885.6681803985
 21
163.2542260519
 31
0.0
  0
LINE
  5
261
330
1F
100
AcDbEntity
  8
0
  6
SLD-DASHED
 62
     7
100
AcDbLine
 10
885.6681803985
 20
163.2542260519
 30
0.0
 11
879.8306803985
 21
165.2542260519
 31
0.0
  0
LINE
  5
262
330
1F
100
AcDbEntity
  8
0
  6
SLD-SOLID
 62
     7
100
AcDbLine
 10
94.9810121991
 20
1152.8305537977
 30
0.0
 11
94.6689634146
 21
1153.0107152474
 31
0.0
  0
LINE
  5
263
330
1F
100
AcDbEntity
  8
0
  6
SLD-SOLID
 62
     7
100
AcDbLine
 10
88.0499634146
 20
1153.0107152474
 30
0.0
 11
87.7379146302
 21
1152.8305537977
 31
0.0
  0
LINE
  5
264
330
1F
100
AcDbEntity
  8
0
  6
SLD-SOLID
 62
     7
100
AcDbLine
 10
87.7379146302
 20
1152.8305537977
 30
0.0
 11
87.9574276402
 21
1152.6768491333
 31
0.0
  0
LINE
  5
265
330
1F
100
AcDbEntity
  8
0
  6
SLD-SOLID
 62
     7
100
AcDbLine
 10
94.7614991891
 20
1152.6768491333
 30
0.0
 11
94.9810121991
 21
1152.8305537977
 31
0.0
  0
LINE
  5
266
330
1F
100
AcDbEntity
  8
0
  6
SLD-SOLID
 62
     7
100
AcDbLine
 10
73.8594634146
 20
1102.287891872
 30
0.0
 11
75.8594634146
 21
1100.287891872
 31
0.0
  0
LINE
  5
267
330
1F
100
AcDbEntity
  8
0
  6
SLD-SOLID
 62
     7
100
AcDbLine
 10
106.8594634146
 20
1100.287891872
 30
0.0
 11
108.8594634146
 21
1102.287891872
 31
0.0
  0
LINE
  5
268
330
1F
100
AcDbEntity
  8
0
  6
SLD-SOLID
 62
     7
100
AcDbLine
 10
108.8594634146
 20
1103.087891872
 30
0.0
 11
108.6594634146
 21
1103.287891872
 31
0.0
  0
LINE
  5
269
330
1F
100
AcDbEntity
  8
0
  6
SLD-SOLID
 62
     7
100
AcDbLine
 10
74.0594634146
 20
1103.287891872
 30
0.0
 11
73.8594634146
 21
1103.087891872
 31
0.0
  0
LINE
  5
26A
330
1F
100
AcDbEntity
  8
0
  6
SLD-SOLID
 62
     7
100
AcDbLine
 10
108.8594634146
 20
1102.287891872
 30
0.0
 11
108.8594634146
 21
1103.087891872
 31
0.0
  0
LINE
  5
26B
330
1F
100
AcDbEntity
  8
0
  6
SLD-SOLID
 62
     7
100
AcDbLine
 10
73.8594634146
 20
1103.087891872
 30
0.0
 11
73.8594634146
 21
1102.287891872
 31
0.0
  0
LINE
  5
26C
330
1F
100
AcDbEntity
  8
0
  6
SLD-SOLID
 62
     7
100
AcDbLine
 10
99.3594634146
 20
1108.287891872
 30
0.0
 11
99.3594634146
 21
1110.0107152474
 31
0.0
  0
LINE
  5
26D
330
1F
100
AcDbEntity
  8
0
  6
SLD-SOLID
 62
     7
100
AcDbLine
 10
83.3594634146
 20
1110.0107152474
 30
0.0
 11
83.3594634146
 21
1108.287891872
 31
0.0
  0
LINE
  5
26E
330
1F
100
AcDbEntity
  8
0
  6
SLD-SOLID
 62
     7
100
AcDbLine
 10
108.8594634146
 20
1103.087891872
 30
0.0
 11
108.8594634146
 21
1103.287891872
 31
0.0
  0
LINE
  5
26F
330
1F
100
AcDbEntity
  8
0
  6
SLD-SOLID
 62
     7
100
AcDbLine
 10
73.8594634146
 20
1103.287891872
 30
0.0
 11
73.8594634146
 21
1103.087891872
 31
0.0
  0
LINE
  5
270
330
1F
100
AcDbEntity
  8
0
  6
SLD-SOLID
 62
     7
100
AcDbLine
 10
108.8594634146
 20
1103.287891872
 30
0.0
 11
108.8594634146
 21
1104.287891872
 31
0.0
  0
LINE
  5
271
330
1F
100
AcDbEntity
  8
0
  6
SLD-SOLID
 62
     7
100
AcDbLine
 10
73.8594634146
 20
1104.287891872
 30
0.0
 11
73.8594634146
 21
1103.287891872
 31
0.0
  0
LINE
  5
272
330
1F
100
AcDbEntity
  8
0
  6
SLD-SOLID
 62
     7
100
AcDbLine
 10
101.3594634146
 20
1104.287891872
 30
0.0
 11
101.3594634146
 21
1108.287891872
 31
0.0
  0
LINE
  5
273
330
1F
100
AcDbEntity
  8
0
  6
SLD-SOLID
 62
     7
100
AcDbLine
 10
81.3594634146
 20
1108.287891872
 30
0.0
 11
81.3594634146
 21
1104.287891872
 31
0.0
  0
LINE
  5
274
330
1F
100
AcDbEntity
  8
0
  6
SLD-SOLID
 62
     7
100
AcDbLine
 10
73.8594634146
 20
1115.0107152474
 30
0.0
 11
73.8594634146
 21
1114.0107152474
 31
0.0
  0
LINE
  5
275
330
1F
100
AcDbEntity
  8
0
  6
SLD-SOLID
 62
     7
100
AcDbLine
 10
108.8594634146
 20
1114.0107152474
 30
0.0
 11
108.8594634146
 21
1115.0107152474
 31
0.0
  0
LINE
  5
276
330
1F
100
AcDbEntity
  8
0
  6
SLD-SOLID
 62
     7
100
AcDbLine
 10
81.3594634146
 20
1114.0107152474
 30
0.0
 11
81.3594634146
 21
1110.0107152474
 31
0.0
  0
LINE
  5
277
330
1F
100
AcDbEntity
  8
0
  6
SLD-SOLID
 62
     7
100
AcDbLine
 10
101.3594634146
 20
1110.0107152474
 30
0.0
 11
101.3594634146
 21
1114.0107152474
 31
0.0
  0
LINE
  5
278
330
1F
100
AcDbEntity
  8
0
  6
SLD-SOLID
 62
     7
100
AcDbLine
 10
108.8594634146
 20
1115.0107152474
 30
0.0
 11
108.8594634146
 21
1121.0107152474
 31
0.0
  0
LINE
  5
279
330
1F
100
AcDbEntity
  8
0
  6
SLD-SOLID
 62
     7
100
AcDbLine
 10
73.8594634146
 20
1121.0107152474
 30
0.0
 11
73.8594634146
 21
1115.0107152474
 31
0.0
  0
CIRCLE
  5
27A
330
1F
100
AcDbEntity
  8
0
  6
SLD-SOLID
 62
     7
100
AcDbCircle
 10
91.3594634146
 20
1135.5107152474
 30
0.0
 40
9.849999999999909
  0
CIRCLE
  5
27B
330
1F
100
AcDbEntity
  8
0
  6
SLD-SOLID
 62
     7
100
AcDbCircle
 10
91.3594634146
 20
1135.5107152474
 30
0.0
 40
9.600000000000136
  0
ARC
  5
27C
330
1F
100
AcDbEntity
  8
0
  6
SLD-SOLID
 62
     7
100
AcDbCircle
 10
91.3594634146
 20
1144.2107152474
 30
0.0
 40
1.200499999999913
100
AcDbArc
 50
133.9892333211
 51
46.0107666789
  0
ARC
  5
27D
330
1F
100
AcDbEntity
  8
0
  6
SLD-SOLID
 62
     7
100
AcDbCircle
 10
96.9517156189
 20
1128.8461285923
 30
0.0
 40
1.200500000000151
100
AcDbArc
 50
353.9892333211
 51
266.0107666789
  0
ARC
  5
27E
330
1F
100
AcDbEntity
  8
0
  6
SLD-SOLID
 62
     7
100
AcDbCircle
 10
82.7916359634
 20
1133.9999761017
 30
0.0
 40
1.200500000000044
100
AcDbArc
 50
233.9892333211
 51
146.0107666789
  0
ARC
  5
27F
330
1F
100
AcDbEntity
  8
0
  6
SLD-SOLID
 62
     7
100
AcDbCircle
 10
85.7672112104
 20
1142.1753019025
 30
0.0
 40
1.200499999999976
100
AcDbArc
 50
173.9892333211
 51
86.0107666789
  0
ARC
  5
280
330
1F
100
AcDbEntity
  8
0
  6
SLD-SOLID
 62
     7
100
AcDbCircle
 10
94.3350386616
 20
1127.3353894466
 30
0.0
 40
1.200500000000115
100
AcDbArc
 50
333.9892333211
 51
246.0107666789
  0
ARC
  5
281
330
1F
100
AcDbEntity
  8
0
  6
SLD-SOLID
 62
     7
100
AcDbCircle
 10
82.7916359634
 20
1137.0214543931
 30
0.0
 40
1.200500000000084
100
AcDbArc
 50
213.9892333211
 51
126.0107666789
  0
ARC
  5
282
330
1F
100
AcDbEntity
  8
0
  6
SLD-SOLID
 62
     7
100
AcDbCircle
 10
88.3838881677
 20
1143.6860410482
 30
0.0
 40
1.200499999999992
100
AcDbArc
 50
153.9892333211
 51
66.0107666789
  0
ARC
  5
283
330
1F
100
AcDbEntity
  8
0
  6
SLD-SOLID
 62
     7
100
AcDbCircle
 10
91.3594634146
 20
1126.8107152474
 30
0.0
 40
1.200500000000077
100
AcDbArc
 50
313.9892333211
 51
226.0107666789
  0
ARC
  5
284
330
1F
100
AcDbEntity
  8
0
  6
SLD-SOLID
 62
     7
100
AcDbCircle
 10
83.8250424017
 20
1131.1607152474
 30
0.0
 40
1.200500000000289
100
AcDbArc
 50
253.9892333211
 51
166.0107666789
  0
ARC
  5
285
330
1F
100
AcDbEntity
  8
0
  6
SLD-SOLID
 62
     7
100
AcDbCircle
 10
94.3350386616
 20
1143.6860410482
 30
0.0
 40
1.200499999999992
100
AcDbArc
 50
113.9892333211
 51
26.0107666789
  0
ARC
  5
286
330
1F
100
AcDbEntity
  8
0
  6
SLD-SOLID
 62
     7
100
AcDbCircle
 10
88.3838881677
 20
1127.3353894466
 30
0.0
 40
1.200500000000109
100
AcDbArc
 50
293.9892333211
 51
206.0107666789
  0
ARC
  5
287
330
1F
100
AcDbEntity
  8
0
  6
SLD-SOLID
 62
     7
100
AcDbCircle
 10
98.8938844276
 20
1131.1607152474
 30
0.0
 40
1.200500000000058
100
AcDbArc
 50
13.9892333211
 51
286.0107666789
  0
ARC
  5
288
330
1F
100
AcDbEntity
  8
0
  6
SLD-SOLID
 62
     7
100
AcDbCircle
 10
96.9517156189
 20
1142.1753019025
 30
0.0
 40
1.200499999999976
100
AcDbArc
 50
93.9892333211
 51
6.0107666789
  0
ARC
  5
289
330
1F
100
AcDbEntity
  8
0
  6
SLD-SOLID
 62
     7
100
AcDbCircle
 10
99.9272908658
 20
1133.9999761017
 30
0.0
 40
1.200500000000036
100
AcDbArc
 50
33.9892333211
 51
306.0107666789
  0
ARC
  5
28A
330
1F
100
AcDbEntity
  8
0
  6
SLD-SOLID
 62
     7
100
AcDbCircle
 10
85.7672112104
 20
1128.8461285923
 30
0.0
 40
1.200499999999991
100
AcDbArc
 50
273.9892333211
 51
186.0107666789
  0
ARC
  5
28B
330
1F
100
AcDbEntity
  8
0
  6
SLD-SOLID
 62
     7
100
AcDbCircle
 10
83.8250424017
 20
1139.8607152474
 30
0.0
 40
1.200500000000062
100
AcDbArc
 50
193.9892333211
 51
106.0107666789
  0
ARC
  5
28C
330
1F
100
AcDbEntity
  8
0
  6
SLD-SOLID
 62
     7
100
AcDbCircle
 10
99.9272908658
 20
1137.0214543931
 30
0.0
 40
1.200500000000084
100
AcDbArc
 50
53.9892333211
 51
326.0107666789
  0
ARC
  5
28D
330
1F
100
AcDbEntity
  8
0
  6
SLD-SOLID
 62
     7
100
AcDbCircle
 10
98.8938844276
 20
1139.8607152474
 30
0.0
 40
1.200500000000281
100
AcDbArc
 50
73.9892333211
 51
346.0107666789
  0
LINE
  5
28E
330
1F
100
AcDbEntity
  8
0
  6
SLD-SOLID
 62
     7
100
AcDbLine
 10
91.3594634146
 20
1153.0107152474
 30
0.0
 11
94.6689634146
 21
1153.0107152474
 31
0.0
  0
LINE
  5
28F
330
1F
100
AcDbEntity
  8
0
  6
SLD-SOLID
 62
     7
100
AcDbLine
 10
88.0499634146
 20
1153.0107152474
 30
0.0
 11
91.3594634146
 21
1153.0107152474
 31
0.0
  0
LINE
  5
290
330
1F
100
AcDbEntity
  8
0
  6
SLD-SOLID
 62
     7
100
AcDbLine
 10
94.9810121991
 20
1152.8305537977
 30
0.0
 11
93.8640976378
 21
1152.8305537977
 31
0.0
  0
LINE
  5
291
330
1F
100
AcDbEntity
  8
0
  6
SLD-SOLID
 62
     7
100
AcDbLine
 10
88.8548291915
 20
1152.8305537977
 30
0.0
 11
87.7379146302
 21
1152.8305537977
 31
0.0
  0
LINE
  5
292
330
1F
100
AcDbEntity
  8
0
  6
SLD-SOLID
 62
     7
100
AcDbLine
 10
92.0447845435
 20
1100.287891872
 30
0.0
 11
75.8594634146
 21
1100.287891872
 31
0.0
  0
LINE
  5
293
330
1F
100
AcDbEntity
  8
0
  6
SLD-SOLID
 62
     7
100
AcDbLine
 10
106.8594634146
 20
1100.287891872
 30
0.0
 11
92.0447845435
 21
1100.287891872
 31
0.0
  0
LINE
  5
294
330
1F
100
AcDbEntity
  8
0
  6
SLD-SOLID
 62
     7
100
AcDbLine
 10
92.1332130763
 20
1102.287891872
 30
0.0
 11
108.8594634146
 21
1102.287891872
 31
0.0
  0
LINE
  5
295
330
1F
100
AcDbEntity
  8
0
  6
SLD-SOLID
 62
     7
100
AcDbLine
 10
73.8594634146
 20
1102.287891872
 30
0.0
 11
92.1332130763
 21
1102.287891872
 31
0.0
  0
LINE
  5
296
330
1F
100
AcDbEntity
  8
0
  6
SLD-SOLID
 62
     7
100
AcDbLine
 10
108.8594634146
 20
1103.087891872
 30
0.0
 11
73.8594634146
 21
1103.087891872
 31
0.0
  0
LINE
  5
297
330
1F
100
AcDbEntity
  8
0
  6
SLD-SOLID
 62
     7
100
AcDbLine
 10
108.8594634146
 20
1104.287891872
 30
0.0
 11
73.8594634146
 21
1104.287891872
 31
0.0
  0
LINE
  5
298
330
1F
100
AcDbEntity
  8
0
  6
SLD-SOLID
 62
     7
100
AcDbLine
 10
108.8594634146
 20
1103.287891872
 30
0.0
 11
73.8594634146
 21
1103.287891872
 31
0.0
  0
LINE
  5
299
330
1F
100
AcDbEntity
  8
0
  6
SLD-SOLID
 62
     7
100
AcDbLine
 10
101.3594634146
 20
1108.287891872
 30
0.0
 11
81.3594634146
 21
1108.287891872
 31
0.0
  0
LINE
  5
29A
330
1F
100
AcDbEntity
  8
0
  6
SLD-SOLID
 62
     7
100
AcDbLine
 10
98.519931606
 20
1114.0107152474
 30
0.0
 11
108.8594634146
 21
1114.0107152474
 31
0.0
  0
LINE
  5
29B
330
1F
100
AcDbEntity
  8
0
  6
SLD-SOLID
 62
     7
100
AcDbLine
 10
73.8594634146
 20
1114.0107152474
 30
0.0
 11
98.519931606
 21
1114.0107152474
 31
0.0
  0
LINE
  5
29C
330
1F
100
AcDbEntity
  8
0
  6
SLD-SOLID
 62
     7
100
AcDbLine
 10
98.519931606
 20
1115.0107152474
 30
0.0
 11
108.8594634146
 21
1115.0107152474
 31
0.0
  0
LINE
  5
29D
330
1F
100
AcDbEntity
  8
0
  6
SLD-SOLID
 62
     7
100
AcDbLine
 10
73.8594634146
 20
1115.0107152474
 30
0.0
 11
98.519931606
 21
1115.0107152474
 31
0.0
  0
LINE
  5
29E
330
1F
100
AcDbEntity
  8
0
  6
SLD-SOLID
 62
     7
100
AcDbLine
 10
95.451159524
 20
1110.0107152474
 30
0.0
 11
101.3594634146
 21
1110.0107152474
 31
0.0
  0
LINE
  5
29F
330
1F
100
AcDbEntity
  8
0
  6
SLD-SOLID
 62
     7
100
AcDbLine
 10
81.3594634146
 20
1110.0107152474
 30
0.0
 11
95.451159524
 21
1110.0107152474
 31
0.0
  0
LINE
  5
2A0
330
1F
100
AcDbEntity
  8
0
  6
SLD-SOLID
 62
     7
100
AcDbLine
 10
108.8594634146
 20
1115.0107152474
 30
0.0
 11
73.8594634146
 21
1115.0107152474
 31
0.0
  0
LINE
  5
2A1
330
1F
100
AcDbEntity
  8
0
  6
SLD-SOLID
 62
     7
100
AcDbLine
 10
108.8594634146
 20
1121.0107152474
 30
0.0
 11
101.1574223858
 21
1121.0107152474
 31
0.0
  0
LINE
  5
2A2
330
1F
100
AcDbEntity
  8
0
  6
SLD-SOLID
 62
     7
100
AcDbLine
 10
81.5615044435
 20
1121.0107152474
 30
0.0
 11
73.8594634146
 21
1121.0107152474
 31
0.0
  0
CIRCLE
  5
2A3
330
1F
100
AcDbEntity
  8
0
  6
SLD-SOLID
 62
     7
100
AcDbCircle
 10
91.3594634146
 20
1135.5107152474
 30
0.0
 40
17.5
  0
CIRCLE
  5
2A4
330
1F
100
AcDbEntity
  8
0
  6
SLD-SOLID
 62
     7
100
AcDbCircle
 10
91.3594634146
 20
1135.5107152474
 30
0.0
 40
17.30000000000001
  0
CIRCLE
  5
2A5
330
1F
100
AcDbEntity
  8
0
  6
SLD-SOLID
 62
     7
100
AcDbCircle
 10
91.3594634146
 20
1135.5107152474
 30
0.0
 40
10.50000000000001
  0
ARC
  5
2A6
330
1F
100
AcDbEntity
  8
0
  6
SLD-SOLID
 62
     8
100
AcDbCircle
 10
91.3594634146
 20
1144.2107152474
 30
0.0
 40
1.152479999999997
100
AcDbArc
 50
130.9673961798
 51
180.0
  0
ARC
  5
2A7
330
1F
100
AcDbEntity
  8
0
  6
SLD-SOLID
 62
     8
100
AcDbCircle
 10
91.3594634146
 20
1144.2107152474
 30
0.0
 40
1.152479999999997
100
AcDbArc
 50
180.0
 51
49.0326038202
  0
ARC
  5
2A8
330
1F
100
AcDbEntity
  8
0
  6
SLD-SOLID
 62
     8
100
AcDbCircle
 10
88.3838881677
 20
1127.3353894466
 30
0.0
 40
1.152479999999991
100
AcDbArc
 50
290.9673961798
 51
340.0
  0
ARC
  5
2A9
330
1F
100
AcDbEntity
  8
0
  6
SLD-SOLID
 62
     8
100
AcDbCircle
 10
88.3838881677
 20
1127.3353894466
 30
0.0
 40
1.152479999999991
100
AcDbArc
 50
340.0
 51
209.0326038202
  0
ARC
  5
2AA
330
1F
100
AcDbEntity
  8
0
  6
SLD-SOLID
 62
     8
100
AcDbCircle
 10
88.3838881677
 20
1143.6860410482
 30
0.0
 40
1.152479999999991
100
AcDbArc
 50
150.9673961798
 51
200.0
  0
ARC
  5
2AB
330
1F
100
AcDbEntity
  8
0
  6
SLD-SOLID
 62
     8
100
AcDbCircle
 10
88.3838881677
 20
1143.6860410482
 30
0.0
 40
1.152479999999991
100
AcDbArc
 50
200.0
 51
69.0326038202
  0
ARC
  5
2AC
330
1F
100
AcDbEntity
  8
0
  6
SLD-SOLID
 62
     8
100
AcDbCircle
 10
98.8938844276
 20
1131.1607152474
 30
0.0
 40
1.152479999999959
100
AcDbArc
 50
10.9673961798
 51
60.0
  0
ARC
  5
2AD
330
1F
100
AcDbEntity
  8
0
  6
SLD-SOLID
 62
     8
100
AcDbCircle
 10
98.8938844276
 20
1131.1607152474
 30
0.0
 40
1.152479999999928
100
AcDbArc
 50
60.0
 51
289.0326038202
  0
ARC
  5
2AE
330
1F
100
AcDbEntity
  8
0
  6
SLD-SOLID
 62
     8
100
AcDbCircle
 10
96.9517156189
 20
1128.8461285923
 30
0.0
 40
1.152480000000073
100
AcDbArc
 50
350.9673961798
 51
40.0
  0
ARC
  5
2AF
330
1F
100
AcDbEntity
  8
0
  6
SLD-SOLID
 62
     8
100
AcDbCircle
 10
96.9517156189
 20
1128.8461285923
 30
0.0
 40
1.152480000000205
100
AcDbArc
 50
40.0
 51
269.0326038202
  0
ARC
  5
2B0
330
1F
100
AcDbEntity
  8
0
  6
SLD-SOLID
 62
     8
100
AcDbCircle
 10
99.9272908658
 20
1133.9999761017
 30
0.0
 40
1.152480000000089
100
AcDbArc
 50
30.9673961798
 51
80.0
  0
ARC
  5
2B1
330
1F
100
AcDbEntity
  8
0
  6
SLD-SOLID
 62
     8
100
AcDbCircle
 10
99.9272908658
 20
1133.9999761017
 30
0.0
 40
1.152480000000125
100
AcDbArc
 50
80.0
 51
309.0326038202
  0
ARC
  5
2B2
330
1F
100
AcDbEntity
  8
0
  6
SLD-SOLID
 62
     8
100
AcDbCircle
 10
82.7916359634
 20
1133.9999761017
 30
0.0
 40
1.152479999999958
100
AcDbArc
 50
230.9673961798
 51
280.0
  0
ARC
  5
2B3
330
1F
100
AcDbEntity
  8
0
  6
SLD-SOLID
 62
     8
100
AcDbCircle
 10
82.7916359634
 20
1133.9999761017
 30
0.0
 40
1.152480000000032
100
AcDbArc
 50
280.0
 51
149.0326038202
  0
ARC
  5
2B4
330
1F
100
AcDbEntity
  8
0
  6
SLD-SOLID
 62
     8
100
AcDbCircle
 10
85.7672112104
 20
1142.1753019025
 30
0.0
 40
1.152480000000073
100
AcDbArc
 50
170.9673961798
 51
220.0
  0
ARC
  5
2B5
330
1F
100
AcDbEntity
  8
0
  6
SLD-SOLID
 62
     8
100
AcDbCircle
 10
85.7672112104
 20
1142.1753019025
 30
0.0
 40
1.152480000000073
100
AcDbArc
 50
220.0
 51
89.0326038202
  0
ARC
  5
2B6
330
1F
100
AcDbEntity
  8
0
  6
SLD-SOLID
 62
     8
100
AcDbCircle
 10
94.3350386616
 20
1127.3353894466
 30
0.0
 40
1.152479999999991
100
AcDbArc
 50
330.9673961798
 51
20.0
  0
ARC
  5
2B7
330
1F
100
AcDbEntity
  8
0
  6
SLD-SOLID
 62
     8
100
AcDbCircle
 10
94.3350386616
 20
1127.3353894466
 30
0.0
 40
1.152480000000154
100
AcDbArc
 50
20.0
 51
249.0326038202
  0
ARC
  5
2B8
330
1F
100
AcDbEntity
  8
0
  6
SLD-SOLID
 62
     8
100
AcDbCircle
 10
82.7916359634
 20
1137.0214543931
 30
0.0
 40
1.152480000000089
100
AcDbArc
 50
210.9673961798
 51
260.0
  0
ARC
  5
2B9
330
1F
100
AcDbEntity
  8
0
  6
SLD-SOLID
 62
     8
100
AcDbCircle
 10
82.7916359634
 20
1137.0214543931
 30
0.0
 40
1.152480000000089
100
AcDbArc
 50
260.0
 51
129.0326038202
  0
ARC
  5
2BA
330
1F
100
AcDbEntity
  8
0
  6
SLD-SOLID
 62
     8
100
AcDbCircle
 10
98.8938844276
 20
1139.8607152474
 30
0.0
 40
1.15248000000024
100
AcDbArc
 50
70.9673961798
 51
120.0
  0
ARC
  5
2BB
330
1F
100
AcDbEntity
  8
0
  6
SLD-SOLID
 62
     8
100
AcDbCircle
 10
98.8938844276
 20
1139.8607152474
 30
0.0
 40
1.15248000000024
100
AcDbArc
 50
120.0
 51
349.0326038202
  0
ARC
  5
2BC
330
1F
100
AcDbEntity
  8
0
  6
SLD-SOLID
 62
     8
100
AcDbCircle
 10
91.3594634146
 20
1126.8107152474
 30
0.0
 40
1.15248000000009
100
AcDbArc
 50
310.9673961798
 51
0.0
  0
ARC
  5
2BD
330
1F
100
AcDbEntity
  8
0
  6
SLD-SOLID
 62
     8
100
AcDbCircle
 10
91.3594634146
 20
1126.8107152474
 30
0.0
 40
1.152480000000099
100
AcDbArc
 50
0.0
 51
229.0326038202
  0
ARC
  5
2BE
330
1F
100
AcDbEntity
  8
0
  6
SLD-SOLID
 62
     8
100
AcDbCircle
 10
83.8250424017
 20
1131.1607152474
 30
0.0
 40
1.152480000000226
100
AcDbArc
 50
250.9673961798
 51
300.0
  0
ARC
  5
2BF
330
1F
100
AcDbEntity
  8
0
  6
SLD-SOLID
 62
     8
100
AcDbCircle
 10
83.8250424017
 20
1131.1607152474
 30
0.0
 40
1.152480000000226
100
AcDbArc
 50
300.0
 51
169.0326038202
  0
ARC
  5
2C0
330
1F
100
AcDbEntity
  8
0
  6
SLD-SOLID
 62
     8
100
AcDbCircle
 10
94.3350386616
 20
1143.6860410482
 30
0.0
 40
1.152479999999991
100
AcDbArc
 50
110.9673961798
 51
160.0
  0
ARC
  5
2C1
330
1F
100
AcDbEntity
  8
0
  6
SLD-SOLID
 62
     8
100
AcDbCircle
 10
94.3350386616
 20
1143.6860410482
 30
0.0
 40
1.152479999999991
100
AcDbArc
 50
160.0
 51
29.0326038202
  0
ARC
  5
2C2
330
1F
100
AcDbEntity
  8
0
  6
SLD-SOLID
 62
     8
100
AcDbCircle
 10
99.9272908658
 20
1137.0214543931
 30
0.0
 40
1.152479999999958
100
AcDbArc
 50
50.9673961798
 51
100.0
  0
ARC
  5
2C3
330
1F
100
AcDbEntity
  8
0
  6
SLD-SOLID
 62
     8
100
AcDbCircle
 10
99.9272908658
 20
1137.0214543931
 30
0.0
 40
1.152480000000044
100
AcDbArc
 50
100.0
 51
329.0326038202
  0
ARC
  5
2C4
330
1F
100
AcDbEntity
  8
0
  6
SLD-SOLID
 62
     8
100
AcDbCircle
 10
96.9517156189
 20
1142.1753019025
 30
0.0
 40
1.152479999999927
100
AcDbArc
 50
90.9673961798
 51
140.0
  0
ARC
  5
2C5
330
1F
100
AcDbEntity
  8
0
  6
SLD-SOLID
 62
     8
100
AcDbCircle
 10
96.9517156189
 20
1142.1753019025
 30
0.0
 40
1.15248
100
AcDbArc
 50
140.0
 51
9.0326038202
  0
ARC
  5
2C6
330
1F
100
AcDbEntity
  8
0
  6
SLD-SOLID
 62
     8
100
AcDbCircle
 10
85.7672112104
 20
1128.8461285923
 30
0.0
 40
1.152480000000062
100
AcDbArc
 50
270.9673961798
 51
320.0
  0
ARC
  5
2C7
330
1F
100
AcDbEntity
  8
0
  6
SLD-SOLID
 62
     8
100
AcDbCircle
 10
85.7672112104
 20
1128.8461285923
 30
0.0
 40
1.152480000000062
100
AcDbArc
 50
320.0
 51
189.0326038202
  0
ARC
  5
2C8
330
1F
100
AcDbEntity
  8
0
  6
SLD-SOLID
 62
     8
100
AcDbCircle
 10
83.8250424017
 20
1139.8607152474
 30
0.0
 40
1.152479999999959
100
AcDbArc
 50
190.9673961798
 51
240.0
  0
ARC
  5
2C9
330
1F
100
AcDbEntity
  8
0
  6
SLD-SOLID
 62
     8
100
AcDbCircle
 10
83.8250424017
 20
1139.8607152474
 30
0.0
 40
1.152479999999932
100
AcDbArc
 50
240.0
 51
109.0326038202
  0
LINE
  5
2CA
330
1F
100
AcDbEntity
  8
0
  6
SLD-SOLID
 62
     7
100
AcDbLine
 10
87.7379146302
 20
-849.7626613929
 30
0.0
 11
88.0499634146
 21
-849.9428228426
 31
0.0
  0
LINE
  5
2CB
330
1F
100
AcDbEntity
  8
0
  6
SLD-SOLID
 62
     7
100
AcDbLine
 10
94.6689634146
 20
-849.9428228426
 30
0.0
 11
94.9810121991
 21
-849.7626613929
 31
0.0
  0
LINE
  5
2CC
330
1F
100
AcDbEntity
  8
0
  6
SLD-SOLID
 62
     7
100
AcDbLine
 10
94.9810121991
 20
-849.7626613929
 30
0.0
 11
94.7614991891
 21
-849.6089567286
 31
0.0
  0
LINE
  5
2CD
330
1F
100
AcDbEntity
  8
0
  6
SLD-SOLID
 62
     7
100
AcDbLine
 10
87.9574276402
 20
-849.6089567286
 30
0.0
 11
87.7379146302
 21
-849.7626613929
 31
0.0
  0
LINE
  5
2CE
330
1F
100
AcDbEntity
  8
0
  6
SLD-SOLID
 62
     7
100
AcDbLine
 10
108.8594634146
 20
-799.2199994672
 30
0.0
 11
106.8594634146
 21
-797.2199994672
 31
0.0
  0
LINE
  5
2CF
330
1F
100
AcDbEntity
  8
0
  6
SLD-SOLID
 62
     7
100
AcDbLine
 10
75.8594634146
 20
-797.2199994672
 30
0.0
 11
73.8594634146
 21
-799.2199994672
 31
0.0
  0
LINE
  5
2D0
330
1F
100
AcDbEntity
  8
0
  6
SLD-SOLID
 62
     7
100
AcDbLine
 10
73.8594634146
 20
-799.2199994672
 30
0.0
 11
73.8594634146
 21
-800.0199994672
 31
0.0
  0
LINE
  5
2D1
330
1F
100
AcDbEntity
  8
0
  6
SLD-SOLID
 62
     7
100
AcDbLine
 10
108.8594634146
 20
-800.0199994672
 30
0.0
 11
108.8594634146
 21
-799.2199994672
 31
0.0
  0
LINE
  5
2D2
330
1F
100
AcDbEntity
  8
0
  6
SLD-SOLID
 62
     7
100
AcDbLine
 10
83.3594634146
 20
-804.9428228426
 30
0.0
 11
83.3594634146
 21
-806.9428228426
 31
0.0
  0
LINE
  5
2D3
330
1F
100
AcDbEntity
  8
0
  6
SLD-SOLID
 62
     7
100
AcDbLine
 10
99.3594634146
 20
-806.9428228426
 30
0.0
 11
99.3594634146
 21
-804.9428228426
 31
0.0
  0
LINE
  5
2D4
330
1F
100
AcDbEntity
  8
0
  6
SLD-SOLID
 62
     7
100
AcDbLine
 10
108.8594634146
 20
-811.9428228426
 30
0.0
 11
108.8594634146
 21
-810.9428228426
 31
0.0
  0
LINE
  5
2D5
330
1F
100
AcDbEntity
  8
0
  6
SLD-SOLID
 62
     7
100
AcDbLine
 10
73.8594634146
 20
-810.9428228426
 30
0.0
 11
73.8594634146
 21
-811.9428228426
 31
0.0
  0
LINE
  5
2D6
330
1F
100
AcDbEntity
  8
0
  6
SLD-SOLID
 62
     7
100
AcDbLine
 10
101.3594634146
 20
-810.9428228426
 30
0.0
 11
101.3594634146
 21
-806.9428228426
 31
0.0
  0
LINE
  5
2D7
330
1F
100
AcDbEntity
  8
0
  6
SLD-SOLID
 62
     7
100
AcDbLine
 10
81.3594634146
 20
-806.9428228426
 30
0.0
 11
81.3594634146
 21
-810.9428228426
 31
0.0
  0
LINE
  5
2D8
330
1F
100
AcDbEntity
  8
0
  6
SLD-SOLID
 62
     7
100
AcDbLine
 10
73.8594634146
 20
-799.9428228426
 30
0.0
 11
73.8594634146
 21
-800.9428228426
 31
0.0
  0
LINE
  5
2D9
330
1F
100
AcDbEntity
  8
0
  6
SLD-SOLID
 62
     7
100
AcDbLine
 10
108.8594634146
 20
-800.9428228426
 30
0.0
 11
108.8594634146
 21
-799.9428228426
 31
0.0
  0
LINE
  5
2DA
330
1F
100
AcDbEntity
  8
0
  6
SLD-SOLID
 62
     7
100
AcDbLine
 10
81.3594634146
 20
-800.9428228426
 30
0.0
 11
81.3594634146
 21
-804.9428228426
 31
0.0
  0
LINE
  5
2DB
330
1F
100
AcDbEntity
  8
0
  6
SLD-SOLID
 62
     7
100
AcDbLine
 10
101.3594634146
 20
-804.9428228426
 30
0.0
 11
101.3594634146
 21
-800.9428228426
 31
0.0
  0
LINE
  5
2DC
330
1F
100
AcDbEntity
  8
0
  6
SLD-SOLID
 62
     7
100
AcDbLine
 10
73.8594634146
 20
-800.9428228426
 30
0.0
 11
73.8594634146
 21
-801.2199994672
 31
0.0
  0
LINE
  5
2DD
330
1F
100
AcDbEntity
  8
0
  6
SLD-SOLID
 62
     7
100
AcDbLine
 10
108.8594634146
 20
-801.2199994672
 30
0.0
 11
108.8594634146
 21
-800.9428228426
 31
0.0
  0
LINE
  5
2DE
330
1F
100
AcDbEntity
  8
0
  6
SLD-SOLID
 62
     7
100
AcDbLine
 10
81.3594634146
 20
-804.9428228426
 30
0.0
 11
81.3594634146
 21
-805.2199994672
 31
0.0
  0
LINE
  5
2DF
330
1F
100
AcDbEntity
  8
0
  6
SLD-SOLID
 62
     7
100
AcDbLine
 10
101.3594634146
 20
-805.2199994672
 30
0.0
 11
101.3594634146
 21
-804.9428228426
 31
0.0
  0
LINE
  5
2E0
330
1F
100
AcDbEntity
  8
0
  6
SLD-SOLID
 62
     7
100
AcDbLine
 10
73.8594634146
 20
-811.9428228426
 30
0.0
 11
73.8594634146
 21
-817.9428228426
 31
0.0
  0
LINE
  5
2E1
330
1F
100
AcDbEntity
  8
0
  6
SLD-SOLID
 62
     7
100
AcDbLine
 10
108.8594634146
 20
-817.9428228426
 30
0.0
 11
108.8594634146
 21
-811.9428228426
 31
0.0
  0
CIRCLE
  5
2E2
330
1F
100
AcDbEntity
  8
0
  6
SLD-SOLID
 62
     7
100
AcDbCircle
 10
91.3594634146
 20
-832.4428228426
 30
0.0
 40
5.036000000000139
  0
CIRCLE
  5
2E3
330
1F
100
AcDbEntity
  8
0
  6
SLD-SOLID
 62
     7
100
AcDbCircle
 10
91.3594634146
 20
-832.4428228426
 30
0.0
 40
5.471648121967867
  0
LINE
  5
2E4
330
1F
100
AcDbEntity
  8
0
  6
SLD-SOLID
 62
     7
100
AcDbLine
 10
89.9628766462
 20
-835.6129246388
 30
0.0
 11
93.4065587185
 21
-835.2373533608
 31
0.0
  0
LINE
  5
2E5
330
1F
100
AcDbEntity
  8
0
  6
SLD-SOLID
 62
     7
100
AcDbLine
 10
94.8031454869
 20
-832.0672515646
 30
0.0
 11
93.4065587185
 21
-835.2373533608
 31
0.0
  0
LINE
  5
2E6
330
1F
100
AcDbEntity
  8
0
  6
SLD-SOLID
 62
     7
100
AcDbLine
 10
92.7560501831
 20
-829.2727210465
 30
0.0
 11
94.8031454869
 21
-832.0672515646
 31
0.0
  0
LINE
  5
2E7
330
1F
100
AcDbEntity
  8
0
  6
SLD-SOLID
 62
     7
100
AcDbLine
 10
92.7560501831
 20
-829.2727210465
 30
0.0
 11
89.3123681108
 21
-829.6482923244
 31
0.0
  0
LINE
  5
2E8
330
1F
100
AcDbEntity
  8
0
  6
SLD-SOLID
 62
     7
100
AcDbLine
 10
87.9157813423
 20
-832.8183941206
 30
0.0
 11
89.3123681108
 21
-829.6482923244
 31
0.0
  0
LINE
  5
2E9
330
1F
100
AcDbEntity
  8
0
  6
SLD-SOLID
 62
     7
100
AcDbLine
 10
87.9157813423
 20
-832.8183941206
 30
0.0
 11
89.9628766462
 21
-835.6129246388
 31
0.0
  0
CIRCLE
  5
2EA
330
1F
100
AcDbEntity
  8
0
  6
SLD-SOLID
 62
     7
100
AcDbCircle
 10
91.3594634146
 20
-832.4428228426
 30
0.0
 40
6.000000000000103
  0
LINE
  5
2EB
330
1F
100
AcDbEntity
  8
0
  6
SLD-SOLID
 62
     7
100
AcDbLine
 10
94.6689634146
 20
-849.9428228426
 30
0.0
 11
88.0499634146
 21
-849.9428228426
 31
0.0
  0
LINE
  5
2EC
330
1F
100
AcDbEntity
  8
0
  6
SLD-SOLID
 62
     7
100
AcDbLine
 10
87.7379146302
 20
-849.7626613929
 30
0.0
 11
88.8548291915
 21
-849.7626613929
 31
0.0
  0
LINE
  5
2ED
330
1F
100
AcDbEntity
  8
0
  6
SLD-SOLID
 62
     7
100
AcDbLine
 10
93.8640976378
 20
-849.7626613929
 30
0.0
 11
94.9810121991
 21
-849.7626613929
 31
0.0
  0
LINE
  5
2EE
330
1F
100
AcDbEntity
  8
0
  6
SLD-SOLID
 62
     7
100
AcDbLine
 10
75.8594634146
 20
-797.2199994672
 30
0.0
 11
106.8594634146
 21
-797.2199994672
 31
0.0
  0
LINE
  5
2EF
330
1F
100
AcDbEntity
  8
0
  6
SLD-SOLID
 62
     7
100
AcDbLine
 10
108.8594634146
 20
-799.2199994672
 30
0.0
 11
73.8594634146
 21
-799.2199994672
 31
0.0
  0
LINE
  5
2F0
330
1F
100
AcDbEntity
  8
0
  6
SLD-SOLID
 62
     7
100
AcDbLine
 10
91.3594634146
 20
-800.0199994672
 30
0.0
 11
108.8594634146
 21
-800.0199994672
 31
0.0
  0
LINE
  5
2F1
330
1F
100
AcDbEntity
  8
0
  6
SLD-SOLID
 62
     7
100
AcDbLine
 10
73.8594634146
 20
-800.0199994672
 30
0.0
 11
91.3594634146
 21
-800.0199994672
 31
0.0
  0
LINE
  5
2F2
330
1F
100
AcDbEntity
  8
0
  6
SLD-SOLID
 62
     7
100
AcDbLine
 10
100.9309858402
 20
-810.9428228426
 30
0.0
 11
73.8594634146
 21
-810.9428228426
 31
0.0
  0
LINE
  5
2F3
330
1F
100
AcDbEntity
  8
0
  6
SLD-SOLID
 62
     7
100
AcDbLine
 10
108.8594634146
 20
-810.9428228426
 30
0.0
 11
100.9309858402
 21
-810.9428228426
 31
0.0
  0
LINE
  5
2F4
330
1F
100
AcDbEntity
  8
0
  6
SLD-SOLID
 62
     7
100
AcDbLine
 10
100.9309858402
 20
-811.9428228426
 30
0.0
 11
73.8594634146
 21
-811.9428228426
 31
0.0
  0
LINE
  5
2F5
330
1F
100
AcDbEntity
  8
0
  6
SLD-SOLID
 62
     7
100
AcDbLine
 10
108.8594634146
 20
-811.9428228426
 30
0.0
 11
100.9309858402
 21
-811.9428228426
 31
0.0
  0
LINE
  5
2F6
330
1F
100
AcDbEntity
  8
0
  6
SLD-SOLID
 62
     7
100
AcDbLine
 10
96.8289048007
 20
-806.9428228426
 30
0.0
 11
81.3594634146
 21
-806.9428228426
 31
0.0
  0
LINE
  5
2F7
330
1F
100
AcDbEntity
  8
0
  6
SLD-SOLID
 62
     7
100
AcDbLine
 10
101.3594634146
 20
-806.9428228426
 30
0.0
 11
96.8289048007
 21
-806.9428228426
 31
0.0
  0
LINE
  5
2F8
330
1F
100
AcDbEntity
  8
0
  6
SLD-SOLID
 62
     7
100
AcDbLine
 10
108.5729066245
 20
-800.9428228426
 30
0.0
 11
108.8594634146
 21
-800.9428228426
 31
0.0
  0
LINE
  5
2F9
330
1F
100
AcDbEntity
  8
0
  6
SLD-SOLID
 62
     7
100
AcDbLine
 10
73.8594634146
 20
-800.9428228426
 30
0.0
 11
108.5729066245
 21
-800.9428228426
 31
0.0
  0
LINE
  5
2FA
330
1F
100
AcDbEntity
  8
0
  6
SLD-SOLID
 62
     7
100
AcDbLine
 10
108.5729066245
 20
-799.9428228426
 30
0.0
 11
108.8594634146
 21
-799.9428228426
 31
0.0
  0
LINE
  5
2FB
330
1F
100
AcDbEntity
  8
0
  6
SLD-SOLID
 62
     7
100
AcDbLine
 10
73.8594634146
 20
-799.9428228426
 30
0.0
 11
108.5729066245
 21
-799.9428228426
 31
0.0
  0
LINE
  5
2FC
330
1F
100
AcDbEntity
  8
0
  6
SLD-SOLID
 62
     7
100
AcDbLine
 10
101.1957166774
 20
-804.9428228426
 30
0.0
 11
101.3594634146
 21
-804.9428228426
 31
0.0
  0
LINE
  5
2FD
330
1F
100
AcDbEntity
  8
0
  6
SLD-SOLID
 62
     7
100
AcDbLine
 10
81.3594634146
 20
-804.9428228426
 30
0.0
 11
101.1957166774
 21
-804.9428228426
 31
0.0
  0
LINE
  5
2FE
330
1F
100
AcDbEntity
  8
0
  6
SLD-SOLID
 62
     7
100
AcDbLine
 10
108.5729066247
 20
-801.2199994672
 30
0.0
 11
108.8594634146
 21
-801.2199994672
 31
0.0
  0
LINE
  5
2FF
330
1F
100
AcDbEntity
  8
0
  6
SLD-SOLID
 62
     7
100
AcDbLine
 10
73.8594634146
 20
-801.2199994672
 30
0.0
 11
81.3594634146
 21
-801.2199994672
 31
0.0
  0
LINE
  5
300
330
1F
100
AcDbEntity
  8
0
  6
SLD-SOLID
 62
     7
100
AcDbLine
 10
101.3594634146
 20
-801.2199994672
 30
0.0
 11
108.5729066247
 21
-801.2199994672
 31
0.0
  0
LINE
  5
301
330
1F
100
AcDbEntity
  8
0
  6
SLD-SOLID
 62
     7
100
AcDbLine
 10
101.1957166775
 20
-805.2199994672
 30
0.0
 11
101.3594634146
 21
-805.2199994672
 31
0.0
  0
LINE
  5
302
330
1F
100
AcDbEntity
  8
0
  6
SLD-SOLID
 62
     7
100
AcDbLine
 10
81.3594634146
 20
-805.2199994672
 30
0.0
 11
83.3594634146
 21
-805.2199994672
 31
0.0
  0
LINE
  5
303
330
1F
100
AcDbEntity
  8
0
  6
SLD-SOLID
 62
     7
100
AcDbLine
 10
99.3594634146
 20
-805.2199994672
 30
0.0
 11
101.1957166775
 21
-805.2199994672
 31
0.0
  0
LINE
  5
304
330
1F
100
AcDbEntity
  8
0
  6
SLD-SOLID
 62
     7
100
AcDbLine
 10
101.1574223858
 20
-817.9428228426
 30
0.0
 11
108.8594634146
 21
-817.9428228426
 31
0.0
  0
LINE
  5
305
330
1F
100
AcDbEntity
  8
0
  6
SLD-SOLID
 62
     7
100
AcDbLine
 10
73.8594634146
 20
-817.9428228426
 30
0.0
 11
81.5615044435
 21
-817.9428228426
 31
0.0
  0
LINE
  5
306
330
1F
100
AcDbEntity
  8
0
  6
SLD-SOLID
 62
     7
100
AcDbLine
 10
90.2568898877
 20
-811.9428228426
 30
0.0
 11
108.8594634146
 21
-811.9428228426
 31
0.0
  0
LINE
  5
307
330
1F
100
AcDbEntity
  8
0
  6
SLD-SOLID
 62
     7
100
AcDbLine
 10
73.8594634146
 20
-811.9428228426
 30
0.0
 11
90.2568898877
 21
-811.9428228426
 31
0.0
  0
CIRCLE
  5
308
330
1F
100
AcDbEntity
  8
0
  6
SLD-SOLID
 62
     7
100
AcDbCircle
 10
91.3594634146
 20
-832.4428228426
 30
0.0
 40
17.5
  0
CIRCLE
  5
309
330
1F
100
AcDbEntity
  8
0
  6
SLD-SOLID
 62
     7
100
AcDbCircle
 10
91.3594634146
 20
-832.4428228426
 30
0.0
 40
17.30000000000003
  0
ARC
  5
30A
330
1F
100
AcDbEntity
  8
0
  6
SLD-SOLID
 62
     7
100
AcDbCircle
 10
82.8594634146
 20
-823.9428228426
 30
0.0
 40
2.5
100
AcDbArc
 50
0.0
 51
270.0
  0
LINE
  5
30B
330
1F
100
AcDbEntity
  8
0
  6
SLD-SOLID
 62
     7
100
AcDbLine
 10
82.8594634146
 20
-826.4428228426
 30
0.0
 11
82.8594634146
 21
-838.4428228426
 31
0.0
  0
ARC
  5
30C
330
1F
100
AcDbEntity
  8
0
  6
SLD-SOLID
 62
     7
100
AcDbCircle
 10
82.8594634146
 20
-840.9428228426
 30
0.0
 40
2.5
100
AcDbArc
 50
90.0
 51
0.0
  0
LINE
  5
30D
330
1F
100
AcDbEntity
  8
0
  6
SLD-SOLID
 62
     7
100
AcDbLine
 10
85.3594634146
 20
-840.9428228426
 30
0.0
 11
97.3594634146
 21
-840.9428228426
 31
0.0
  0
ARC
  5
30E
330
1F
100
AcDbEntity
  8
0
  6
SLD-SOLID
 62
     7
100
AcDbCircle
 10
99.8594634146
 20
-840.9428228426
 30
0.0
 40
2.5
100
AcDbArc
 50
180.0
 51
90.0
  0
LINE
  5
30F
330
1F
100
AcDbEntity
  8
0
  6
SLD-SOLID
 62
     7
100
AcDbLine
 10
99.8594634146
 20
-838.4428228426
 30
0.0
 11
99.8594634146
 21
-826.4428228426
 31
0.0
  0
ARC
  5
310
330
1F
100
AcDbEntity
  8
0
  6
SLD-SOLID
 62
     7
100
AcDbCircle
 10
99.8594634146
 20
-823.9428228426
 30
0.0
 40
2.5
100
AcDbArc
 50
270.0
 51
180.0
  0
LINE
  5
311
330
1F
100
AcDbEntity
  8
0
  6
SLD-SOLID
 62
     7
100
AcDbLine
 10
97.3594634146
 20
-823.9428228426
 30
0.0
 11
85.3594634146
 21
-823.9428228426
 31
0.0
  0
CIRCLE
  5
312
330
1F
100
AcDbEntity
  8
0
  6
SLD-SOLID
 62
     7
100
AcDbCircle
 10
91.3594634146
 20
-832.4428228426
 30
0.0
 40
6.025000000000006
  0
ARC
  5
313
330
1F
100
AcDbEntity
  8
0
  6
SLD-SOLID
 62
     7
100
AcDbCircle
 10
82.8594634146
 20
-823.9428228426
 30
0.0
 40
2.5
100
AcDbArc
 50
270.0
 51
0.0
  0
ARC
  5
314
330
1F
100
AcDbEntity
  8
0
  6
SLD-SOLID
 62
     7
100
AcDbCircle
 10
99.8594634146
 20
-823.9428228426
 30
0.0
 40
2.5
100
AcDbArc
 50
180.0
 51
270.0
  0
ARC
  5
315
330
1F
100
AcDbEntity
  8
0
  6
SLD-SOLID
 62
     7
100
AcDbCircle
 10
99.8594634146
 20
-840.9428228426
 30
0.0
 40
2.5
100
AcDbArc
 50
90.0
 51
180.0
  0
ARC
  5
316
330
1F
100
AcDbEntity
  8
0
  6
SLD-SOLID
 62
     7
100
AcDbCircle
 10
82.8594634146
 20
-840.9428228426
 30
0.0
 40
2.5
100
AcDbArc
 50
0.0
 51
90.0
  0
ENDSEC
  0
SECTION
  2
OBJECTS
  0
DICTIONARY
  5
C
330
0
100
AcDbDictionary
  3
ACAD_GROUP
350
D
  3
ACAD_MLINESTYLE
350
17
  3
ACAD_SCALELIST
350
47
  3
DWGPROPS
350
317
  0
DICTIONARY
  5
D
102
{ACAD_REACTORS
330
C
102
}
330
C
100
AcDbDictionary
  0
DICTIONARY
  5
17
102
{ACAD_REACTORS
330
C
102
}
330
C
100
AcDbDictionary
  3
STANDARD
350
18
  0
DICTIONARY
  5
47
102
{ACAD_REACTORS
330
C
102
}
330
C
100
AcDbDictionary
  0
XRECORD
  5
317
102
{ACAD_REACTORS
330
C
102
}
330
C
100
AcDbXrecord
  1
DWGPROPS COOKIE
  2

  3

  4

  6

  7

  8
Pedro.Queiros
  9

300
=
301
=
302
=
303
=
304
=
305
=
306
=
307
=
308
=
309
=
 40
0.0
 41
2458941.357347662
 42
2458941.35734868
  1

 90
        0
  0
MLINESTYLE
  5
18
102
{ACAD_REACTORS
330
17
102
}
330
17
100
AcDbMlineStyle
  2
Standard
 70
     0
  3

 62
   256
 51
90.0
 52
90.0
 71
     2
 49
0.5
 62
   256
  6
BYLAYER
 49
-0.5
 62
   256
  6
BYLAYER
  0
ENDSEC
  0
EOF
