  0
SECTION
  2
HEADER
  9
$ACADVER
  1
AC1015
  9
$ACADMAINTVER
 70
     6
  9
$DWGCODEPAGE
  3
ANSI_1252
  9
$INSBASE
 10
0.0
 20
0.0
 30
0.0
  9
$EXTMIN
 10
0.0
 20
0.0
 30
0.0
  9
$EXTMAX
 10
279.4
 20
215.9
 30
0.0
  9
$LIMMIN
 10
0.0
 20
0.0
  9
$LIMMAX
 10
279.4
 20
215.9
  9
$ORTHOMODE
 70
     0
  9
$REGENMODE
 70
     1
  9
$FILLMODE
 70
     1
  9
$QTEXTMODE
 70
     0
  9
$MIRRTEXT
 70
     1
  9
$LTSCALE
 40
1.0
  9
$ATTMODE
 70
     1
  9
$TEXTSIZE
 40
3.5
  9
$TRACEWID
 40
1.0
  9
$TEXTSTYLE
  7
Standard
  9
$CLAYER
  8
0
  9
$CELTYPE
  6
ByLayer
  9
$CECOLOR
 62
   256
  9
$CELTSCALE
 40
1.0
  9
$DISPSILH
 70
     0
  9
$DIMSCALE
 40
1.0
  9
$DIMASZ
 40
3.302
  9
$DIMEXO
 40
1.0
  9
$DIMDLI
 40
3.75
  9
$DIMRND
 40
0.0
  9
$DIMDLE
 40
0.0
  9
$DIMEXE
 40
1.0
  9
$DIMTP
 40
0.0
  9
$DIMTM
 40
0.0
  9
$DIMTXT
 40
3.5
  9
$DIMCEN
 40
2.5
  9
$DIMTSZ
 40
0.0
  9
$DIMTOL
 70
     0
  9
$DIMLIM
 70
     0
  9
$DIMTIH
 70
     1
  9
$DIMTOH
 70
     1
  9
$DIMSE1
 70
     0
  9
$DIMSE2
 70
     0
  9
$DIMTAD
 70
     1
  9
$DIMZIN
 70
     0
  9
$DIMBLK
  1

  9
$DIMASO
 70
     1
  9
$DIMSHO
 70
     1
  9
$DIMPOST
  1

  9
$DIMAPOST
  1

  9
$DIMALT
 70
     0
  9
$DIMALTD
 70
     3
  9
$DIMALTF
 40
0.0393700787
  9
$DIMLFAC
 40
5.0
  9
$DIMTOFL
 70
     1
  9
$DIMTVP
 40
0.0
  9
$DIMTIX
 70
     0
  9
$DIMSOXD
 70
     0
  9
$DIMSAH
 70
     0
  9
$DIMBLK1
  1

  9
$DIMBLK2
  1

  9
$DIMSTYLE
  2
ISO-25
  9
$DIMCLRD
 70
     0
  9
$DIMCLRE
 70
     0
  9
$DIMCLRT
 70
     0
  9
$DIMTFAC
 40
1.0
  9
$DIMGAP
 40
1.524
  9
$DIMJUST
 70
     0
  9
$DIMSD1
 70
     0
  9
$DIMSD2
 70
     0
  9
$DIMTOLJ
 70
     0
  9
$DIMTZIN
 70
     0
  9
$DIMALTZ
 70
     0
  9
$DIMALTTZ
 70
     0
  9
$DIMUPT
 70
     0
  9
$DIMDEC
 70
     2
  9
$DIMTDEC
 70
     2
  9
$DIMALTU
 70
     2
  9
$DIMALTTD
 70
     3
  9
$DIMTXSTY
  7
Standard
  9
$DIMAUNIT
 70
     0
  9
$DIMADEC
 70
     2
  9
$DIMALTRND
 40
0.0
  9
$DIMAZIN
 70
     0
  9
$DIMDSEP
 70
    44
  9
$DIMATFIT
 70
     3
  9
$DIMFRAC
 70
     0
  9
$DIMLDRBLK
  1

  9
$DIMLUNIT
 70
     2
  9
$DIMLWD
 70
    -2
  9
$DIMLWE
 70
    -2
  9
$DIMTMOVE
 70
     0
  9
$LUNITS
 70
     2
  9
$LUPREC
 70
     2
  9
$SKETCHINC
 40
1.0
  9
$FILLETRAD
 40
10.0
  9
$AUNITS
 70
     0
  9
$AUPREC
 70
     2
  9
$MENU
  1
.
  9
$ELEVATION
 40
0.0
  9
$PELEVATION
 40
0.0
  9
$THICKNESS
 40
0.0
  9
$LIMCHECK
 70
     0
  9
$CHAMFERA
 40
0.0
  9
$CHAMFERB
 40
0.0
  9
$CHAMFERC
 40
0.0
  9
$CHAMFERD
 40
0.0
  9
$SKPOLY
 70
     0
  9
$TDCREATE
 40
2457591.407843125
  9
$TDUCREATE
 40
2457591.366176459
  9
$TDUPDATE
 40
2457591.407843519
  9
$TDUUPDATE
 40
2457591.366176852
  9
$TDINDWG
 40
0.0000000116
  9
$TDUSRTIMER
 40
0.0000000116
  9
$USRTIMER
 70
     1
  9
$ANGBASE
 50
0.0
  9
$ANGDIR
 70
     0
  9
$PDMODE
 70
     0
  9
$PDSIZE
 40
-1.0
  9
$PLINEWID
 40
0.0
  9
$SPLFRAME
 70
     0
  9
$SPLINETYPE
 70
     6
  9
$SPLINESEGS
 70
     8
  9
$HANDSEED
  5
2F1
  9
$SURFTAB1
 70
     6
  9
$SURFTAB2
 70
     6
  9
$SURFTYPE
 70
     6
  9
$SURFU
 70
     6
  9
$SURFV
 70
     6
  9
$UCSBASE
  2

  9
$UCSNAME
  2

  9
$UCSORG
 10
0.0
 20
0.0
 30
0.0
  9
$UCSXDIR
 10
1.0
 20
0.0
 30
0.0
  9
$UCSYDIR
 10
0.0
 20
1.0
 30
0.0
  9
$UCSORTHOREF
  2

  9
$UCSORTHOVIEW
 70
     0
  9
$UCSORGTOP
 10
0.0
 20
0.0
 30
0.0
  9
$UCSORGBOTTOM
 10
0.0
 20
0.0
 30
0.0
  9
$UCSORGLEFT
 10
0.0
 20
0.0
 30
0.0
  9
$UCSORGRIGHT
 10
0.0
 20
0.0
 30
0.0
  9
$UCSORGFRONT
 10
0.0
 20
0.0
 30
0.0
  9
$UCSORGBACK
 10
0.0
 20
0.0
 30
0.0
  9
$PUCSBASE
  2

  9
$PUCSNAME
  2

  9
$PUCSORG
 10
0.0
 20
0.0
 30
0.0
  9
$PUCSXDIR
 10
1.0
 20
0.0
 30
0.0
  9
$PUCSYDIR
 10
0.0
 20
1.0
 30
0.0
  9
$PUCSORTHOREF
  2

  9
$PUCSORTHOVIEW
 70
     0
  9
$PUCSORGTOP
 10
0.0
 20
0.0
 30
0.0
  9
$PUCSORGBOTTOM
 10
0.0
 20
0.0
 30
0.0
  9
$PUCSORGLEFT
 10
0.0
 20
0.0
 30
0.0
  9
$PUCSORGRIGHT
 10
0.0
 20
0.0
 30
0.0
  9
$PUCSORGFRONT
 10
0.0
 20
0.0
 30
0.0
  9
$PUCSORGBACK
 10
0.0
 20
0.0
 30
0.0
  9
$USERI1
 70
     0
  9
$USERI2
 70
     0
  9
$USERI3
 70
     0
  9
$USERI4
 70
     0
  9
$USERI5
 70
     0
  9
$USERR1
 40
0.0
  9
$USERR2
 40
0.0
  9
$USERR3
 40
0.0
  9
$USERR4
 40
0.0
  9
$USERR5
 40
0.0
  9
$WORLDVIEW
 70
     1
  9
$SHADEDGE
 70
     3
  9
$SHADEDIF
 70
    70
  9
$TILEMODE
 70
     1
  9
$MAXACTVP
 70
    64
  9
$PINSBASE
 10
0.0
 20
0.0
 30
0.0
  9
$PLIMCHECK
 70
     0
  9
$PEXTMIN
 10
1.0000000000E+20
 20
1.0000000000E+20
 30
1.0000000000E+20
  9
$PEXTMAX
 10
-1.0000000000E+20
 20
-1.0000000000E+20
 30
-1.0000000000E+20
  9
$PLIMMIN
 10
0.0
 20
0.0
  9
$PLIMMAX
 10
420.0
 20
297.0
  9
$UNITMODE
 70
     0
  9
$VISRETAIN
 70
     1
  9
$PLINEGEN
 70
     0
  9
$PSLTSCALE
 70
     1
  9
$TREEDEPTH
 70
  3020
  9
$CMLSTYLE
  2
Standard
  9
$CMLJUST
 70
     0
  9
$CMLSCALE
 40
20.0
  9
$PROXYGRAPHICS
 70
     1
  9
$MEASUREMENT
 70
     1
  9
$CELWEIGHT
370
    -1
  9
$ENDCAPS
280
     0
  9
$JOINSTYLE
280
     0
  9
$LWDISPLAY
290
     1
  9
$INSUNITS
 70
     4
  9
$HYPERLINKBASE
  1

  9
$STYLESHEET
  1

  9
$XEDIT
290
     1
  9
$CEPSNTYPE
380
     0
  9
$PSTYLEMODE
290
     1
  9
$FINGERPRINTGUID
  2
{0B06EA39-703C-4D1D-98AD-64DF5F09B072}
  9
$VERSIONGUID
  2
{FAEB1C32-E019-11D5-929B-00C0DF256EC4}
  9
$EXTNAMES
290
     1
  9
$PSVPSCALE
 40
0.0
  9
$OLESTARTUP
290
     0
  0
ENDSEC
  0
SECTION
  2
CLASSES
  0
CLASS
  1
ACDBDICTIONARYWDFLT
  2
AcDbDictionaryWithDefault
  3
ObjectDBX Classes
 90
        0
280
     0
281
     0
  0
CLASS
  1
VISUALSTYLE
  2
AcDbVisualStyle
  3
ObjectDBX Classes
 90
     4095
280
     0
281
     0
  0
CLASS
  1
MATERIAL
  2
AcDbMaterial
  3
ObjectDBX Classes
 90
     1153
280
     0
281
     0
  0
CLASS
  1
SCALE
  2
AcDbScale
  3
ObjectDBX Classes
 90
     1153
280
     0
281
     0
  0
CLASS
  1
TABLESTYLE
  2
AcDbTableStyle
  3
ObjectDBX Classes
 90
     4095
280
     0
281
     0
  0
CLASS
  1
MLEADERSTYLE
  2
AcDbMLeaderStyle
  3
ACDB_MLEADERSTYLE_CLASS
 90
     4095
280
     0
281
     0
  0
CLASS
  1
SUN
  2
AcDbSun
  3
SCENEOE
 90
     1153
280
     0
281
     0
  0
CLASS
  1
ACDBPLACEHOLDER
  2
AcDbPlaceHolder
  3
ObjectDBX Classes
 90
        0
280
     0
281
     0
  0
CLASS
  1
LAYOUT
  2
AcDbLayout
  3
ObjectDBX Classes
 90
        0
280
     0
281
     0
  0
ENDSEC
  0
SECTION
  2
TABLES
  0
TABLE
  2
VPORT
  5
8
330
0
100
AcDbSymbolTable
 70
     1
  0
VPORT
  5
29
330
8
100
AcDbSymbolTableRecord
100
AcDbViewportTableRecord
  2
*Active
 70
     0
 10
0.0
 20
0.0
 11
1.0
 21
1.0
 12
139.7
 22
107.95
 13
0.0
 23
0.0
 14
10.0
 24
10.0
 15
10.0
 25
10.0
 16
0.0
 26
0.0
 36
1.0
 17
0.0
 27
0.0
 37
0.0
 40
215.9
 41
1.2941176471
 42
50.0
 43
0.0
 44
0.0
 50
0.0
 51
0.0
 71
     0
 72
  2000
 73
     1
 74
     3
 75
     0
 76
     0
 77
     0
 78
     0
281
     0
 65
     1
110
0.0
120
0.0
130
0.0
111
1.0
121
0.0
131
0.0
112
0.0
122
1.0
132
0.0
 79
     0
146
0.0
  0
ENDTAB
  0
TABLE
  2
LTYPE
  5
5
330
0
100
AcDbSymbolTable
 70
     6
  0
LTYPE
  5
14
330
5
100
AcDbSymbolTableRecord
100
AcDbLinetypeTableRecord
  2
ByBlock
 70
     0
  3

 72
    65
 73
     0
 40
0.0
  0
LTYPE
  5
15
330
5
100
AcDbSymbolTableRecord
100
AcDbLinetypeTableRecord
  2
ByLayer
 70
     0
  3

 72
    65
 73
     0
 40
0.0
  0
LTYPE
  5
16
330
5
100
AcDbSymbolTableRecord
100
AcDbLinetypeTableRecord
  2
Continuous
 70
     0
  3
Solid line
 72
    65
 73
     0
 40
0.0
  0
LTYPE
  5
6E
330
5
100
AcDbSymbolTableRecord
100
AcDbLinetypeTableRecord
  2
HIDDEN
 70
     0
  3
Hidden __ __ __ __ __ __ __ __ __ __ __ __ __ __
 72
    65
 73
     2
 40
1.905
 49
1.27
 74
     0
 49
-0.635
 74
     0
  0
LTYPE
  5
6F
330
5
100
AcDbSymbolTableRecord
100
AcDbLinetypeTableRecord
  2
PHANTOM
 70
     0
  3
Phantom ______  __  __  ______  __  __  ______
 72
    65
 73
     6
 40
12.7
 49
6.35
 74
     0
 49
-1.27
 74
     0
 49
1.27
 74
     0
 49
-1.27
 74
     0
 49
1.27
 74
     0
 49
-1.27
 74
     0
  0
LTYPE
  5
70
330
5
100
AcDbSymbolTableRecord
100
AcDbLinetypeTableRecord
  2
CENTER
 70
     0
  3
Center ____ _ ____ _ ____ _ ____ _ ____ _ ____
 72
    65
 73
     4
 40
10.16
 49
6.35
 74
     0
 49
-1.27
 74
     0
 49
1.27
 74
     0
 49
-1.27
 74
     0
  0
LTYPE
  5
71
330
5
100
AcDbSymbolTableRecord
100
AcDbLinetypeTableRecord
  2
CENTERX2
 70
     0
  3
Center (2x) ________  __  ________  __  _____
 72
    65
 73
     4
 40
20.32
 49
12.7
 74
     0
 49
-2.54
 74
     0
 49
2.54
 74
     0
 49
-2.54
 74
     0
  0
LTYPE
  5
72
330
5
100
AcDbSymbolTableRecord
100
AcDbLinetypeTableRecord
  2
DOT2
 70
     0
  3
Dot (.5x) ........................................
 72
    65
 73
     2
 40
0.635
 49
0.0
 74
     0
 49
-0.635
 74
     0
  0
ENDTAB
  0
TABLE
  2
LAYER
  5
2
330
0
100
AcDbSymbolTable
 70
     1
  0
LAYER
  5
10
330
2
100
AcDbSymbolTableRecord
100
AcDbLayerTableRecord
  2
0
 70
     0
 62
     7
  6
Continuous
370
    -3
390
F
  0
ENDTAB
  0
TABLE
  2
STYLE
  5
3
330
0
100
AcDbSymbolTable
 70
     1
  0
STYLE
  5
11
330
3
100
AcDbSymbolTableRecord
100
AcDbTextStyleTableRecord
  2
Standard
 70
     0
 40
0.0
 41
1.0
 50
0.0
 71
     0
 42
3.5
  3
txt
  4

  0
ENDTAB
  0
TABLE
  2
VIEW
  5
6
330
0
100
AcDbSymbolTable
 70
     0
  0
ENDTAB
  0
TABLE
  2
UCS
  5
7
330
0
100
AcDbSymbolTable
 70
     0
  0
ENDTAB
  0
TABLE
  2
APPID
  5
9
330
0
100
AcDbSymbolTable
 70
     1
  0
APPID
  5
12
330
9
100
AcDbSymbolTableRecord
100
AcDbRegAppTableRecord
  2
ACAD
 70
     0
  0
ENDTAB
  0
TABLE
  2
DIMSTYLE
  5
A
330
0
100
AcDbSymbolTable
 70
     1
100
AcDbDimStyleTable
  0
DIMSTYLE
105
27
330
A
100
AcDbSymbolTableRecord
100
AcDbDimStyleTableRecord
  2
ISO-25
 70
     0
 41
2.5
 42
0.625
 43
3.75
 44
1.25
 73
     0
 74
     0
 77
     1
 78
     8
140
2.5
141
2.5
143
0.0393700787
147
0.625
171
     3
172
     1
178
     0
271
     2
272
     2
274
     3
278
    44
283
     0
284
     8
340
11
  0
ENDTAB
  0
TABLE
  2
BLOCK_RECORD
  5
1
330
0
100
AcDbSymbolTable
 70
     1
  0
BLOCK_RECORD
  5
1F
330
1
100
AcDbSymbolTableRecord
100
AcDbBlockTableRecord
  2
*Model_Space
340
22
  0
BLOCK_RECORD
  5
1B
330
1
100
AcDbSymbolTableRecord
100
AcDbBlockTableRecord
  2
*Paper_Space
340
1E
  0
BLOCK_RECORD
  5
23
330
1
100
AcDbSymbolTableRecord
100
AcDbBlockTableRecord
  2
*Paper_Space0
340
26
  0
ENDTAB
  0
ENDSEC
  0
SECTION
  2
BLOCKS
  0
BLOCK
  5
20
330
1F
100
AcDbEntity
  8
0
100
AcDbBlockBegin
  2
*Model_Space
 70
     0
 10
0.0
 20
0.0
 30
0.0
  3
*Model_Space
  1

  0
ENDBLK
  5
21
330
1F
100
AcDbEntity
  8
0
100
AcDbBlockEnd
  0
BLOCK
  5
1C
330
1B
100
AcDbEntity
 67
     1
  8
0
100
AcDbBlockBegin
  2
*Paper_Space
 70
     0
 10
0.0
 20
0.0
 30
0.0
  3
*Paper_Space
  1

  0
ENDBLK
  5
1D
330
1B
100
AcDbEntity
 67
     1
  8
0
100
AcDbBlockEnd
  0
BLOCK
  5
24
330
23
100
AcDbEntity
  8
0
100
AcDbBlockBegin
  2
*Paper_Space0
 70
     0
 10
0.0
 20
0.0
 30
0.0
  3
*Paper_Space0
  1

  0
ENDBLK
  5
25
330
23
100
AcDbEntity
  8
0
100
AcDbBlockEnd
  0
ENDSEC
  0
SECTION
  2
ENTITIES
  0
LINE
  5
73
330
1F
100
AcDbEntity
  8
0
  6
Continuous
 62
     7
370
    15
100
AcDbLine
 10
54.7630900077
 20
121.0774851805
 30
0.0
 11
59.2630916766
 21
121.0774851805
 31
0.0
  0
LINE
  5
74
330
1F
100
AcDbEntity
  8
0
  6
Continuous
 62
     7
370
    15
100
AcDbLine
 10
94.2630881003
 20
121.0774851805
 30
0.0
 11
179.2630889944
 21
121.0774851805
 31
0.0
  0
LINE
  5
75
330
1F
100
AcDbEntity
  8
0
  6
Continuous
 62
     7
370
    15
100
AcDbLine
 10
214.2630928687
 20
121.0774851805
 30
0.0
 11
218.7630908123
 21
121.0774851805
 31
0.0
  0
LINE
  5
76
330
1F
100
AcDbEntity
  8
0
  6
Continuous
 62
     7
370
    15
100
AcDbLine
 10
218.7630908123
 20
141.0774847334
 30
0.0
 11
214.2630928687
 21
141.0774847334
 31
0.0
  0
LINE
  5
77
330
1F
100
AcDbEntity
  8
0
  6
Continuous
 62
     7
370
    15
100
AcDbLine
 10
179.2630889944
 20
141.0774847334
 30
0.0
 11
94.2630881003
 21
141.0774847334
 31
0.0
  0
LINE
  5
78
330
1F
100
AcDbEntity
  8
0
  6
Continuous
 62
     7
370
    15
100
AcDbLine
 10
59.2630916766
 20
141.0774847334
 30
0.0
 11
54.7630900077
 21
141.0774847334
 31
0.0
  0
LINE
  5
79
330
1F
100
AcDbEntity
  8
0
  6
Continuous
 62
     7
370
    15
100
AcDbLine
 10
54.7630900077
 20
141.0774847334
 30
0.0
 11
54.263096445
 21
140.5774837202
 31
0.0
  0
LINE
  5
7A
330
1F
100
AcDbEntity
  8
0
  6
Continuous
 62
     7
370
    15
100
AcDbLine
 10
54.263096445
 20
121.5774824685
 30
0.0
 11
54.7630900077
 21
121.0774851805
 31
0.0
  0
LINE
  5
7B
330
1F
100
AcDbEntity
  8
0
  6
Continuous
 62
     7
370
    15
100
AcDbLine
 10
218.7630908123
 20
121.0774851805
 30
0.0
 11
219.2630918256
 21
121.5774824685
 31
0.0
  0
LINE
  5
7C
330
1F
100
AcDbEntity
  8
0
  6
Continuous
 62
     7
370
    15
100
AcDbLine
 10
219.2630918256
 20
140.5774837202
 30
0.0
 11
218.7630908123
 21
141.0774847334
 31
0.0
  0
LINE
  5
7D
330
1F
100
AcDbEntity
  8
0
  6
Continuous
 62
     7
370
    15
100
AcDbLine
 10
59.2630916766
 20
121.0774851805
 30
0.0
 11
59.2630916766
 21
81.5774833625
 31
0.0
  0
LINE
  5
7E
330
1F
100
AcDbEntity
  8
0
  6
Continuous
 62
     7
370
    15
100
AcDbLine
 10
59.2630916766
 20
180.5774838156
 30
0.0
 11
59.2630916766
 21
141.0774847334
 31
0.0
  0
LINE
  5
7F
330
1F
100
AcDbEntity
  8
0
  6
Continuous
 62
     7
370
    15
100
AcDbLine
 10
94.2630881003
 20
141.0774847334
 30
0.0
 11
94.2630881003
 21
180.5774838156
 31
0.0
  0
LINE
  5
80
330
1F
100
AcDbEntity
  8
0
  6
Continuous
 62
     7
370
    15
100
AcDbLine
 10
94.2630881003
 20
81.5774833625
 30
0.0
 11
94.2630881003
 21
121.0774851805
 31
0.0
  0
LINE
  5
81
330
1F
100
AcDbEntity
  8
0
  6
Continuous
 62
     7
370
    15
100
AcDbLine
 10
94.2630881003
 20
180.5774838156
 30
0.0
 11
93.7630945376
 21
181.0774838394
 31
0.0
  0
LINE
  5
82
330
1F
100
AcDbEntity
  8
0
  6
Continuous
 62
     7
370
    15
100
AcDbLine
 10
59.7630852393
 20
181.0774838394
 30
0.0
 11
59.2630916766
 21
180.5774838156
 31
0.0
  0
LINE
  5
83
330
1F
100
AcDbEntity
  8
0
  6
Continuous
 62
     7
370
    15
100
AcDbLine
 10
59.2630916766
 20
81.5774833625
 30
0.0
 11
59.7630852393
 21
81.0774823493
 31
0.0
  0
LINE
  5
84
330
1F
100
AcDbEntity
  8
0
  6
Continuous
 62
     7
370
    15
100
AcDbLine
 10
93.7630945376
 20
81.0774823493
 30
0.0
 11
94.2630881003
 21
81.5774833625
 31
0.0
  0
LINE
  5
85
330
1F
100
AcDbEntity
  8
0
  6
Continuous
 62
     7
370
    15
100
AcDbLine
 10
214.2630928687
 20
180.5774838156
 30
0.0
 11
213.7630918554
 21
181.0774838394
 31
0.0
  0
LINE
  5
86
330
1F
100
AcDbEntity
  8
0
  6
Continuous
 62
     7
370
    15
100
AcDbLine
 10
179.7630900077
 20
181.0774838394
 30
0.0
 11
179.2630889944
 21
180.5774838156
 31
0.0
  0
LINE
  5
87
330
1F
100
AcDbEntity
  8
0
  6
Continuous
 62
     7
370
    15
100
AcDbLine
 10
179.2630889944
 20
121.0774851805
 30
0.0
 11
179.2630889944
 21
61.5774875349
 31
0.0
  0
LINE
  5
88
330
1F
100
AcDbEntity
  8
0
  6
Continuous
 62
     7
370
    15
100
AcDbLine
 10
179.2630889944
 20
180.5774838156
 30
0.0
 11
179.2630889944
 21
141.0774847334
 31
0.0
  0
LINE
  5
89
330
1F
100
AcDbEntity
  8
0
  6
Continuous
 62
     7
370
    15
100
AcDbLine
 10
214.2630928687
 20
141.0774847334
 30
0.0
 11
214.2630928687
 21
180.5774838156
 31
0.0
  0
LINE
  5
8A
330
1F
100
AcDbEntity
  8
0
  6
Continuous
 62
     7
370
    15
100
AcDbLine
 10
214.2630928687
 20
61.5774875349
 30
0.0
 11
214.2630928687
 21
121.0774851805
 31
0.0
  0
LINE
  5
8B
330
1F
100
AcDbEntity
  8
0
  6
Continuous
 62
     7
370
    15
100
AcDbLine
 10
179.2630889944
 20
61.5774875349
 30
0.0
 11
179.7630900077
 21
61.0774865216
 31
0.0
  0
LINE
  5
8C
330
1F
100
AcDbEntity
  8
0
  6
Continuous
 62
     7
370
    15
100
AcDbLine
 10
213.7630918554
 20
61.0774865216
 30
0.0
 11
214.2630928687
 21
61.5774875349
 31
0.0
  0
LINE
  5
8D
330
1F
100
AcDbEntity
  8
0
  6
Continuous
 62
     7
370
    15
100
AcDbLine
 10
189.2630943588
 20
61.0774865216
 30
0.0
 11
189.2630943588
 21
44.077489323
 31
0.0
  0
LINE
  5
8E
330
1F
100
AcDbEntity
  8
0
  6
Continuous
 62
     7
370
    15
100
AcDbLine
 10
204.2630949549
 20
44.077489323
 30
0.0
 11
204.2630949549
 21
61.0774865216
 31
0.0
  0
ARC
  5
8F
330
1F
100
AcDbEntity
  8
0
  6
Continuous
 62
     7
370
    15
100
AcDbCircle
 10
201.2630925735
 20
44.0774838394
 30
0.0
 40
3.0
100
AcDbArc
 50
270.0
 51
0.0
  0
ARC
  5
90
330
1F
100
AcDbEntity
  8
0
  6
Continuous
 62
     7
370
    15
100
AcDbCircle
 10
192.2630925735
 20
44.0774838394
 30
0.0
 40
3.0
100
AcDbArc
 50
180.0
 51
270.0
  0
LINE
  5
91
330
1F
100
AcDbEntity
  8
0
  6
Continuous
 62
     7
370
    15
100
AcDbLine
 10
54.7630900077
 20
133.2465743488
 30
0.0
 11
54.7630900077
 21
121.0774851805
 31
0.0
  0
LINE
  5
92
330
1F
100
AcDbEntity
  8
0
  6
Continuous
 62
     7
370
    15
100
AcDbLine
 10
54.7630900077
 20
141.0774847334
 30
0.0
 11
54.7630900077
 21
133.2465743488
 31
0.0
  0
LINE
  5
93
330
1F
100
AcDbEntity
  8
0
  6
Continuous
 62
     7
370
    15
100
AcDbLine
 10
218.7630908123
 20
133.2465743488
 30
0.0
 11
218.7630908123
 21
141.0774847334
 31
0.0
  0
LINE
  5
94
330
1F
100
AcDbEntity
  8
0
  6
Continuous
 62
     7
370
    15
100
AcDbLine
 10
218.7630908123
 20
121.0774851805
 30
0.0
 11
218.7630908123
 21
133.2465743488
 31
0.0
  0
LINE
  5
95
330
1F
100
AcDbEntity
  8
0
  6
Continuous
 62
     7
370
    15
100
AcDbLine
 10
54.263096445
 20
133.1381199723
 30
0.0
 11
54.263096445
 21
140.5774837202
 31
0.0
  0
LINE
  5
96
330
1F
100
AcDbEntity
  8
0
  6
Continuous
 62
     7
370
    15
100
AcDbLine
 10
54.263096445
 20
121.5774824685
 30
0.0
 11
54.263096445
 21
133.1381199723
 31
0.0
  0
LINE
  5
97
330
1F
100
AcDbEntity
  8
0
  6
Continuous
 62
     7
370
    15
100
AcDbLine
 10
219.2630918256
 20
133.1381199723
 30
0.0
 11
219.2630918256
 21
121.5774824685
 31
0.0
  0
LINE
  5
98
330
1F
100
AcDbEntity
  8
0
  6
Continuous
 62
     7
370
    15
100
AcDbLine
 10
219.2630918256
 20
140.5774837202
 30
0.0
 11
219.2630918256
 21
133.1381199723
 31
0.0
  0
LWPOLYLINE
  5
99
330
1F
100
AcDbEntity
  8
0
  6
Continuous
 62
     7
370
    15
100
AcDbPolyline
 90
       23
 70
   128
 43
0.0
 10
59.2632853917
 20
141.0771531826
 10
59.3251401118
 20
140.9684976405
 10
59.5134162835
 20
140.6326627201
 10
59.7981774739
 20
140.108462221
 10
60.1709747247
 20
139.3870150512
 10
60.6329256228
 20
138.4213341242
 10
61.129819744
 20
137.2540032333
 10
61.6420173577
 20
135.8100397354
 10
62.0768779448
 20
134.1490780777
 10
62.2998589209
 20
132.7907329267
 10
62.3992049626
 20
131.3447912997
 10
62.3558425835
 20
129.9291362828
 10
62.1731692485
 20
128.505334056
 10
61.8895703486
 20
127.2081544465
 10
61.5216904811
 20
125.9735373622
 10
61.0530191592
 20
124.7090993291
 10
60.5605506829
 20
123.5759964055
 10
60.0581133298
 20
122.5448136991
 10
59.6339815787
 20
121.7417156166
 10
59.3991243771
 20
121.3174944585
 10
59.2758917741
 20
121.0998928016
 10
59.2630916766
 20
121.0774851805
 10
59.2630916766
 20
121.0774851805
  0
LWPOLYLINE
  5
9A
330
1F
100
AcDbEntity
  8
0
  6
Continuous
 62
     7
370
    15
100
AcDbPolyline
 90
       23
 70
   128
 43
0.0
 10
94.2629092864
 20
121.0778167313
 10
94.2010396651
 20
121.1864685482
 10
94.0127783946
 20
121.5223034686
 10
93.7280172042
 20
122.0465039676
 10
93.3552050523
 20
122.7679511374
 10
92.8932541541
 20
123.7336357897
 10
92.3963749341
 20
124.9009666806
 10
91.8841773204
 20
126.3449301785
 10
91.4493018321
 20
128.0058918363
 10
91.2263357571
 20
129.3642369872
 10
91.1269897155
 20
130.8101748889
 10
91.1703371934
 20
132.2258299058
 10
91.3530254296
 20
133.6496321326
 10
91.6366094283
 20
134.9468117422
 10
92.0044892958
 20
136.1814325517
 10
92.4731606177
 20
137.4458705848
 10
92.965629094
 20
138.5789735085
 10
93.4680813483
 20
139.6101562148
 10
93.8922130994
 20
140.4132542974
 10
94.1270553998
 20
140.8374717301
 10
94.250302904
 20
141.0550771123
 10
94.2630881003
 20
141.0774847334
 10
94.2630881003
 20
141.0774847334
  0
LINE
  5
9B
330
1F
100
AcDbEntity
  8
0
  6
Continuous
 62
     7
370
    15
100
AcDbLine
 10
94.2630881003
 20
180.5774838156
 30
0.0
 11
59.2630916766
 21
180.5774838156
 31
0.0
  0
LINE
  5
9C
330
1F
100
AcDbEntity
  8
0
  6
Continuous
 62
     7
370
    15
100
AcDbLine
 10
59.2630916766
 20
81.5774833625
 30
0.0
 11
94.2630881003
 21
81.5774833625
 31
0.0
  0
LINE
  5
9D
330
1F
100
AcDbEntity
  8
0
  6
Continuous
 62
     7
370
    15
100
AcDbLine
 10
59.7630852393
 20
181.0774838394
 30
0.0
 11
93.7630945376
 21
181.0774838394
 31
0.0
  0
LINE
  5
9E
330
1F
100
AcDbEntity
  8
0
  6
Continuous
 62
     7
370
    15
100
AcDbLine
 10
93.7630945376
 20
81.0774823493
 30
0.0
 11
59.7630852393
 21
81.0774823493
 31
0.0
  0
LINE
  5
9F
330
1F
100
AcDbEntity
  8
0
  6
Continuous
 62
     7
370
    15
100
AcDbLine
 10
214.2630928687
 20
180.5774838156
 30
0.0
 11
179.2630889944
 21
180.5774838156
 31
0.0
  0
LINE
  5
A0
330
1F
100
AcDbEntity
  8
0
  6
Continuous
 62
     7
370
    15
100
AcDbLine
 10
179.7630900077
 20
181.0774838394
 30
0.0
 11
213.7630918554
 21
181.0774838394
 31
0.0
  0
LINE
  5
A1
330
1F
100
AcDbEntity
  8
0
  6
Continuous
 62
     7
370
    15
100
AcDbLine
 10
179.2630889944
 20
61.5774875349
 30
0.0
 11
214.2630928687
 21
61.5774875349
 31
0.0
  0
LWPOLYLINE
  5
A2
330
1F
100
AcDbEntity
  8
0
  6
Continuous
 62
     7
370
    15
100
AcDbPolyline
 90
       23
 70
   128
 43
0.0
 10
214.2629028789
 20
121.0778167313
 10
214.2010444335
 20
121.1864685482
 10
214.0127719871
 20
121.5223034686
 10
213.728014522
 20
122.0465039676
 10
213.3552098206
 20
122.7679511374
 10
212.8932514719
 20
123.7336357897
 10
212.3963722519
 20
124.9009666806
 10
211.8841746382
 20
126.3449301785
 10
211.4492991499
 20
128.0058918363
 10
211.2263330749
 20
129.3642369872
 10
211.1269870333
 20
130.8101748889
 10
211.1703345112
 20
132.2258299058
 10
211.3530152968
 20
133.6496321326
 10
211.6366141967
 20
134.9468117422
 10
212.0044940642
 20
136.1814325517
 10
212.4731653861
 20
137.4458705848
 10
212.9656338624
 20
138.5789735085
 10
213.4680749408
 20
139.6101562148
 10
213.8922066919
 20
140.4132542974
 10
214.1270601681
 20
140.8374717301
 10
214.2502964965
 20
141.0550771123
 10
214.2630928687
 20
141.0774847334
 10
214.2630928687
 20
141.0774847334
  0
LWPOLYLINE
  5
A3
330
1F
100
AcDbEntity
  8
0
  6
Continuous
 62
     7
370
    15
100
AcDbPolyline
 90
       23
 70
   128
 43
0.0
 10
179.2632827095
 20
141.0771531826
 10
179.3251374296
 20
140.9684976405
 10
179.5134136013
 20
140.6326627201
 10
179.7981673411
 20
140.108462221
 10
180.170979493
 20
139.3870150512
 10
180.6329303912
 20
138.4213341242
 10
181.1298170618
 20
137.2540032333
 10
181.6420146755
 20
135.8100397354
 10
182.0768827132
 20
134.1490780777
 10
182.2998562387
 20
132.7907329267
 10
182.3991948298
 20
131.3447912997
 10
182.3558473519
 20
129.9291362828
 10
182.1731665663
 20
128.505334056
 10
181.8895676664
 20
127.2081544465
 10
181.5216952494
 20
125.9735373622
 10
181.0530239276
 20
124.7090993291
 10
180.5605554513
 20
123.5759964055
 10
180.0581106476
 20
122.5448136991
 10
179.6339788965
 20
121.7417156166
 10
179.3991216949
 20
121.3174944585
 10
179.2758890919
 20
121.0998928016
 10
179.2630889944
 20
121.0774851805
 10
179.2630889944
 20
121.0774851805
  0
LINE
  5
A4
330
1F
100
AcDbEntity
  8
0
  6
Continuous
 62
     7
370
    15
100
AcDbLine
 10
213.7630918554
 20
61.0774865216
 30
0.0
 11
179.7630900077
 21
61.0774865216
 31
0.0
  0
LINE
  5
A5
330
1F
100
AcDbEntity
  8
0
  6
Continuous
 62
     7
370
    15
100
AcDbLine
 10
201.2630888752
 20
41.0774832433
 30
0.0
 11
192.2630929879
 21
41.0774832433
 31
0.0
  0
CIRCLE
  5
A6
330
1F
100
AcDbEntity
  8
0
  6
Continuous
 62
     7
370
    15
100
AcDbCircle
 10
76.7630925735
 20
156.0774838394
 30
0.0
 40
15.49999999999999
  0
CIRCLE
  5
A7
330
1F
100
AcDbEntity
  8
0
  6
Continuous
 62
     7
370
    15
100
AcDbCircle
 10
76.7630925735
 20
156.0774838394
 30
0.0
 40
17.50000000000002
  0
CIRCLE
  5
A8
330
1F
100
AcDbEntity
  8
0
  6
Continuous
 62
     7
370
    15
100
AcDbCircle
 10
196.7630925735
 20
156.0774838394
 30
0.0
 40
15.49999999999997
  0
CIRCLE
  5
A9
330
1F
100
AcDbEntity
  8
0
  6
Continuous
 62
     7
370
    15
100
AcDbCircle
 10
196.7630925735
 20
156.0774838394
 30
0.0
 40
17.49999999999997
  0
CIRCLE
  5
AA
330
1F
100
AcDbEntity
  8
0
  6
Continuous
 62
     7
370
    15
100
AcDbCircle
 10
76.7630925735
 20
106.0774838394
 30
0.0
 40
15.49999999999999
  0
CIRCLE
  5
AB
330
1F
100
AcDbEntity
  8
0
  6
Continuous
 62
     7
370
    15
100
AcDbCircle
 10
76.7630925735
 20
106.0774838394
 30
0.0
 40
17.50000000000001
  0
CIRCLE
  5
AC
330
1F
100
AcDbEntity
  8
0
  6
Continuous
 62
     7
370
    15
100
AcDbCircle
 10
196.7630925735
 20
106.0774838394
 30
0.0
 40
15.5
  0
CIRCLE
  5
AD
330
1F
100
AcDbEntity
  8
0
  6
Continuous
 62
     7
370
    15
100
AcDbCircle
 10
196.7630925735
 20
106.0774838394
 30
0.0
 40
17.49999999999998
  0
LINE
  5
AE
330
1F
100
AcDbEntity
  8
0
  6
Continuous
 62
     8
370
    15
100
AcDbLine
 10
189.2630943588
 20
44.077489323
 30
0.0
 11
204.2630949549
 21
44.077489323
 31
0.0
  0
LINE
  5
AF
330
1F
100
AcDbEntity
  8
0
  6
Continuous
 62
     7
370
    15
100
AcDbLine
 10
54.7630900077
 20
275.1612091999
 30
0.0
 11
54.263096445
 21
274.6612081866
 31
0.0
  0
LINE
  5
B0
330
1F
100
AcDbEntity
  8
0
  6
Continuous
 62
     7
370
    15
100
AcDbLine
 10
54.263096445
 20
255.6612069349
 30
0.0
 11
54.7630900077
 21
255.1612059216
 31
0.0
  0
LINE
  5
B1
330
1F
100
AcDbEntity
  8
0
  6
Continuous
 62
     7
370
    15
100
AcDbLine
 10
54.7630900077
 20
255.1612059216
 30
0.0
 11
62.4016785554
 21
255.1612059216
 31
0.0
  0
LINE
  5
B2
330
1F
100
AcDbEntity
  8
0
  6
Continuous
 62
     7
370
    15
100
AcDbLine
 10
91.1245012215
 20
255.1612059216
 30
0.0
 11
182.4016833237
 21
255.1612059216
 31
0.0
  0
LINE
  5
B3
330
1F
100
AcDbEntity
  8
0
  6
Continuous
 62
     7
370
    15
100
AcDbLine
 10
211.1244985393
 20
255.1612059216
 30
0.0
 11
218.7630908123
 21
255.1612059216
 31
0.0
  0
LINE
  5
B4
330
1F
100
AcDbEntity
  8
0
  6
Continuous
 62
     7
370
    15
100
AcDbLine
 10
218.7630908123
 20
275.1612091999
 30
0.0
 11
211.1244985393
 21
275.1612091999
 31
0.0
  0
LINE
  5
B5
330
1F
100
AcDbEntity
  8
0
  6
Continuous
 62
     7
370
    15
100
AcDbLine
 10
182.4016833237
 20
275.1612091999
 30
0.0
 11
91.1245012215
 21
275.1612091999
 31
0.0
  0
LINE
  5
B6
330
1F
100
AcDbEntity
  8
0
  6
Continuous
 62
     7
370
    15
100
AcDbLine
 10
62.4016785554
 20
275.1612091999
 30
0.0
 11
54.7630900077
 21
275.1612091999
 31
0.0
  0
LINE
  5
B7
330
1F
100
AcDbEntity
  8
0
  6
Continuous
 62
     7
370
    15
100
AcDbLine
 10
218.7630908123
 20
255.1612059216
 30
0.0
 11
219.2630918256
 21
255.6612069349
 31
0.0
  0
LINE
  5
B8
330
1F
100
AcDbEntity
  8
0
  6
Continuous
 62
     7
370
    15
100
AcDbLine
 10
219.2630918256
 20
274.6612081866
 30
0.0
 11
218.7630908123
 21
275.1612091999
 31
0.0
  0
LINE
  5
B9
330
1F
100
AcDbEntity
  8
0
  6
Continuous
 62
     7
370
    15
100
AcDbLine
 10
94.2630881003
 20
232.4612090926
 30
0.0
 11
94.0630996159
 21
232.6612087528
 31
0.0
  0
LINE
  5
BA
330
1F
100
AcDbEntity
  8
0
  6
Continuous
 62
     7
370
    15
100
AcDbLine
 10
59.4630950621
 20
232.6612087528
 30
0.0
 11
59.2630916766
 21
232.4612090926
 31
0.0
  0
LINE
  5
BB
330
1F
100
AcDbEntity
  8
0
  6
Continuous
 62
     7
370
    15
100
AcDbLine
 10
94.2630881003
 20
231.6612104516
 30
0.0
 11
94.2630881003
 21
232.4612090926
 31
0.0
  0
LINE
  5
BC
330
1F
100
AcDbEntity
  8
0
  6
Continuous
 62
     7
370
    15
100
AcDbLine
 10
59.2630916766
 20
232.4612090926
 30
0.0
 11
59.2630916766
 21
231.6612104516
 31
0.0
  0
LINE
  5
BD
330
1F
100
AcDbEntity
  8
0
  6
Continuous
 62
     7
370
    15
100
AcDbLine
 10
59.2630916766
 20
231.6612104516
 30
0.0
 11
61.2630957297
 21
229.6612101237
 31
0.0
  0
LINE
  5
BE
330
1F
100
AcDbEntity
  8
0
  6
Continuous
 62
     7
370
    15
100
AcDbLine
 10
92.2630989484
 20
229.6612101237
 30
0.0
 11
94.2630881003
 21
231.6612104516
 31
0.0
  0
LINE
  5
BF
330
1F
100
AcDbEntity
  8
0
  6
Continuous
 62
     7
370
    15
100
AcDbLine
 10
84.7630911998
 20
237.6612077097
 30
0.0
 11
84.7630911998
 21
239.6612117629
 31
0.0
  0
LINE
  5
C0
330
1F
100
AcDbEntity
  8
0
  6
Continuous
 62
     7
370
    15
100
AcDbLine
 10
68.7630885772
 20
239.6612117629
 30
0.0
 11
68.7630885772
 21
237.6612077097
 31
0.0
  0
LINE
  5
C1
330
1F
100
AcDbEntity
  8
0
  6
Continuous
 62
     7
370
    15
100
AcDbLine
 10
214.2630928687
 20
232.4612090926
 30
0.0
 11
214.0630932084
 21
232.6612087528
 31
0.0
  0
LINE
  5
C2
330
1F
100
AcDbEntity
  8
0
  6
Continuous
 62
     7
370
    15
100
AcDbLine
 10
179.4630923799
 20
232.6612087528
 30
0.0
 11
179.2630889944
 21
232.4612090926
 31
0.0
  0
LINE
  5
C3
330
1F
100
AcDbEntity
  8
0
  6
Continuous
 62
     7
370
    15
100
AcDbLine
 10
214.2630928687
 20
231.6612104516
 30
0.0
 11
214.2630928687
 21
232.4612090926
 31
0.0
  0
LINE
  5
C4
330
1F
100
AcDbEntity
  8
0
  6
Continuous
 62
     7
370
    15
100
AcDbLine
 10
179.2630889944
 20
232.4612090926
 30
0.0
 11
179.2630889944
 21
231.6612104516
 31
0.0
  0
LINE
  5
C5
330
1F
100
AcDbEntity
  8
0
  6
Continuous
 62
     7
370
    15
100
AcDbLine
 10
179.2630889944
 20
231.6612104516
 30
0.0
 11
181.2630930475
 21
229.6612101237
 31
0.0
  0
LINE
  5
C6
330
1F
100
AcDbEntity
  8
0
  6
Continuous
 62
     7
370
    15
100
AcDbLine
 10
212.2630962662
 20
229.6612101237
 30
0.0
 11
214.2630928687
 21
231.6612104516
 31
0.0
  0
LINE
  5
C7
330
1F
100
AcDbEntity
  8
0
  6
Continuous
 62
     7
370
    15
100
AcDbLine
 10
204.7630959681
 20
237.6612077097
 30
0.0
 11
204.7630959681
 21
239.6612117629
 31
0.0
  0
LINE
  5
C8
330
1F
100
AcDbEntity
  8
0
  6
Continuous
 62
     7
370
    15
100
AcDbLine
 10
188.7630933455
 20
239.6612117629
 30
0.0
 11
188.7630933455
 21
237.6612077097
 31
0.0
  0
LINE
  5
C9
330
1F
100
AcDbEntity
  8
0
  6
Continuous
 62
     7
370
    15
100
AcDbLine
 10
59.2630916766
 20
244.6612069945
 30
0.0
 11
59.2630916766
 21
243.6612124185
 31
0.0
  0
LINE
  5
CA
330
1F
100
AcDbEntity
  8
0
  6
Continuous
 62
     7
370
    15
100
AcDbLine
 10
94.2630881003
 20
243.6612124185
 30
0.0
 11
94.2630881003
 21
244.6612069945
 31
0.0
  0
LINE
  5
CB
330
1F
100
AcDbEntity
  8
0
  6
Continuous
 62
     7
370
    15
100
AcDbLine
 10
66.7630994252
 20
243.6612124185
 30
0.0
 11
66.7630994252
 21
239.6612117629
 31
0.0
  0
LINE
  5
CC
330
1F
100
AcDbEntity
  8
0
  6
Continuous
 62
     7
370
    15
100
AcDbLine
 10
86.7630952529
 20
239.6612117629
 30
0.0
 11
86.7630952529
 21
243.6612124185
 31
0.0
  0
LINE
  5
CD
330
1F
100
AcDbEntity
  8
0
  6
Continuous
 62
     7
370
    15
100
AcDbLine
 10
214.2630928687
 20
232.6612087528
 30
0.0
 11
214.2630928687
 21
233.6612107794
 31
0.0
  0
LINE
  5
CE
330
1F
100
AcDbEntity
  8
0
  6
Continuous
 62
     7
370
    15
100
AcDbLine
 10
179.2630889944
 20
233.6612107794
 30
0.0
 11
179.2630889944
 21
232.6612087528
 31
0.0
  0
LINE
  5
CF
330
1F
100
AcDbEntity
  8
0
  6
Continuous
 62
     7
370
    15
100
AcDbLine
 10
206.7630925707
 20
233.6612107794
 30
0.0
 11
206.7630925707
 21
237.6612077097
 31
0.0
  0
LINE
  5
D0
330
1F
100
AcDbEntity
  8
0
  6
Continuous
 62
     7
370
    15
100
AcDbLine
 10
186.7630892924
 20
237.6612077097
 30
0.0
 11
186.7630892924
 21
233.6612107794
 31
0.0
  0
LINE
  5
D1
330
1F
100
AcDbEntity
  8
0
  6
Continuous
 62
     7
370
    15
100
AcDbLine
 10
94.2630881003
 20
232.6612087528
 30
0.0
 11
94.2630881003
 21
233.6612107794
 31
0.0
  0
LINE
  5
D2
330
1F
100
AcDbEntity
  8
0
  6
Continuous
 62
     7
370
    15
100
AcDbLine
 10
59.2630916766
 20
233.6612107794
 30
0.0
 11
59.2630916766
 21
232.6612087528
 31
0.0
  0
LINE
  5
D3
330
1F
100
AcDbEntity
  8
0
  6
Continuous
 62
     7
370
    15
100
AcDbLine
 10
86.7630952529
 20
233.6612107794
 30
0.0
 11
86.7630952529
 21
237.6612077097
 31
0.0
  0
LINE
  5
D4
330
1F
100
AcDbEntity
  8
0
  6
Continuous
 62
     7
370
    15
100
AcDbLine
 10
66.7630994252
 20
237.6612077097
 30
0.0
 11
66.7630994252
 21
233.6612107794
 31
0.0
  0
LINE
  5
D5
330
1F
100
AcDbEntity
  8
0
  6
Continuous
 62
     7
370
    15
100
AcDbLine
 10
179.2630889944
 20
244.6612069945
 30
0.0
 11
179.2630889944
 21
243.6612124185
 31
0.0
  0
LINE
  5
D6
330
1F
100
AcDbEntity
  8
0
  6
Continuous
 62
     7
370
    15
100
AcDbLine
 10
214.2630928687
 20
243.6612124185
 30
0.0
 11
214.2630928687
 21
244.6612069945
 31
0.0
  0
LINE
  5
D7
330
1F
100
AcDbEntity
  8
0
  6
Continuous
 62
     7
370
    15
100
AcDbLine
 10
186.7630892924
 20
243.6612124185
 30
0.0
 11
186.7630892924
 21
239.6612117629
 31
0.0
  0
LINE
  5
D8
330
1F
100
AcDbEntity
  8
0
  6
Continuous
 62
     7
370
    15
100
AcDbLine
 10
206.7630925707
 20
239.6612117629
 30
0.0
 11
206.7630925707
 21
243.6612124185
 31
0.0
  0
LINE
  5
D9
330
1F
100
AcDbEntity
  8
0
  6
Continuous
 62
     7
370
    15
100
AcDbLine
 10
94.2630881003
 20
244.6612069945
 30
0.0
 11
94.2630881003
 21
246.6612110476
 31
0.0
  0
LINE
  5
DA
330
1F
100
AcDbEntity
  8
0
  6
Continuous
 62
     7
370
    15
100
AcDbLine
 10
59.2630916766
 20
246.6612110476
 30
0.0
 11
59.2630916766
 21
244.6612069945
 31
0.0
  0
LINE
  5
DB
330
1F
100
AcDbEntity
  8
0
  6
Continuous
 62
     7
370
    15
100
AcDbLine
 10
84.2630976371
 20
246.6612110476
 30
0.0
 11
84.2630976371
 21
249.3498201112
 31
0.0
  0
LINE
  5
DC
330
1F
100
AcDbEntity
  8
0
  6
Continuous
 62
     7
370
    15
100
AcDbLine
 10
69.263097041
 20
249.3498201112
 30
0.0
 11
69.263097041
 21
246.6612110476
 31
0.0
  0
LINE
  5
DD
330
1F
100
AcDbEntity
  8
0
  6
Continuous
 62
     7
370
    15
100
AcDbLine
 10
214.2630928687
 20
244.6612069945
 30
0.0
 11
214.2630928687
 21
246.6612110476
 31
0.0
  0
LINE
  5
DE
330
1F
100
AcDbEntity
  8
0
  6
Continuous
 62
     7
370
    15
100
AcDbLine
 10
179.2630889944
 20
246.6612110476
 30
0.0
 11
179.2630889944
 21
244.6612069945
 31
0.0
  0
LINE
  5
DF
330
1F
100
AcDbEntity
  8
0
  6
Continuous
 62
     7
370
    15
100
AcDbLine
 10
204.2630949549
 20
246.6612110476
 30
0.0
 11
204.2630949549
 21
249.3498201112
 31
0.0
  0
LINE
  5
E0
330
1F
100
AcDbEntity
  8
0
  6
Continuous
 62
     7
370
    15
100
AcDbLine
 10
189.2630943588
 20
249.3498201112
 30
0.0
 11
189.2630943588
 21
246.6612110476
 31
0.0
  0
ARC
  5
E1
330
1F
100
AcDbEntity
  8
0
  6
Continuous
 62
     7
370
    15
100
AcDbCircle
 10
191.0630925735
 20
282.8612094966
 30
0.0
 40
0.799999999999983
100
AcDbArc
 50
90.0
 51
180.0
  0
ARC
  5
E2
330
1F
100
AcDbEntity
  8
0
  6
Continuous
 62
     7
370
    15
100
AcDbCircle
 10
202.4630925735
 20
282.8612094966
 30
0.0
 40
0.8000000000000114
100
AcDbArc
 50
0.0
 51
90.0
  0
LINE
  5
E3
330
1F
100
AcDbEntity
  8
0
  6
Continuous
 62
     7
370
    15
100
AcDbLine
 10
190.2630889348
 20
282.8612128834
 30
0.0
 11
190.2630889348
 21
281.4092884402
 31
0.0
  0
LINE
  5
E4
330
1F
100
AcDbEntity
  8
0
  6
Continuous
 62
     7
370
    15
100
AcDbLine
 10
203.2630929283
 20
281.4092884402
 30
0.0
 11
203.2630929283
 21
282.8612128834
 31
0.0
  0
ARC
  5
E5
330
1F
100
AcDbEntity
  8
0
  6
Continuous
 62
     7
370
    15
100
AcDbCircle
 10
71.0630925735
 20
282.8612094966
 30
0.0
 40
0.7999999999999972
100
AcDbArc
 50
90.0
 51
180.0
  0
ARC
  5
E6
330
1F
100
AcDbEntity
  8
0
  6
Continuous
 62
     7
370
    15
100
AcDbCircle
 10
82.4630925735
 20
282.8612094966
 30
0.0
 40
0.8000000000000114
100
AcDbArc
 50
0.0
 51
90.0
  0
LINE
  5
E7
330
1F
100
AcDbEntity
  8
0
  6
Continuous
 62
     7
370
    15
100
AcDbLine
 10
70.2630990676
 20
282.8612128834
 30
0.0
 11
70.2630990676
 21
281.4092884402
 31
0.0
  0
LINE
  5
E8
330
1F
100
AcDbEntity
  8
0
  6
Continuous
 62
     7
370
    15
100
AcDbLine
 10
83.2630956105
 20
281.4092884402
 30
0.0
 11
83.2630956105
 21
282.8612128834
 31
0.0
  0
LINE
  5
E9
330
1F
100
AcDbEntity
  8
0
  6
Continuous
 62
     7
370
    15
100
AcDbLine
 10
54.7630900077
 20
255.3992892246
 30
0.0
 11
54.7630900077
 21
255.1612059216
 31
0.0
  0
LINE
  5
EA
330
1F
100
AcDbEntity
  8
0
  6
Continuous
 62
     7
370
    15
100
AcDbLine
 10
54.7630900077
 20
275.1612091999
 30
0.0
 11
54.7630900077
 21
255.3992892246
 31
0.0
  0
LINE
  5
EB
330
1F
100
AcDbEntity
  8
0
  6
Continuous
 62
     7
370
    15
100
AcDbLine
 10
54.263096445
 20
255.8873842101
 30
0.0
 11
54.263096445
 21
274.6612081866
 31
0.0
  0
LINE
  5
EC
330
1F
100
AcDbEntity
  8
0
  6
Continuous
 62
     7
370
    15
100
AcDbLine
 10
54.263096445
 20
255.6612069349
 30
0.0
 11
54.263096445
 21
255.8873842101
 31
0.0
  0
LINE
  5
ED
330
1F
100
AcDbEntity
  8
0
  6
Continuous
 62
     7
370
    15
100
AcDbLine
 10
218.7630908123
 20
255.3992892246
 30
0.0
 11
218.7630908123
 21
275.1612091999
 31
0.0
  0
LINE
  5
EE
330
1F
100
AcDbEntity
  8
0
  6
Continuous
 62
     7
370
    15
100
AcDbLine
 10
218.7630908123
 20
255.1612059216
 30
0.0
 11
218.7630908123
 21
255.3992892246
 31
0.0
  0
LINE
  5
EF
330
1F
100
AcDbEntity
  8
0
  6
Continuous
 62
     7
370
    15
100
AcDbLine
 10
219.2630918256
 20
255.8873842101
 30
0.0
 11
219.2630918256
 21
255.6612069349
 31
0.0
  0
LINE
  5
F0
330
1F
100
AcDbEntity
  8
0
  6
Continuous
 62
     7
370
    15
100
AcDbLine
 10
219.2630918256
 20
274.6612081866
 30
0.0
 11
219.2630918256
 21
255.8873842101
 31
0.0
  0
CIRCLE
  5
F1
330
1F
100
AcDbEntity
  8
0
  6
Continuous
 62
     7
370
    15
100
AcDbCircle
 10
76.7630925735
 20
265.1612094966
 30
0.0
 40
17.50000000000001
  0
CIRCLE
  5
F2
330
1F
100
AcDbEntity
  8
0
  6
Continuous
 62
     7
370
    15
100
AcDbCircle
 10
76.7630925735
 20
265.1612094966
 30
0.0
 40
16.99999999999999
  0
CIRCLE
  5
F3
330
1F
100
AcDbEntity
  8
0
  6
Continuous
 62
     7
370
    15
100
AcDbCircle
 10
196.7630925735
 20
265.1612094966
 30
0.0
 40
17.50000000000003
  0
CIRCLE
  5
F4
330
1F
100
AcDbEntity
  8
0
  6
Continuous
 62
     7
370
    15
100
AcDbCircle
 10
196.7630925735
 20
265.1612094966
 30
0.0
 40
17.0
  0
LINE
  5
F5
330
1F
100
AcDbEntity
  8
0
  6
Continuous
 62
     7
370
    15
100
AcDbLine
 10
94.2630881003
 20
232.4612090926
 30
0.0
 11
59.2630916766
 21
232.4612090926
 31
0.0
  0
LINE
  5
F6
330
1F
100
AcDbEntity
  8
0
  6
Continuous
 62
     7
370
    15
100
AcDbLine
 10
59.2630916766
 20
231.6612104516
 30
0.0
 11
94.2630881003
 21
231.6612104516
 31
0.0
  0
LINE
  5
F7
330
1F
100
AcDbEntity
  8
0
  6
Continuous
 62
     7
370
    15
100
AcDbLine
 10
92.2630989484
 20
229.6612101237
 30
0.0
 11
61.2630957297
 21
229.6612101237
 31
0.0
  0
LINE
  5
F8
330
1F
100
AcDbEntity
  8
0
  6
Continuous
 62
     7
370
    15
100
AcDbLine
 10
214.2630928687
 20
232.4612090926
 30
0.0
 11
179.2630889944
 21
232.4612090926
 31
0.0
  0
LINE
  5
F9
330
1F
100
AcDbEntity
  8
0
  6
Continuous
 62
     7
370
    15
100
AcDbLine
 10
179.2630889944
 20
231.6612104516
 30
0.0
 11
214.2630928687
 21
231.6612104516
 31
0.0
  0
LINE
  5
FA
330
1F
100
AcDbEntity
  8
0
  6
Continuous
 62
     7
370
    15
100
AcDbLine
 10
212.2630962662
 20
229.6612101237
 30
0.0
 11
181.2630930475
 21
229.6612101237
 31
0.0
  0
LINE
  5
FB
330
1F
100
AcDbEntity
  8
0
  6
Continuous
 62
     7
370
    15
100
AcDbLine
 10
59.2630916766
 20
243.6612124185
 30
0.0
 11
94.2630881003
 21
243.6612124185
 31
0.0
  0
LINE
  5
FC
330
1F
100
AcDbEntity
  8
0
  6
Continuous
 62
     7
370
    15
100
AcDbLine
 10
59.2630916766
 20
244.6612069945
 30
0.0
 11
94.2630881003
 21
244.6612069945
 31
0.0
  0
LINE
  5
FD
330
1F
100
AcDbEntity
  8
0
  6
Continuous
 62
     7
370
    15
100
AcDbLine
 10
66.7630994252
 20
239.6612117629
 30
0.0
 11
86.7630952529
 21
239.6612117629
 31
0.0
  0
LINE
  5
FE
330
1F
100
AcDbEntity
  8
0
  6
Continuous
 62
     7
370
    15
100
AcDbLine
 10
214.2630928687
 20
233.6612107794
 30
0.0
 11
179.2630889944
 21
233.6612107794
 31
0.0
  0
LINE
  5
FF
330
1F
100
AcDbEntity
  8
0
  6
Continuous
 62
     7
370
    15
100
AcDbLine
 10
214.2630928687
 20
232.6612087528
 30
0.0
 11
179.2630889944
 21
232.6612087528
 31
0.0
  0
LINE
  5
100
330
1F
100
AcDbEntity
  8
0
  6
Continuous
 62
     7
370
    15
100
AcDbLine
 10
206.7630925707
 20
237.6612077097
 30
0.0
 11
186.7630892924
 21
237.6612077097
 31
0.0
  0
LINE
  5
101
330
1F
100
AcDbEntity
  8
0
  6
Continuous
 62
     7
370
    15
100
AcDbLine
 10
94.2630881003
 20
232.6612087528
 30
0.0
 11
59.2630916766
 21
232.6612087528
 31
0.0
  0
LINE
  5
102
330
1F
100
AcDbEntity
  8
0
  6
Continuous
 62
     7
370
    15
100
AcDbLine
 10
94.2630881003
 20
233.6612107794
 30
0.0
 11
59.2630916766
 21
233.6612107794
 31
0.0
  0
LINE
  5
103
330
1F
100
AcDbEntity
  8
0
  6
Continuous
 62
     7
370
    15
100
AcDbLine
 10
86.7630952529
 20
237.6612077097
 30
0.0
 11
66.7630994252
 21
237.6612077097
 31
0.0
  0
LINE
  5
104
330
1F
100
AcDbEntity
  8
0
  6
Continuous
 62
     7
370
    15
100
AcDbLine
 10
197.0474460653
 20
243.6612124185
 30
0.0
 11
214.2630928687
 21
243.6612124185
 31
0.0
  0
LINE
  5
105
330
1F
100
AcDbEntity
  8
0
  6
Continuous
 62
     7
370
    15
100
AcDbLine
 10
179.2630889944
 20
243.6612124185
 30
0.0
 11
197.0474460653
 21
243.6612124185
 31
0.0
  0
LINE
  5
106
330
1F
100
AcDbEntity
  8
0
  6
Continuous
 62
     7
370
    15
100
AcDbLine
 10
197.0474460653
 20
244.6612069945
 30
0.0
 11
214.2630928687
 21
244.6612069945
 31
0.0
  0
LINE
  5
107
330
1F
100
AcDbEntity
  8
0
  6
Continuous
 62
     7
370
    15
100
AcDbLine
 10
179.2630889944
 20
244.6612069945
 30
0.0
 11
197.0474460653
 21
244.6612069945
 31
0.0
  0
LINE
  5
108
330
1F
100
AcDbEntity
  8
0
  6
Continuous
 62
     7
370
    15
100
AcDbLine
 10
196.9255843691
 20
239.6612117629
 30
0.0
 11
206.7630925707
 21
239.6612117629
 31
0.0
  0
LINE
  5
109
330
1F
100
AcDbEntity
  8
0
  6
Continuous
 62
     7
370
    15
100
AcDbLine
 10
186.7630892924
 20
239.6612117629
 30
0.0
 11
196.9255843691
 21
239.6612117629
 31
0.0
  0
LINE
  5
10A
330
1F
100
AcDbEntity
  8
0
  6
Continuous
 62
     7
370
    15
100
AcDbLine
 10
94.2630881003
 20
246.6612110476
 30
0.0
 11
59.2630916766
 21
246.6612110476
 31
0.0
  0
LINE
  5
10B
330
1F
100
AcDbEntity
  8
0
  6
Continuous
 62
     7
370
    15
100
AcDbLine
 10
190.6607860259
 20
244.6612069945
 30
0.0
 11
179.2630889944
 21
244.6612069945
 31
0.0
  0
LINE
  5
10C
330
1F
100
AcDbEntity
  8
0
  6
Continuous
 62
     7
370
    15
100
AcDbLine
 10
214.2630928687
 20
244.6612069945
 30
0.0
 11
190.6607860259
 21
244.6612069945
 31
0.0
  0
LINE
  5
10D
330
1F
100
AcDbEntity
  8
0
  6
Continuous
 62
     7
370
    15
100
AcDbLine
 10
190.6607860259
 20
246.6612110476
 30
0.0
 11
179.2630889944
 21
246.6612110476
 31
0.0
  0
LINE
  5
10E
330
1F
100
AcDbEntity
  8
0
  6
Continuous
 62
     7
370
    15
100
AcDbLine
 10
214.2630928687
 20
246.6612110476
 30
0.0
 11
190.6607860259
 21
246.6612110476
 31
0.0
  0
LINE
  5
10F
330
1F
100
AcDbEntity
  8
0
  6
Continuous
 62
     7
370
    15
100
AcDbLine
 10
191.0630950264
 20
283.6612115244
 30
0.0
 11
202.462975078
 21
283.6612115244
 31
0.0
  0
LINE
  5
110
330
1F
100
AcDbEntity
  8
0
  6
Continuous
 62
     7
370
    15
100
AcDbLine
 10
71.0630977086
 20
283.6612115244
 30
0.0
 11
82.4630969695
 21
283.6612115244
 31
0.0
  0
LINE
  5
111
330
1F
100
AcDbEntity
  8
0
  6
Continuous
 62
     8
370
    15
100
AcDbLine
 10
203.2629588178
 20
282.8612128834
 30
0.0
 11
190.2630889348
 21
282.8612128834
 31
0.0
  0
LINE
  5
112
330
1F
100
AcDbEntity
  8
0
  6
Continuous
 62
     8
370
    15
100
AcDbLine
 10
83.2630956105
 20
282.8612128834
 30
0.0
 11
70.2630990676
 21
282.8612128834
 31
0.0
  0
LINE
  5
113
330
1F
100
AcDbEntity
  8
0
  6
Continuous
 62
     7
370
    15
100
AcDbLine
 10
218.7630908123
 20
-56.5776986525
 30
0.0
 11
219.2630918256
 21
-56.0776976393
 31
0.0
  0
LINE
  5
114
330
1F
100
AcDbEntity
  8
0
  6
Continuous
 62
     7
370
    15
100
AcDbLine
 10
219.2630918256
 20
-37.0776963876
 30
0.0
 11
218.7630908123
 21
-36.5776953743
 31
0.0
  0
LINE
  5
115
330
1F
100
AcDbEntity
  8
0
  6
Continuous
 62
     7
370
    15
100
AcDbLine
 10
54.7630900077
 20
-56.5776986525
 30
0.0
 11
62.4016785554
 21
-56.5776986525
 31
0.0
  0
LINE
  5
116
330
1F
100
AcDbEntity
  8
0
  6
Continuous
 62
     7
370
    15
100
AcDbLine
 10
91.1245012215
 20
-56.5776986525
 30
0.0
 11
182.4016833237
 21
-56.5776986525
 31
0.0
  0
LINE
  5
117
330
1F
100
AcDbEntity
  8
0
  6
Continuous
 62
     7
370
    15
100
AcDbLine
 10
211.1244985393
 20
-56.5776986525
 30
0.0
 11
218.7630908123
 21
-56.5776986525
 31
0.0
  0
LINE
  5
118
330
1F
100
AcDbEntity
  8
0
  6
Continuous
 62
     7
370
    15
100
AcDbLine
 10
218.7630908123
 20
-36.5776953743
 30
0.0
 11
211.1244985393
 21
-36.5776953743
 31
0.0
  0
LINE
  5
119
330
1F
100
AcDbEntity
  8
0
  6
Continuous
 62
     7
370
    15
100
AcDbLine
 10
182.4016833237
 20
-36.5776953743
 30
0.0
 11
91.1245012215
 21
-36.5776953743
 31
0.0
  0
LINE
  5
11A
330
1F
100
AcDbEntity
  8
0
  6
Continuous
 62
     7
370
    15
100
AcDbLine
 10
62.4016785554
 20
-36.5776953743
 30
0.0
 11
54.7630900077
 21
-36.5776953743
 31
0.0
  0
LINE
  5
11B
330
1F
100
AcDbEntity
  8
0
  6
Continuous
 62
     7
370
    15
100
AcDbLine
 10
54.7630900077
 20
-36.5776953743
 30
0.0
 11
54.263096445
 21
-37.0776963876
 31
0.0
  0
LINE
  5
11C
330
1F
100
AcDbEntity
  8
0
  6
Continuous
 62
     7
370
    15
100
AcDbLine
 10
54.263096445
 20
-56.0776976393
 30
0.0
 11
54.7630900077
 21
-56.5776986525
 31
0.0
  0
LINE
  5
11D
330
1F
100
AcDbEntity
  8
0
  6
Continuous
 62
     7
370
    15
100
AcDbLine
 10
59.2630916766
 20
-13.8776985453
 30
0.0
 11
59.4630950621
 21
-14.0776982055
 31
0.0
  0
LINE
  5
11E
330
1F
100
AcDbEntity
  8
0
  6
Continuous
 62
     7
370
    15
100
AcDbLine
 10
94.0630996159
 20
-14.0776982055
 30
0.0
 11
94.2630881003
 21
-13.8776985453
 31
0.0
  0
LINE
  5
11F
330
1F
100
AcDbEntity
  8
0
  6
Continuous
 62
     7
370
    15
100
AcDbLine
 10
59.2630916766
 20
-13.0776999042
 30
0.0
 11
59.2630916766
 21
-13.8776985453
 31
0.0
  0
LINE
  5
120
330
1F
100
AcDbEntity
  8
0
  6
Continuous
 62
     7
370
    15
100
AcDbLine
 10
94.2630881003
 20
-13.8776985453
 30
0.0
 11
94.2630881003
 21
-13.0776999042
 31
0.0
  0
LINE
  5
121
330
1F
100
AcDbEntity
  8
0
  6
Continuous
 62
     7
370
    15
100
AcDbLine
 10
94.2630881003
 20
-13.0776999042
 30
0.0
 11
92.2630989484
 21
-11.0776995764
 31
0.0
  0
LINE
  5
122
330
1F
100
AcDbEntity
  8
0
  6
Continuous
 62
     7
370
    15
100
AcDbLine
 10
61.2630957297
 20
-11.0776995764
 30
0.0
 11
59.2630916766
 21
-13.0776999042
 31
0.0
  0
LINE
  5
123
330
1F
100
AcDbEntity
  8
0
  6
Continuous
 62
     7
370
    15
100
AcDbLine
 10
68.7630885772
 20
-19.0776971624
 30
0.0
 11
68.7630885772
 21
-21.0777012155
 31
0.0
  0
LINE
  5
124
330
1F
100
AcDbEntity
  8
0
  6
Continuous
 62
     7
370
    15
100
AcDbLine
 10
84.7630911998
 20
-21.0777012155
 30
0.0
 11
84.7630911998
 21
-19.0776971624
 31
0.0
  0
LINE
  5
125
330
1F
100
AcDbEntity
  8
0
  6
Continuous
 62
     7
370
    15
100
AcDbLine
 10
214.2630928687
 20
-13.0776999042
 30
0.0
 11
212.2630962662
 21
-11.0776995764
 31
0.0
  0
LINE
  5
126
330
1F
100
AcDbEntity
  8
0
  6
Continuous
 62
     7
370
    15
100
AcDbLine
 10
181.2630930475
 20
-11.0776995764
 30
0.0
 11
179.2630889944
 21
-13.0776999042
 31
0.0
  0
LINE
  5
127
330
1F
100
AcDbEntity
  8
0
  6
Continuous
 62
     7
370
    15
100
AcDbLine
 10
179.2630889944
 20
-13.0776999042
 30
0.0
 11
179.2630889944
 21
-13.8776985453
 31
0.0
  0
LINE
  5
128
330
1F
100
AcDbEntity
  8
0
  6
Continuous
 62
     7
370
    15
100
AcDbLine
 10
214.2630928687
 20
-13.8776985453
 30
0.0
 11
214.2630928687
 21
-13.0776999042
 31
0.0
  0
LINE
  5
129
330
1F
100
AcDbEntity
  8
0
  6
Continuous
 62
     7
370
    15
100
AcDbLine
 10
179.2630889944
 20
-13.8776985453
 30
0.0
 11
179.4630923799
 21
-14.0776982055
 31
0.0
  0
LINE
  5
12A
330
1F
100
AcDbEntity
  8
0
  6
Continuous
 62
     7
370
    15
100
AcDbLine
 10
214.0630932084
 20
-14.0776982055
 30
0.0
 11
214.2630928687
 21
-13.8776985453
 31
0.0
  0
LINE
  5
12B
330
1F
100
AcDbEntity
  8
0
  6
Continuous
 62
     7
370
    15
100
AcDbLine
 10
188.7630933455
 20
-19.0776971624
 30
0.0
 11
188.7630933455
 21
-21.0777012155
 31
0.0
  0
LINE
  5
12C
330
1F
100
AcDbEntity
  8
0
  6
Continuous
 62
     7
370
    15
100
AcDbLine
 10
204.7630959681
 20
-21.0777012155
 30
0.0
 11
204.7630959681
 21
-19.0776971624
 31
0.0
  0
LINE
  5
12D
330
1F
100
AcDbEntity
  8
0
  6
Continuous
 62
     7
370
    15
100
AcDbLine
 10
59.2630916766
 20
-14.0776982055
 30
0.0
 11
59.2630916766
 21
-15.0777002321
 31
0.0
  0
LINE
  5
12E
330
1F
100
AcDbEntity
  8
0
  6
Continuous
 62
     7
370
    15
100
AcDbLine
 10
94.2630881003
 20
-15.0777002321
 30
0.0
 11
94.2630881003
 21
-14.0776982055
 31
0.0
  0
LINE
  5
12F
330
1F
100
AcDbEntity
  8
0
  6
Continuous
 62
     7
370
    15
100
AcDbLine
 10
66.7630994252
 20
-15.0777002321
 30
0.0
 11
66.7630994252
 21
-19.0776971624
 31
0.0
  0
LINE
  5
130
330
1F
100
AcDbEntity
  8
0
  6
Continuous
 62
     7
370
    15
100
AcDbLine
 10
86.7630952529
 20
-19.0776971624
 30
0.0
 11
86.7630952529
 21
-15.0777002321
 31
0.0
  0
LINE
  5
131
330
1F
100
AcDbEntity
  8
0
  6
Continuous
 62
     7
370
    15
100
AcDbLine
 10
94.2630881003
 20
-26.0776964472
 30
0.0
 11
94.2630881003
 21
-25.0777018712
 31
0.0
  0
LINE
  5
132
330
1F
100
AcDbEntity
  8
0
  6
Continuous
 62
     7
370
    15
100
AcDbLine
 10
59.2630916766
 20
-25.0777018712
 30
0.0
 11
59.2630916766
 21
-26.0776964472
 31
0.0
  0
LINE
  5
133
330
1F
100
AcDbEntity
  8
0
  6
Continuous
 62
     7
370
    15
100
AcDbLine
 10
86.7630952529
 20
-25.0777018712
 30
0.0
 11
86.7630952529
 21
-21.0777012155
 31
0.0
  0
LINE
  5
134
330
1F
100
AcDbEntity
  8
0
  6
Continuous
 62
     7
370
    15
100
AcDbLine
 10
66.7630994252
 20
-21.0777012155
 30
0.0
 11
66.7630994252
 21
-25.0777018712
 31
0.0
  0
LINE
  5
135
330
1F
100
AcDbEntity
  8
0
  6
Continuous
 62
     7
370
    15
100
AcDbLine
 10
179.2630889944
 20
-14.0776982055
 30
0.0
 11
179.2630889944
 21
-15.0777002321
 31
0.0
  0
LINE
  5
136
330
1F
100
AcDbEntity
  8
0
  6
Continuous
 62
     7
370
    15
100
AcDbLine
 10
214.2630928687
 20
-15.0777002321
 30
0.0
 11
214.2630928687
 21
-14.0776982055
 31
0.0
  0
LINE
  5
137
330
1F
100
AcDbEntity
  8
0
  6
Continuous
 62
     7
370
    15
100
AcDbLine
 10
186.7630892924
 20
-15.0777002321
 30
0.0
 11
186.7630892924
 21
-19.0776971624
 31
0.0
  0
LINE
  5
138
330
1F
100
AcDbEntity
  8
0
  6
Continuous
 62
     7
370
    15
100
AcDbLine
 10
206.7630925707
 20
-19.0776971624
 30
0.0
 11
206.7630925707
 21
-15.0777002321
 31
0.0
  0
LINE
  5
139
330
1F
100
AcDbEntity
  8
0
  6
Continuous
 62
     7
370
    15
100
AcDbLine
 10
214.2630928687
 20
-26.0776964472
 30
0.0
 11
214.2630928687
 21
-25.0777018712
 31
0.0
  0
LINE
  5
13A
330
1F
100
AcDbEntity
  8
0
  6
Continuous
 62
     7
370
    15
100
AcDbLine
 10
179.2630889944
 20
-25.0777018712
 30
0.0
 11
179.2630889944
 21
-26.0776964472
 31
0.0
  0
LINE
  5
13B
330
1F
100
AcDbEntity
  8
0
  6
Continuous
 62
     7
370
    15
100
AcDbLine
 10
206.7630925707
 20
-25.0777018712
 30
0.0
 11
206.7630925707
 21
-21.0777012155
 31
0.0
  0
LINE
  5
13C
330
1F
100
AcDbEntity
  8
0
  6
Continuous
 62
     7
370
    15
100
AcDbLine
 10
186.7630892924
 20
-21.0777012155
 30
0.0
 11
186.7630892924
 21
-25.0777018712
 31
0.0
  0
LINE
  5
13D
330
1F
100
AcDbEntity
  8
0
  6
Continuous
 62
     7
370
    15
100
AcDbLine
 10
59.2630916766
 20
-26.0776964472
 30
0.0
 11
59.2630916766
 21
-28.0777005003
 31
0.0
  0
LINE
  5
13E
330
1F
100
AcDbEntity
  8
0
  6
Continuous
 62
     7
370
    15
100
AcDbLine
 10
94.2630881003
 20
-28.0777005003
 30
0.0
 11
94.2630881003
 21
-26.0776964472
 31
0.0
  0
LINE
  5
13F
330
1F
100
AcDbEntity
  8
0
  6
Continuous
 62
     7
370
    15
100
AcDbLine
 10
69.263097041
 20
-28.0777005003
 30
0.0
 11
69.263097041
 21
-30.7663095639
 31
0.0
  0
LINE
  5
140
330
1F
100
AcDbEntity
  8
0
  6
Continuous
 62
     7
370
    15
100
AcDbLine
 10
84.2630976371
 20
-30.7663095639
 30
0.0
 11
84.2630976371
 21
-28.0777005003
 31
0.0
  0
LINE
  5
141
330
1F
100
AcDbEntity
  8
0
  6
Continuous
 62
     7
370
    15
100
AcDbLine
 10
179.2630889944
 20
-26.0776964472
 30
0.0
 11
179.2630889944
 21
-28.0777005003
 31
0.0
  0
LINE
  5
142
330
1F
100
AcDbEntity
  8
0
  6
Continuous
 62
     7
370
    15
100
AcDbLine
 10
214.2630928687
 20
-28.0777005003
 30
0.0
 11
214.2630928687
 21
-26.0776964472
 31
0.0
  0
LINE
  5
143
330
1F
100
AcDbEntity
  8
0
  6
Continuous
 62
     7
370
    15
100
AcDbLine
 10
189.2630943588
 20
-28.0777005003
 30
0.0
 11
189.2630943588
 21
-30.7663095639
 31
0.0
  0
LINE
  5
144
330
1F
100
AcDbEntity
  8
0
  6
Continuous
 62
     7
370
    15
100
AcDbLine
 10
204.2630949549
 20
-30.7663095639
 30
0.0
 11
204.2630949549
 21
-28.0777005003
 31
0.0
  0
LINE
  5
145
330
1F
100
AcDbEntity
  8
0
  6
Continuous
 62
     7
370
    15
100
AcDbLine
 10
83.2630956105
 20
-64.2777023361
 30
0.0
 11
83.2630956105
 21
-62.8257778929
 31
0.0
  0
LINE
  5
146
330
1F
100
AcDbEntity
  8
0
  6
Continuous
 62
     7
370
    15
100
AcDbLine
 10
70.2630990676
 20
-62.8257778929
 30
0.0
 11
70.2630990676
 21
-64.2777023361
 31
0.0
  0
ARC
  5
147
330
1F
100
AcDbEntity
  8
0
  6
Continuous
 62
     7
370
    15
100
AcDbCircle
 10
82.4630925735
 20
-64.2776989493
 30
0.0
 40
0.7999999999999972
100
AcDbArc
 50
270.0
 51
360.0
  0
ARC
  5
148
330
1F
100
AcDbEntity
  8
0
  6
Continuous
 62
     7
370
    15
100
AcDbCircle
 10
71.0630925735
 20
-64.2776989493
 30
0.0
 40
0.8000000000000114
100
AcDbArc
 50
180.0
 51
270.0
  0
LINE
  5
149
330
1F
100
AcDbEntity
  8
0
  6
Continuous
 62
     7
370
    15
100
AcDbLine
 10
203.2630929283
 20
-64.2777023361
 30
0.0
 11
203.2630929283
 21
-62.8257778929
 31
0.0
  0
LINE
  5
14A
330
1F
100
AcDbEntity
  8
0
  6
Continuous
 62
     7
370
    15
100
AcDbLine
 10
190.2630889348
 20
-62.8257778929
 30
0.0
 11
190.2630889348
 21
-64.2777023361
 31
0.0
  0
ARC
  5
14B
330
1F
100
AcDbEntity
  8
0
  6
Continuous
 62
     7
370
    15
100
AcDbCircle
 10
202.4630925735
 20
-64.2776989493
 30
0.0
 40
0.7999999999999972
100
AcDbArc
 50
270.0
 51
360.0
  0
ARC
  5
14C
330
1F
100
AcDbEntity
  8
0
  6
Continuous
 62
     7
370
    15
100
AcDbCircle
 10
191.0630925735
 20
-64.2776989493
 30
0.0
 40
0.8000000000000114
100
AcDbArc
 50
180.0
 51
270.0
  0
LINE
  5
14D
330
1F
100
AcDbEntity
  8
0
  6
Continuous
 62
     7
370
    15
100
AcDbLine
 10
219.2630918256
 20
-37.0776963876
 30
0.0
 11
219.2630918256
 21
-56.0776976393
 31
0.0
  0
LINE
  5
14E
330
1F
100
AcDbEntity
  8
0
  6
Continuous
 62
     7
370
    15
100
AcDbLine
 10
218.7630908123
 20
-56.5776986525
 30
0.0
 11
218.7630908123
 21
-36.5776953743
 31
0.0
  0
LINE
  5
14F
330
1F
100
AcDbEntity
  8
0
  6
Continuous
 62
     7
370
    15
100
AcDbLine
 10
54.7630900077
 20
-36.5776953743
 30
0.0
 11
54.7630900077
 21
-56.5776986525
 31
0.0
  0
LINE
  5
150
330
1F
100
AcDbEntity
  8
0
  6
Continuous
 62
     7
370
    15
100
AcDbLine
 10
54.263096445
 20
-56.0776976393
 30
0.0
 11
54.263096445
 21
-37.0776963876
 31
0.0
  0
CIRCLE
  5
151
330
1F
100
AcDbEntity
  8
0
  6
Continuous
 62
     7
370
    15
100
AcDbCircle
 10
76.7630925735
 20
-46.5776989493
 30
0.0
 40
16.99999999999999
  0
CIRCLE
  5
152
330
1F
100
AcDbEntity
  8
0
  6
Continuous
 62
     7
370
    15
100
AcDbCircle
 10
76.7630925735
 20
-46.5776989493
 30
0.0
 40
17.50000000000001
  0
CIRCLE
  5
153
330
1F
100
AcDbEntity
  8
0
  6
Continuous
 62
     7
370
    15
100
AcDbCircle
 10
196.7630925735
 20
-46.5776989493
 30
0.0
 40
4.5
  0
CIRCLE
  5
154
330
1F
100
AcDbEntity
  8
0
  6
Continuous
 62
     7
370
    15
100
AcDbCircle
 10
196.7630925735
 20
-46.5776989493
 30
0.0
 40
7.5
  0
CIRCLE
  5
155
330
1F
100
AcDbEntity
  8
0
  6
Continuous
 62
     7
370
    15
100
AcDbCircle
 10
196.7630925735
 20
-46.5776989493
 30
0.0
 40
17.00000000000003
  0
CIRCLE
  5
156
330
1F
100
AcDbEntity
  8
0
  6
Continuous
 62
     7
370
    15
100
AcDbCircle
 10
196.7630925735
 20
-46.5776989493
 30
0.0
 40
17.50000000000003
  0
LINE
  5
157
330
1F
100
AcDbEntity
  8
0
  6
Continuous
 62
     7
370
    15
100
AcDbLine
 10
77.086042755
 20
-13.8776985453
 30
0.0
 11
94.2630881003
 21
-13.8776985453
 31
0.0
  0
LINE
  5
158
330
1F
100
AcDbEntity
  8
0
  6
Continuous
 62
     7
370
    15
100
AcDbLine
 10
59.2630916766
 20
-13.8776985453
 30
0.0
 11
77.086042755
 21
-13.8776985453
 31
0.0
  0
LINE
  5
159
330
1F
100
AcDbEntity
  8
0
  6
Continuous
 62
     7
370
    15
100
AcDbLine
 10
94.2630881003
 20
-13.0776999042
 30
0.0
 11
59.2630916766
 21
-13.0776999042
 31
0.0
  0
LINE
  5
15A
330
1F
100
AcDbEntity
  8
0
  6
Continuous
 62
     7
370
    15
100
AcDbLine
 10
61.2630957297
 20
-11.0776995764
 30
0.0
 11
92.2630989484
 21
-11.0776995764
 31
0.0
  0
LINE
  5
15B
330
1F
100
AcDbEntity
  8
0
  6
Continuous
 62
     7
370
    15
100
AcDbLine
 10
181.2630930475
 20
-11.0776995764
 30
0.0
 11
212.2630962662
 21
-11.0776995764
 31
0.0
  0
LINE
  5
15C
330
1F
100
AcDbEntity
  8
0
  6
Continuous
 62
     7
370
    15
100
AcDbLine
 10
214.2630928687
 20
-13.0776999042
 30
0.0
 11
179.2630889944
 21
-13.0776999042
 31
0.0
  0
LINE
  5
15D
330
1F
100
AcDbEntity
  8
0
  6
Continuous
 62
     7
370
    15
100
AcDbLine
 10
180.3638377718
 20
-13.8776985453
 30
0.0
 11
214.2630928687
 21
-13.8776985453
 31
0.0
  0
LINE
  5
15E
330
1F
100
AcDbEntity
  8
0
  6
Continuous
 62
     7
370
    15
100
AcDbLine
 10
179.2630889944
 20
-13.8776985453
 30
0.0
 11
180.3638377718
 21
-13.8776985453
 31
0.0
  0
LINE
  5
15F
330
1F
100
AcDbEntity
  8
0
  6
Continuous
 62
     7
370
    15
100
AcDbLine
 10
94.1404068402
 20
-15.0777002321
 30
0.0
 11
94.2630881003
 21
-15.0777002321
 31
0.0
  0
LINE
  5
160
330
1F
100
AcDbEntity
  8
0
  6
Continuous
 62
     7
370
    15
100
AcDbLine
 10
59.2630916766
 20
-15.0777002321
 30
0.0
 11
94.1404068402
 21
-15.0777002321
 31
0.0
  0
LINE
  5
161
330
1F
100
AcDbEntity
  8
0
  6
Continuous
 62
     7
370
    15
100
AcDbLine
 10
94.1404068402
 20
-14.0776982055
 30
0.0
 11
94.2630881003
 21
-14.0776982055
 31
0.0
  0
LINE
  5
162
330
1F
100
AcDbEntity
  8
0
  6
Continuous
 62
     7
370
    15
100
AcDbLine
 10
59.2630916766
 20
-14.0776982055
 30
0.0
 11
94.1404068402
 21
-14.0776982055
 31
0.0
  0
LINE
  5
163
330
1F
100
AcDbEntity
  8
0
  6
Continuous
 62
     7
370
    15
100
AcDbLine
 10
86.6929852895
 20
-19.0776971624
 30
0.0
 11
86.7630952529
 21
-19.0776971624
 31
0.0
  0
LINE
  5
164
330
1F
100
AcDbEntity
  8
0
  6
Continuous
 62
     7
370
    15
100
AcDbLine
 10
66.7630994252
 20
-19.0776971624
 30
0.0
 11
86.6929852895
 21
-19.0776971624
 31
0.0
  0
LINE
  5
165
330
1F
100
AcDbEntity
  8
0
  6
Continuous
 62
     7
370
    15
100
AcDbLine
 10
72.4849516085
 20
-25.0777018712
 30
0.0
 11
59.2630916766
 21
-25.0777018712
 31
0.0
  0
LINE
  5
166
330
1F
100
AcDbEntity
  8
0
  6
Continuous
 62
     7
370
    15
100
AcDbLine
 10
94.2630881003
 20
-25.0777018712
 30
0.0
 11
72.4849516085
 21
-25.0777018712
 31
0.0
  0
LINE
  5
167
330
1F
100
AcDbEntity
  8
0
  6
Continuous
 62
     7
370
    15
100
AcDbLine
 10
72.4849516085
 20
-26.0776964472
 30
0.0
 11
59.2630916766
 21
-26.0776964472
 31
0.0
  0
LINE
  5
168
330
1F
100
AcDbEntity
  8
0
  6
Continuous
 62
     7
370
    15
100
AcDbLine
 10
94.2630881003
 20
-26.0776964472
 30
0.0
 11
72.4849516085
 21
-26.0776964472
 31
0.0
  0
LINE
  5
169
330
1F
100
AcDbEntity
  8
0
  6
Continuous
 62
     7
370
    15
100
AcDbLine
 10
74.3184351853
 20
-21.0777012155
 30
0.0
 11
66.7630994252
 21
-21.0777012155
 31
0.0
  0
LINE
  5
16A
330
1F
100
AcDbEntity
  8
0
  6
Continuous
 62
     7
370
    15
100
AcDbLine
 10
86.7630952529
 20
-21.0777012155
 30
0.0
 11
74.3184351853
 21
-21.0777012155
 31
0.0
  0
LINE
  5
16B
330
1F
100
AcDbEntity
  8
0
  6
Continuous
 62
     7
370
    15
100
AcDbLine
 10
179.2630889944
 20
-14.0776982055
 30
0.0
 11
214.2630928687
 21
-14.0776982055
 31
0.0
  0
LINE
  5
16C
330
1F
100
AcDbEntity
  8
0
  6
Continuous
 62
     7
370
    15
100
AcDbLine
 10
179.2630889944
 20
-15.0777002321
 30
0.0
 11
214.2630928687
 21
-15.0777002321
 31
0.0
  0
LINE
  5
16D
330
1F
100
AcDbEntity
  8
0
  6
Continuous
 62
     7
370
    15
100
AcDbLine
 10
186.7630892924
 20
-19.0776971624
 30
0.0
 11
206.7630925707
 21
-19.0776971624
 31
0.0
  0
LINE
  5
16E
330
1F
100
AcDbEntity
  8
0
  6
Continuous
 62
     7
370
    15
100
AcDbLine
 10
214.2630928687
 20
-25.0777018712
 30
0.0
 11
179.2630889944
 21
-25.0777018712
 31
0.0
  0
LINE
  5
16F
330
1F
100
AcDbEntity
  8
0
  6
Continuous
 62
     7
370
    15
100
AcDbLine
 10
214.2630928687
 20
-26.0776964472
 30
0.0
 11
179.2630889944
 21
-26.0776964472
 31
0.0
  0
LINE
  5
170
330
1F
100
AcDbEntity
  8
0
  6
Continuous
 62
     7
370
    15
100
AcDbLine
 10
206.7630925707
 20
-21.0777012155
 30
0.0
 11
186.7630892924
 21
-21.0777012155
 31
0.0
  0
LINE
  5
171
330
1F
100
AcDbEntity
  8
0
  6
Continuous
 62
     7
370
    15
100
AcDbLine
 10
77.8602027825
 20
-28.0777005003
 30
0.0
 11
94.2630881003
 21
-28.0777005003
 31
0.0
  0
LINE
  5
172
330
1F
100
AcDbEntity
  8
0
  6
Continuous
 62
     7
370
    15
100
AcDbLine
 10
59.2630916766
 20
-28.0777005003
 30
0.0
 11
77.8602027825
 21
-28.0777005003
 31
0.0
  0
LINE
  5
173
330
1F
100
AcDbEntity
  8
0
  6
Continuous
 62
     7
370
    15
100
AcDbLine
 10
77.8602027825
 20
-26.0776964472
 30
0.0
 11
94.2630881003
 21
-26.0776964472
 31
0.0
  0
LINE
  5
174
330
1F
100
AcDbEntity
  8
0
  6
Continuous
 62
     7
370
    15
100
AcDbLine
 10
59.2630916766
 20
-26.0776964472
 30
0.0
 11
77.8602027825
 21
-26.0776964472
 31
0.0
  0
LINE
  5
175
330
1F
100
AcDbEntity
  8
0
  6
Continuous
 62
     7
370
    15
100
AcDbLine
 10
197.8602448038
 20
-28.0777005003
 30
0.0
 11
214.2630928687
 21
-28.0777005003
 31
0.0
  0
LINE
  5
176
330
1F
100
AcDbEntity
  8
0
  6
Continuous
 62
     7
370
    15
100
AcDbLine
 10
179.2630889944
 20
-28.0777005003
 30
0.0
 11
197.8602448038
 21
-28.0777005003
 31
0.0
  0
LINE
  5
177
330
1F
100
AcDbEntity
  8
0
  6
Continuous
 62
     7
370
    15
100
AcDbLine
 10
197.8602448038
 20
-26.0776964472
 30
0.0
 11
214.2630928687
 21
-26.0776964472
 31
0.0
  0
LINE
  5
178
330
1F
100
AcDbEntity
  8
0
  6
Continuous
 62
     7
370
    15
100
AcDbLine
 10
179.2630889944
 20
-26.0776964472
 30
0.0
 11
197.8602448038
 21
-26.0776964472
 31
0.0
  0
LINE
  5
179
330
1F
100
AcDbEntity
  8
0
  6
Continuous
 62
     7
370
    15
100
AcDbLine
 10
82.4630969695
 20
-65.0777009771
 30
0.0
 11
71.0631871156
 21
-65.0777009771
 31
0.0
  0
LINE
  5
17A
330
1F
100
AcDbEntity
  8
0
  6
Continuous
 62
     7
370
    15
100
AcDbLine
 10
191.1034324697
 20
-65.0777009771
 30
0.0
 11
191.0630950264
 21
-65.0777009771
 31
0.0
  0
LINE
  5
17B
330
1F
100
AcDbEntity
  8
0
  6
Continuous
 62
     7
370
    15
100
AcDbLine
 10
202.4630942873
 20
-65.0777009771
 30
0.0
 11
191.1034324697
 21
-65.0777009771
 31
0.0
  0
LINE
  5
17C
330
1F
100
AcDbEntity
  8
0
  6
Continuous
 62
     8
370
    15
100
AcDbLine
 10
70.2632033757
 20
-64.2777023361
 30
0.0
 11
83.2630956105
 21
-64.2777023361
 31
0.0
  0
LINE
  5
17D
330
1F
100
AcDbEntity
  8
0
  6
Continuous
 62
     8
370
    15
100
AcDbLine
 10
190.2630889348
 20
-64.2777023361
 30
0.0
 11
203.2630929283
 21
-64.2777023361
 31
0.0
  0
LINE
  5
17E
330
1F
100
AcDbEntity
  8
0
  6
Continuous
 62
     7
370
    15
100
AcDbLine
 10
352.8053193991
 20
135.07748375
 30
0.0
 11
352.2039830391
 21
135.07748375
 31
0.0
  0
LINE
  5
17F
330
1F
100
AcDbEntity
  8
0
  6
Continuous
 62
     7
370
    15
100
AcDbLine
 10
352.2039830391
 20
127.0774824387
 30
0.0
 11
352.8053193991
 21
127.0774824387
 31
0.0
  0
LINE
  5
180
330
1F
100
AcDbEntity
  8
0
  6
Continuous
 62
     7
370
    15
100
AcDbLine
 10
352.8053193991
 20
127.0774824387
 30
0.0
 11
353.2039850657
 21
127.7679836219
 31
0.0
  0
LINE
  5
181
330
1F
100
AcDbEntity
  8
0
  6
Continuous
 62
     7
370
    15
100
AcDbLine
 10
353.2039850657
 20
134.3869825667
 30
0.0
 11
352.8053193991
 21
135.07748375
 31
0.0
  0
LINE
  5
182
330
1F
100
AcDbEntity
  8
0
  6
Continuous
 62
     7
370
    15
100
AcDbLine
 10
352.2039830391
 20
180.5774838156
 30
0.0
 11
351.7039820258
 21
181.0774838394
 31
0.0
  0
LINE
  5
183
330
1F
100
AcDbEntity
  8
0
  6
Continuous
 62
     7
370
    15
100
AcDbLine
 10
317.7039801781
 20
181.0774838394
 30
0.0
 11
317.2039866154
 21
180.5774838156
 31
0.0
  0
LINE
  5
184
330
1F
100
AcDbEntity
  8
0
  6
Continuous
 62
     7
370
    15
100
AcDbLine
 10
317.2039866154
 20
98.5774805611
 30
0.0
 11
317.2039866154
 21
61.5774875349
 31
0.0
  0
LINE
  5
185
330
1F
100
AcDbEntity
  8
0
  6
Continuous
 62
     7
370
    15
100
AcDbLine
 10
317.2039866154
 20
148.5774850315
 30
0.0
 11
317.2039866154
 21
113.5774811572
 31
0.0
  0
LINE
  5
186
330
1F
100
AcDbEntity
  8
0
  6
Continuous
 62
     7
370
    15
100
AcDbLine
 10
317.2039866154
 20
180.5774838156
 30
0.0
 11
317.2039866154
 21
163.5774837649
 31
0.0
  0
LINE
  5
187
330
1F
100
AcDbEntity
  8
0
  6
Continuous
 62
     7
370
    15
100
AcDbLine
 10
352.2039830391
 20
163.5774837649
 30
0.0
 11
352.2039830391
 21
180.5774838156
 31
0.0
  0
LINE
  5
188
330
1F
100
AcDbEntity
  8
0
  6
Continuous
 62
     7
370
    15
100
AcDbLine
 10
352.2039830391
 20
135.07748375
 30
0.0
 11
352.2039830391
 21
148.594200409
 31
0.0
  0
LINE
  5
189
330
1F
100
AcDbEntity
  8
0
  6
Continuous
 62
     7
370
    15
100
AcDbLine
 10
352.2039830391
 20
113.5774811572
 30
0.0
 11
352.2039830391
 21
127.0774824387
 31
0.0
  0
LINE
  5
18A
330
1F
100
AcDbEntity
  8
0
  6
Continuous
 62
     7
370
    15
100
AcDbLine
 10
352.2039830391
 20
61.5774875349
 30
0.0
 11
352.2039830391
 21
98.594199664
 31
0.0
  0
LINE
  5
18B
330
1F
100
AcDbEntity
  8
0
  6
Continuous
 62
     7
370
    15
100
AcDbLine
 10
317.2039866154
 20
61.5774875349
 30
0.0
 11
317.7039801781
 21
61.0774865216
 31
0.0
  0
LINE
  5
18C
330
1F
100
AcDbEntity
  8
0
  6
Continuous
 62
     7
370
    15
100
AcDbLine
 10
351.7039820258
 20
61.0774865216
 30
0.0
 11
352.2039830391
 21
61.5774875349
 31
0.0
  0
LINE
  5
18D
330
1F
100
AcDbEntity
  8
0
  6
Continuous
 62
     7
370
    15
100
AcDbLine
 10
327.2039845292
 20
61.0774865216
 30
0.0
 11
327.2039845292
 21
44.077489323
 31
0.0
  0
LINE
  5
18E
330
1F
100
AcDbEntity
  8
0
  6
Continuous
 62
     7
370
    15
100
AcDbLine
 10
342.2039851253
 20
44.077489323
 30
0.0
 11
342.2039851253
 21
61.0774865216
 31
0.0
  0
ARC
  5
18F
330
1F
100
AcDbEntity
  8
0
  6
Continuous
 62
     7
370
    15
100
AcDbCircle
 10
339.2039830378
 20
44.0774838394
 30
0.0
 40
3.0
100
AcDbArc
 50
270.0
 51
0.0
  0
ARC
  5
190
330
1F
100
AcDbEntity
  8
0
  6
Continuous
 62
     7
370
    15
100
AcDbCircle
 10
330.2039830378
 20
44.0774838394
 30
0.0
 40
3.0
100
AcDbArc
 50
180.0
 51
270.0
  0
LINE
  5
191
330
1F
100
AcDbEntity
  8
0
  6
Continuous
 62
     7
370
    15
100
AcDbLine
 10
301.2039839928
 20
173.577484007
 30
0.0
 11
299.203983665
 21
171.5774841448
 31
0.0
  0
LINE
  5
192
330
1F
100
AcDbEntity
  8
0
  6
Continuous
 62
     7
370
    15
100
AcDbLine
 10
299.203983665
 20
140.5774837202
 30
0.0
 11
301.2039839928
 21
138.5774833923
 31
0.0
  0
LINE
  5
193
330
1F
100
AcDbEntity
  8
0
  6
Continuous
 62
     7
370
    15
100
AcDbLine
 10
301.2039839928
 20
138.5774833923
 30
0.0
 11
302.0039826338
 21
138.5774833923
 31
0.0
  0
LINE
  5
194
330
1F
100
AcDbEntity
  8
0
  6
Continuous
 62
     7
370
    15
100
AcDbLine
 10
302.0039826338
 20
173.577484007
 30
0.0
 11
301.2039839928
 21
173.577484007
 31
0.0
  0
LINE
  5
195
330
1F
100
AcDbEntity
  8
0
  6
Continuous
 62
     7
370
    15
100
AcDbLine
 10
302.0039826338
 20
138.5774833923
 30
0.0
 11
302.2039822941
 21
138.7774830526
 31
0.0
  0
LINE
  5
196
330
1F
100
AcDbEntity
  8
0
  6
Continuous
 62
     7
370
    15
100
AcDbLine
 10
302.2039822941
 20
173.3774838811
 30
0.0
 11
302.0039826338
 21
173.577484007
 31
0.0
  0
LINE
  5
197
330
1F
100
AcDbEntity
  8
0
  6
Continuous
 62
     7
370
    15
100
AcDbLine
 10
307.203981251
 20
148.0774840182
 30
0.0
 11
309.2039853041
 21
148.0774840182
 31
0.0
  0
LINE
  5
198
330
1F
100
AcDbEntity
  8
0
  6
Continuous
 62
     7
370
    15
100
AcDbLine
 10
309.2039853041
 20
164.0774829155
 30
0.0
 11
307.203981251
 21
164.0774829155
 31
0.0
  0
LINE
  5
199
330
1F
100
AcDbEntity
  8
0
  6
Continuous
 62
     7
370
    15
100
AcDbLine
 10
301.2039839928
 20
123.5774827963
 30
0.0
 11
299.203983665
 21
121.5774824685
 31
0.0
  0
LINE
  5
19A
330
1F
100
AcDbEntity
  8
0
  6
Continuous
 62
     7
370
    15
100
AcDbLine
 10
299.203983665
 20
90.5774867004
 30
0.0
 11
301.2039839928
 21
88.5774826473
 31
0.0
  0
LINE
  5
19B
330
1F
100
AcDbEntity
  8
0
  6
Continuous
 62
     7
370
    15
100
AcDbLine
 10
301.2039839928
 20
88.5774826473
 30
0.0
 11
302.0039826338
 21
88.5774826473
 31
0.0
  0
LINE
  5
19C
330
1F
100
AcDbEntity
  8
0
  6
Continuous
 62
     7
370
    15
100
AcDbLine
 10
302.0039826338
 20
123.5774827963
 30
0.0
 11
301.2039839928
 21
123.5774827963
 31
0.0
  0
LINE
  5
19D
330
1F
100
AcDbEntity
  8
0
  6
Continuous
 62
     7
370
    15
100
AcDbLine
 10
302.0039826338
 20
88.5774826473
 30
0.0
 11
302.2039822941
 21
88.7774860328
 31
0.0
  0
LINE
  5
19E
330
1F
100
AcDbEntity
  8
0
  6
Continuous
 62
     7
370
    15
100
AcDbLine
 10
302.2039822941
 20
123.377483136
 30
0.0
 11
302.0039826338
 21
123.5774827963
 31
0.0
  0
LINE
  5
19F
330
1F
100
AcDbEntity
  8
0
  6
Continuous
 62
     7
370
    15
100
AcDbLine
 10
307.203981251
 20
98.0774869984
 30
0.0
 11
309.2039853041
 21
98.0774869984
 31
0.0
  0
LINE
  5
1A0
330
1F
100
AcDbEntity
  8
0
  6
Continuous
 62
     7
370
    15
100
AcDbLine
 10
309.2039853041
 20
114.0774821704
 30
0.0
 11
307.203981251
 21
114.0774821704
 31
0.0
  0
LINE
  5
1A1
330
1F
100
AcDbEntity
  8
0
  6
Continuous
 62
     7
370
    15
100
AcDbLine
 10
302.2039822941
 20
88.5774826473
 30
0.0
 11
303.2039843206
 21
88.5774826473
 31
0.0
  0
LINE
  5
1A2
330
1F
100
AcDbEntity
  8
0
  6
Continuous
 62
     7
370
    15
100
AcDbLine
 10
303.2039843206
 20
123.5774827963
 30
0.0
 11
302.2039822941
 21
123.5774827963
 31
0.0
  0
LINE
  5
1A3
330
1F
100
AcDbEntity
  8
0
  6
Continuous
 62
     7
370
    15
100
AcDbLine
 10
303.2039843206
 20
96.0774829453
 30
0.0
 11
307.203981251
 21
96.0774829453
 31
0.0
  0
LINE
  5
1A4
330
1F
100
AcDbEntity
  8
0
  6
Continuous
 62
     7
370
    15
100
AcDbLine
 10
307.203981251
 20
116.0774862236
 30
0.0
 11
303.2039843206
 21
116.0774862236
 31
0.0
  0
LINE
  5
1A5
330
1F
100
AcDbEntity
  8
0
  6
Continuous
 62
     7
370
    15
100
AcDbLine
 10
314.2039805357
 20
123.5774827963
 30
0.0
 11
313.2039859597
 21
123.5774827963
 31
0.0
  0
LINE
  5
1A6
330
1F
100
AcDbEntity
  8
0
  6
Continuous
 62
     7
370
    15
100
AcDbLine
 10
313.2039859597
 20
88.5774826473
 30
0.0
 11
314.2039805357
 21
88.5774826473
 31
0.0
  0
LINE
  5
1A7
330
1F
100
AcDbEntity
  8
0
  6
Continuous
 62
     7
370
    15
100
AcDbLine
 10
313.2039859597
 20
116.0774862236
 30
0.0
 11
309.2039853041
 21
116.0774862236
 31
0.0
  0
LINE
  5
1A8
330
1F
100
AcDbEntity
  8
0
  6
Continuous
 62
     7
370
    15
100
AcDbLine
 10
309.2039853041
 20
96.0774829453
 30
0.0
 11
313.2039859597
 21
96.0774829453
 31
0.0
  0
LINE
  5
1A9
330
1F
100
AcDbEntity
  8
0
  6
Continuous
 62
     7
370
    15
100
AcDbLine
 10
302.2039822941
 20
138.5774833923
 30
0.0
 11
303.2039843206
 21
138.5774833923
 31
0.0
  0
LINE
  5
1AA
330
1F
100
AcDbEntity
  8
0
  6
Continuous
 62
     7
370
    15
100
AcDbLine
 10
303.2039843206
 20
173.577484007
 30
0.0
 11
302.2039822941
 21
173.577484007
 31
0.0
  0
LINE
  5
1AB
330
1F
100
AcDbEntity
  8
0
  6
Continuous
 62
     7
370
    15
100
AcDbLine
 10
303.2039843206
 20
146.0774836904
 30
0.0
 11
307.203981251
 21
146.0774836904
 31
0.0
  0
LINE
  5
1AC
330
1F
100
AcDbEntity
  8
0
  6
Continuous
 62
     7
370
    15
100
AcDbLine
 10
307.203981251
 20
166.0774841746
 30
0.0
 11
303.2039843206
 21
166.0774841746
 31
0.0
  0
LINE
  5
1AD
330
1F
100
AcDbEntity
  8
0
  6
Continuous
 62
     7
370
    15
100
AcDbLine
 10
314.2039805357
 20
173.577484007
 30
0.0
 11
313.2039859597
 21
173.577484007
 31
0.0
  0
LINE
  5
1AE
330
1F
100
AcDbEntity
  8
0
  6
Continuous
 62
     7
370
    15
100
AcDbLine
 10
313.2039859597
 20
138.5774833923
 30
0.0
 11
314.2039805357
 21
138.5774833923
 31
0.0
  0
LINE
  5
1AF
330
1F
100
AcDbEntity
  8
0
  6
Continuous
 62
     7
370
    15
100
AcDbLine
 10
313.2039859597
 20
166.0774841746
 30
0.0
 11
309.2039853041
 21
166.0774841746
 31
0.0
  0
LINE
  5
1B0
330
1F
100
AcDbEntity
  8
0
  6
Continuous
 62
     7
370
    15
100
AcDbLine
 10
309.2039853041
 20
146.0774836904
 30
0.0
 11
313.2039859597
 21
146.0774836904
 31
0.0
  0
LINE
  5
1B1
330
1F
100
AcDbEntity
  8
0
  6
Continuous
 62
     7
370
    15
100
AcDbLine
 10
314.2039805357
 20
88.5774826473
 30
0.0
 11
316.2039845888
 21
88.5774826473
 31
0.0
  0
LINE
  5
1B2
330
1F
100
AcDbEntity
  8
0
  6
Continuous
 62
     7
370
    15
100
AcDbLine
 10
316.2039845888
 20
123.5774827963
 30
0.0
 11
314.2039805357
 21
123.5774827963
 31
0.0
  0
LINE
  5
1B3
330
1F
100
AcDbEntity
  8
0
  6
Continuous
 62
     7
370
    15
100
AcDbLine
 10
316.2039845888
 20
98.5774805611
 30
0.0
 11
317.2039866154
 21
98.5774805611
 31
0.0
  0
LINE
  5
1B4
330
1F
100
AcDbEntity
  8
0
  6
Continuous
 62
     7
370
    15
100
AcDbLine
 10
317.2039866154
 20
113.5774811572
 30
0.0
 11
316.2039845888
 21
113.5774811572
 31
0.0
  0
LINE
  5
1B5
330
1F
100
AcDbEntity
  8
0
  6
Continuous
 62
     7
370
    15
100
AcDbLine
 10
314.2039805357
 20
138.5774833923
 30
0.0
 11
316.2039845888
 21
138.5774833923
 31
0.0
  0
LINE
  5
1B6
330
1F
100
AcDbEntity
  8
0
  6
Continuous
 62
     7
370
    15
100
AcDbLine
 10
316.2039845888
 20
173.577484007
 30
0.0
 11
314.2039805357
 21
173.577484007
 31
0.0
  0
LINE
  5
1B7
330
1F
100
AcDbEntity
  8
0
  6
Continuous
 62
     7
370
    15
100
AcDbLine
 10
316.2039845888
 20
148.5774850315
 30
0.0
 11
317.2039866154
 21
148.5774850315
 31
0.0
  0
LINE
  5
1B8
330
1F
100
AcDbEntity
  8
0
  6
Continuous
 62
     7
370
    15
100
AcDbLine
 10
317.2039866154
 20
163.5774837649
 30
0.0
 11
316.2039845888
 21
163.5774837649
 31
0.0
  0
LINE
  5
1B9
330
1F
100
AcDbEntity
  8
0
  6
Continuous
 62
     7
370
    15
100
AcDbLine
 10
352.4039864247
 20
162.577483601
 30
0.0
 11
351.8012270038
 21
162.577483601
 31
0.0
  0
LINE
  5
1BA
330
1F
100
AcDbEntity
  8
0
  6
Continuous
 62
     7
370
    15
100
AcDbLine
 10
351.8002733295
 20
149.5774833327
 30
0.0
 11
352.4039864247
 21
149.5774833327
 31
0.0
  0
ARC
  5
1BB
330
1F
100
AcDbEntity
  8
0
  6
Continuous
 62
     7
370
    15
100
AcDbCircle
 10
352.4039830378
 20
161.7774838394
 30
0.0
 40
0.8000000000000682
100
AcDbArc
 50
0.0
 51
90.0
  0
ARC
  5
1BC
330
1F
100
AcDbEntity
  8
0
  6
Continuous
 62
     7
370
    15
100
AcDbCircle
 10
352.4039830378
 20
150.3774838394
 30
0.0
 40
0.8000000000000682
100
AcDbArc
 50
270.0
 51
0.0
  0
LINE
  5
1BD
330
1F
100
AcDbEntity
  8
0
  6
Continuous
 62
     7
370
    15
100
AcDbLine
 10
352.4039864247
 20
112.5774865812
 30
0.0
 11
351.8012270038
 21
112.5774865812
 31
0.0
  0
LINE
  5
1BE
330
1F
100
AcDbEntity
  8
0
  6
Continuous
 62
     7
370
    15
100
AcDbLine
 10
351.8002733295
 20
99.5774825877
 30
0.0
 11
352.4039864247
 21
99.5774825877
 31
0.0
  0
ARC
  5
1BF
330
1F
100
AcDbEntity
  8
0
  6
Continuous
 62
     7
370
    15
100
AcDbCircle
 10
352.4039830378
 20
111.7774838394
 30
0.0
 40
0.8000000000000682
100
AcDbArc
 50
0.0
 51
90.0
  0
ARC
  5
1C0
330
1F
100
AcDbEntity
  8
0
  6
Continuous
 62
     7
370
    15
100
AcDbCircle
 10
352.4039830378
 20
100.3774838394
 30
0.0
 40
0.8000000000000682
100
AcDbArc
 50
270.0
 51
0.0
  0
CIRCLE
  5
1C1
330
1F
100
AcDbEntity
  8
0
  6
Continuous
 62
     7
370
    15
100
AcDbCircle
 10
334.7039830378
 20
131.0774838394
 30
0.0
 40
9.500000000000037
  0
CIRCLE
  5
1C2
330
1F
100
AcDbEntity
  8
0
  6
Continuous
 62
     7
370
    15
100
AcDbCircle
 10
334.7039830378
 20
131.0774838394
 30
0.0
 40
10.00000000000005
  0
LINE
  5
1C3
330
1F
100
AcDbEntity
  8
0
  6
Continuous
 62
     7
370
    15
100
AcDbLine
 10
352.8053193991
 20
131.0774830943
 30
0.0
 11
352.8053193991
 21
127.0774824387
 31
0.0
  0
LINE
  5
1C4
330
1F
100
AcDbEntity
  8
0
  6
Continuous
 62
     7
370
    15
100
AcDbLine
 10
352.8053193991
 20
135.07748375
 30
0.0
 11
352.8053193991
 21
131.0774830943
 31
0.0
  0
LINE
  5
1C5
330
1F
100
AcDbEntity
  8
0
  6
Continuous
 62
     7
370
    15
100
AcDbLine
 10
353.2039850657
 20
131.0774830943
 30
0.0
 11
353.2039850657
 21
127.7679836219
 31
0.0
  0
LINE
  5
1C6
330
1F
100
AcDbEntity
  8
0
  6
Continuous
 62
     7
370
    15
100
AcDbLine
 10
353.2039850657
 20
134.3869825667
 30
0.0
 11
353.2039850657
 21
131.0774830943
 31
0.0
  0
LINE
  5
1C7
330
1F
100
AcDbEntity
  8
0
  6
Continuous
 62
     7
370
    15
100
AcDbLine
 10
334.7039848273
 20
180.5774838156
 30
0.0
 11
317.2039866154
 21
180.5774838156
 31
0.0
  0
LINE
  5
1C8
330
1F
100
AcDbEntity
  8
0
  6
Continuous
 62
     7
370
    15
100
AcDbLine
 10
352.2039830391
 20
180.5774838156
 30
0.0
 11
334.7039848273
 21
180.5774838156
 31
0.0
  0
LINE
  5
1C9
330
1F
100
AcDbEntity
  8
0
  6
Continuous
 62
     7
370
    15
100
AcDbLine
 10
334.7039848273
 20
181.0774838394
 30
0.0
 11
351.7039820258
 21
181.0774838394
 31
0.0
  0
LINE
  5
1CA
330
1F
100
AcDbEntity
  8
0
  6
Continuous
 62
     7
370
    15
100
AcDbLine
 10
317.7039801781
 20
181.0774838394
 30
0.0
 11
334.7039848273
 21
181.0774838394
 31
0.0
  0
SPLINE
  5
1CB
330
1F
100
AcDbEntity
  8
0
  6
Continuous
 62
     7
370
    15
100
AcDbSpline
210
0.0
220
0.0
230
1.0
 70
     8
 71
     3
 72
    27
 73
    23
 74
     0
 42
0.000000001
 43
0.00000001
 40
0.0
 40
0.0
 40
0.0
 40
0.0
 40
0.0497371581558598
 40
0.1009926174598209
 40
0.1507111697528222
 40
0.2017507773524484
 40
0.2538733146869915
 40
0.3073584902059006
 40
0.362075552822071
 40
0.4185371297167115
 40
0.4704176212623511
 40
0.5240831669293479
 40
0.571851694554461
 40
0.6209561332365436
 40
0.6698657641620501
 40
0.719973818566523
 40
0.7732210744434089
 40
0.8279294705605869
 40
0.8823851299306473
 40
0.9386416409022951
 40
0.9894905457914521
 40
1.0
 40
1.0
 40
1.0
 40
1.0
 10
352.2039830391129
 20
113.5774811571635
 30
0.0
 10
352.1961591249739
 20
113.5593151213755
 30
0.0
 10
352.1802724600141
 20
113.5224285043847
 30
0.0
 10
352.0555898027752
 20
113.227152956426
 30
0.0
 10
351.8689143977464
 20
112.7645335159238
 30
0.0
 10
351.6304468732242
 20
112.1316857675459
 30
0.0
 10
351.3581880280742
 20
111.3305255135905
 30
0.0
 10
351.077021598557
 20
110.3682328041538
 30
0.0
 10
350.8168418325631
 20
109.2517104504547
 30
0.0
 10
350.6207319872045
 20
108.0409745054561
 30
0.0
 10
350.5139137935383
 20
106.7718688617686
 30
0.0
 10
350.5087860486643
 20
105.5465833964087
 30
0.0
 10
350.5950016094398
 20
104.3625391781051
 30
0.0
 10
350.7522045253636
 20
103.2635952717097
 30
0.0
 10
350.9687773735376
 20
102.2230720470354
 30
0.0
 10
351.226893123854
 20
101.2535649051831
 30
0.0
 10
351.5065716859768
 20
100.3743061027205
 30
0.0
 10
351.7759263946323
 20
99.6294618885418
 30
0.0
 10
352.0053435463315
 20
99.04923339129213
 30
0.0
 10
352.1493314799778
 20
98.7047992495127
 30
0.0
 10
352.2121111123162
 20
98.55847205001889
 30
0.0
 10
352.1990713770073
 20
98.58897510369577
 30
0.0
 10
352.1968379323205
 20
98.59419966397658
 30
0.0
  0
ARC
  5
1CC
330
1F
100
AcDbEntity
  8
0
  6
Continuous
 62
     7
370
    15
100
AcDbCircle
 10
300.6726262404
 20
156.0770035303
 30
0.0
 40
18.15292410503357
100
AcDbArc
 50
335.5983879
 51
24.3470235914
  0
ARC
  5
1CD
330
1F
100
AcDbEntity
  8
0
  6
Continuous
 62
     7
370
    15
100
AcDbCircle
 10
300.672596871
 20
106.077001865
 30
0.0
 40
18.15295200973291
100
AcDbArc
 50
335.5984181338
 51
24.3469933781
  0
SPLINE
  5
1CE
330
1F
100
AcDbEntity
  8
0
  6
Continuous
 62
     7
370
    15
100
AcDbSpline
210
0.0
220
0.0
230
1.0
 70
     8
 71
     3
 72
    27
 73
    23
 74
     0
 42
0.000000001
 43
0.00000001
 40
0.0
 40
0.0
 40
0.0
 40
0.0
 40
0.049737165205782
 40
0.1009926254173422
 40
0.1507112085617884
 40
0.2017508170651915
 40
0.2538733553226873
 40
0.3073584729366376
 40
0.3620756029960797
 40
0.4185370355060913
 40
0.4704176813724161
 40
0.5240831498278746
 40
0.5718516012324977
 40
0.6209561885456121
 40
0.6698656825315246
 40
0.7199738002925886
 40
0.7732211116321099
 40
0.8279293737763135
 40
0.8823851022349519
 40
0.9386416142027542
 40
0.9894905377766928
 40
1.0
 40
1.0
 40
1.0
 40
1.0
 10
352.2039830391129
 20
163.5774837648667
 30
0.0
 10
352.1961591302382
 20
163.5593168996683
 30
0.0
 10
352.1802724769675
 20
163.5224286008599
 30
0.0
 10
352.0555897304338
 20
163.227154369711
 30
0.0
 10
351.8689144919475
 20
162.7645318587018
 30
0.0
 10
351.6304468245978
 20
162.1316849119695
 30
0.0
 10
351.3581882807159
 20
161.3305243228507
 30
0.0
 10
351.0770211166243
 20
160.3682332931748
 30
0.0
 10
350.8168424907125
 20
159.2517103468407
 30
0.0
 10
350.6207313769584
 20
158.0409751275096
 30
0.0
 10
350.5139140819352
 20
156.771869478126
 30
0.0
 10
350.5087858852488
 20
155.5465840726477
 30
0.0
 10
350.595002082608
 20
154.3625402931102
 30
0.0
 10
350.752203742058
 20
153.2635957641256
 30
0.0
 10
350.9687780283741
 20
152.2230737105652
 30
0.0
 10
351.2268930721901
 20
151.2535660854824
 30
0.0
 10
351.5065710482319
 20
150.3743039853481
 30
0.0
 10
351.7759270562755
 20
149.6294683994394
 30
0.0
 10
352.0053432929885
 20
149.0492316274373
 30
0.0
 10
352.1493315553772
 20
148.7048045883699
 30
0.0
 10
352.2121111073608
 20
148.5584632715641
 30
0.0
 10
352.1990713769072
 20
148.5889744546397
 30
0.0
 10
352.1968379323205
 20
148.5942004090346
 30
0.0
  0
LINE
  5
1CF
330
1F
100
AcDbEntity
  8
0
  6
Continuous
 62
     7
370
    15
100
AcDbLine
 10
334.7039848273
 20
61.5774875349
 30
0.0
 11
352.2039830391
 21
61.5774875349
 31
0.0
  0
LINE
  5
1D0
330
1F
100
AcDbEntity
  8
0
  6
Continuous
 62
     7
370
    15
100
AcDbLine
 10
317.2039866154
 20
61.5774875349
 30
0.0
 11
334.7039848273
 21
61.5774875349
 31
0.0
  0
LINE
  5
1D1
330
1F
100
AcDbEntity
  8
0
  6
Continuous
 62
     7
370
    15
100
AcDbLine
 10
334.7039848273
 20
61.0774865216
 30
0.0
 11
317.7039801781
 21
61.0774865216
 31
0.0
  0
LINE
  5
1D2
330
1F
100
AcDbEntity
  8
0
  6
Continuous
 62
     7
370
    15
100
AcDbLine
 10
351.7039820258
 20
61.0774865216
 30
0.0
 11
334.7039848273
 21
61.0774865216
 31
0.0
  0
LINE
  5
1D3
330
1F
100
AcDbEntity
  8
0
  6
Continuous
 62
     7
370
    15
100
AcDbLine
 10
334.7039848273
 20
41.0774832433
 30
0.0
 11
330.2039831583
 21
41.0774832433
 31
0.0
  0
LINE
  5
1D4
330
1F
100
AcDbEntity
  8
0
  6
Continuous
 62
     7
370
    15
100
AcDbLine
 10
339.2039864962
 20
41.0774832433
 30
0.0
 11
334.7039848273
 21
41.0774832433
 31
0.0
  0
LINE
  5
1D5
330
1F
100
AcDbEntity
  8
0
  6
Continuous
 62
     7
370
    15
100
AcDbLine
 10
299.203983665
 20
156.0774834668
 30
0.0
 11
299.203983665
 21
171.5774841448
 31
0.0
  0
LINE
  5
1D6
330
1F
100
AcDbEntity
  8
0
  6
Continuous
 62
     7
370
    15
100
AcDbLine
 10
299.203983665
 20
140.5774837202
 30
0.0
 11
299.203983665
 21
156.0774834668
 31
0.0
  0
LINE
  5
1D7
330
1F
100
AcDbEntity
  8
0
  6
Continuous
 62
     7
370
    15
100
AcDbLine
 10
301.2039839928
 20
156.0774834668
 30
0.0
 11
301.2039839928
 21
138.5774833923
 31
0.0
  0
LINE
  5
1D8
330
1F
100
AcDbEntity
  8
0
  6
Continuous
 62
     7
370
    15
100
AcDbLine
 10
301.2039839928
 20
173.577484007
 30
0.0
 11
301.2039839928
 21
156.0774834668
 31
0.0
  0
LINE
  5
1D9
330
1F
100
AcDbEntity
  8
0
  6
Continuous
 62
     7
370
    15
100
AcDbLine
 10
302.0039826338
 20
138.5774833923
 30
0.0
 11
302.0039826338
 21
173.577484007
 31
0.0
  0
LINE
  5
1DA
330
1F
100
AcDbEntity
  8
0
  6
Continuous
 62
     7
370
    15
100
AcDbLine
 10
299.203983665
 20
111.4879211253
 30
0.0
 11
299.203983665
 21
121.5774824685
 31
0.0
  0
LINE
  5
1DB
330
1F
100
AcDbEntity
  8
0
  6
Continuous
 62
     7
370
    15
100
AcDbLine
 10
299.203983665
 20
90.5774867004
 30
0.0
 11
299.203983665
 21
111.4879211253
 31
0.0
  0
LINE
  5
1DC
330
1F
100
AcDbEntity
  8
0
  6
Continuous
 62
     7
370
    15
100
AcDbLine
 10
301.2039839928
 20
112.1860405272
 30
0.0
 11
301.2039839928
 21
88.5774826473
 31
0.0
  0
LINE
  5
1DD
330
1F
100
AcDbEntity
  8
0
  6
Continuous
 62
     7
370
    15
100
AcDbLine
 10
301.2039839928
 20
123.5774827963
 30
0.0
 11
301.2039839928
 21
112.1860405272
 31
0.0
  0
LINE
  5
1DE
330
1F
100
AcDbEntity
  8
0
  6
Continuous
 62
     7
370
    15
100
AcDbLine
 10
302.0039826338
 20
88.5774826473
 30
0.0
 11
302.0039826338
 21
123.5774827963
 31
0.0
  0
LINE
  5
1DF
330
1F
100
AcDbEntity
  8
0
  6
Continuous
 62
     7
370
    15
100
AcDbLine
 10
303.2039843206
 20
88.5774826473
 30
0.0
 11
303.2039843206
 21
123.5774827963
 31
0.0
  0
LINE
  5
1E0
330
1F
100
AcDbEntity
  8
0
  6
Continuous
 62
     7
370
    15
100
AcDbLine
 10
302.2039822941
 20
88.5774826473
 30
0.0
 11
302.2039822941
 21
123.5774827963
 31
0.0
  0
LINE
  5
1E1
330
1F
100
AcDbEntity
  8
0
  6
Continuous
 62
     7
370
    15
100
AcDbLine
 10
307.203981251
 20
96.0774829453
 30
0.0
 11
307.203981251
 21
116.0774862236
 31
0.0
  0
LINE
  5
1E2
330
1F
100
AcDbEntity
  8
0
  6
Continuous
 62
     7
370
    15
100
AcDbLine
 10
313.2039859597
 20
122.0455055898
 30
0.0
 11
313.2039859597
 21
88.5774826473
 31
0.0
  0
LINE
  5
1E3
330
1F
100
AcDbEntity
  8
0
  6
Continuous
 62
     7
370
    15
100
AcDbLine
 10
313.2039859597
 20
123.5774827963
 30
0.0
 11
313.2039859597
 21
122.0455055898
 31
0.0
  0
LINE
  5
1E4
330
1F
100
AcDbEntity
  8
0
  6
Continuous
 62
     7
370
    15
100
AcDbLine
 10
314.2039805357
 20
122.0455055898
 30
0.0
 11
314.2039805357
 21
88.5774826473
 31
0.0
  0
LINE
  5
1E5
330
1F
100
AcDbEntity
  8
0
  6
Continuous
 62
     7
370
    15
100
AcDbLine
 10
314.2039805357
 20
123.5774827963
 30
0.0
 11
314.2039805357
 21
122.0455055898
 31
0.0
  0
LINE
  5
1E6
330
1F
100
AcDbEntity
  8
0
  6
Continuous
 62
     7
370
    15
100
AcDbLine
 10
309.2039853041
 20
115.2020653552
 30
0.0
 11
309.2039853041
 21
96.0774829453
 31
0.0
  0
LINE
  5
1E7
330
1F
100
AcDbEntity
  8
0
  6
Continuous
 62
     7
370
    15
100
AcDbLine
 10
309.2039853041
 20
116.0774862236
 30
0.0
 11
309.2039853041
 21
115.2020653552
 31
0.0
  0
LINE
  5
1E8
330
1F
100
AcDbEntity
  8
0
  6
Continuous
 62
     7
370
    15
100
AcDbLine
 10
303.2039843206
 20
138.5774833923
 30
0.0
 11
303.2039843206
 21
173.577484007
 31
0.0
  0
LINE
  5
1E9
330
1F
100
AcDbEntity
  8
0
  6
Continuous
 62
     7
370
    15
100
AcDbLine
 10
302.2039822941
 20
138.5774833923
 30
0.0
 11
302.2039822941
 21
173.577484007
 31
0.0
  0
LINE
  5
1EA
330
1F
100
AcDbEntity
  8
0
  6
Continuous
 62
     7
370
    15
100
AcDbLine
 10
307.203981251
 20
146.0774836904
 30
0.0
 11
307.203981251
 21
166.0774841746
 31
0.0
  0
LINE
  5
1EB
330
1F
100
AcDbEntity
  8
0
  6
Continuous
 62
     7
370
    15
100
AcDbLine
 10
313.2039859597
 20
173.577484007
 30
0.0
 11
313.2039859597
 21
138.5774833923
 31
0.0
  0
LINE
  5
1EC
330
1F
100
AcDbEntity
  8
0
  6
Continuous
 62
     7
370
    15
100
AcDbLine
 10
314.2039805357
 20
173.577484007
 30
0.0
 11
314.2039805357
 21
138.5774833923
 31
0.0
  0
LINE
  5
1ED
330
1F
100
AcDbEntity
  8
0
  6
Continuous
 62
     7
370
    15
100
AcDbLine
 10
309.2039853041
 20
166.0774841746
 30
0.0
 11
309.2039853041
 21
146.0774836904
 31
0.0
  0
LINE
  5
1EE
330
1F
100
AcDbEntity
  8
0
  6
Continuous
 62
     7
370
    15
100
AcDbLine
 10
316.2039845888
 20
88.5774826473
 30
0.0
 11
316.2039845888
 21
123.5774827963
 31
0.0
  0
LINE
  5
1EF
330
1F
100
AcDbEntity
  8
0
  6
Continuous
 62
     7
370
    15
100
AcDbLine
 10
314.2039805357
 20
88.5774826473
 30
0.0
 11
314.2039805357
 21
123.5774827963
 31
0.0
  0
LINE
  5
1F0
330
1F
100
AcDbEntity
  8
0
  6
Continuous
 62
     7
370
    15
100
AcDbLine
 10
316.2039845888
 20
138.5774833923
 30
0.0
 11
316.2039845888
 21
173.577484007
 31
0.0
  0
LINE
  5
1F1
330
1F
100
AcDbEntity
  8
0
  6
Continuous
 62
     7
370
    15
100
AcDbLine
 10
353.2039850657
 20
156.0405844664
 30
0.0
 11
353.2039850657
 21
150.3774838364
 31
0.0
  0
LINE
  5
1F2
330
1F
100
AcDbEntity
  8
0
  6
Continuous
 62
     7
370
    15
100
AcDbLine
 10
353.2039850657
 20
161.7774830973
 30
0.0
 11
353.2039850657
 21
156.0405844664
 31
0.0
  0
LINE
  5
1F3
330
1F
100
AcDbEntity
  8
0
  6
Continuous
 62
     7
370
    15
100
AcDbLine
 10
353.2039850657
 20
111.7774804896
 30
0.0
 11
353.2039850657
 21
100.3774812287
 31
0.0
  0
LINE
  5
1F4
330
1F
100
AcDbEntity
  8
0
  6
Continuous
 62
     8
370
    15
100
AcDbLine
 10
334.7039848273
 20
44.077489323
 30
0.0
 11
342.2039851253
 21
44.077489323
 31
0.0
  0
LINE
  5
1F5
330
1F
100
AcDbEntity
  8
0
  6
Continuous
 62
     8
370
    15
100
AcDbLine
 10
327.2039845292
 20
44.077489323
 30
0.0
 11
334.7039848273
 21
44.077489323
 31
0.0
  0
LINE
  5
1F6
330
1F
100
AcDbEntity
  8
0
  6
Continuous
 62
     8
370
    15
100
AcDbLine
 10
352.4039864247
 20
156.0354044503
 30
0.0
 11
352.4039864247
 21
162.577483601
 31
0.0
  0
LINE
  5
1F7
330
1F
100
AcDbEntity
  8
0
  6
Continuous
 62
     8
370
    15
100
AcDbLine
 10
352.4039864247
 20
149.5774833327
 30
0.0
 11
352.4039864247
 21
156.0354044503
 31
0.0
  0
LINE
  5
1F8
330
1F
100
AcDbEntity
  8
0
  6
Continuous
 62
     8
370
    15
100
AcDbLine
 10
352.4039864247
 20
99.5774825877
 30
0.0
 11
352.4039864247
 21
112.5774865812
 31
0.0
  0
LINE
  5
1F9
330
1F
100
AcDbEntity
  8
0
  6
Continuous
 62
     7
370
    15
100
AcDbLine
 10
-68.6491164195
 20
135.07748375
 30
0.0
 11
-69.0477820861
 21
134.3869825667
 31
0.0
  0
LINE
  5
1FA
330
1F
100
AcDbEntity
  8
0
  6
Continuous
 62
     7
370
    15
100
AcDbLine
 10
-69.0477820861
 20
127.7679836219
 30
0.0
 11
-68.6491164195
 21
127.0774824387
 31
0.0
  0
LINE
  5
1FB
330
1F
100
AcDbEntity
  8
0
  6
Continuous
 62
     7
370
    15
100
AcDbLine
 10
-68.6491164195
 20
127.0774824387
 30
0.0
 11
-68.0477800596
 21
127.0774824387
 31
0.0
  0
LINE
  5
1FC
330
1F
100
AcDbEntity
  8
0
  6
Continuous
 62
     7
370
    15
100
AcDbLine
 10
-68.0477800596
 20
135.07748375
 30
0.0
 11
-68.6491164195
 21
135.07748375
 31
0.0
  0
LINE
  5
1FD
330
1F
100
AcDbEntity
  8
0
  6
Continuous
 62
     7
370
    15
100
AcDbLine
 10
-68.0477800596
 20
81.5774833625
 30
0.0
 11
-67.5477790463
 21
81.0774823493
 31
0.0
  0
LINE
  5
1FE
330
1F
100
AcDbEntity
  8
0
  6
Continuous
 62
     7
370
    15
100
AcDbLine
 10
-33.5477771985
 20
81.0774823493
 30
0.0
 11
-33.0477836358
 21
81.5774833625
 31
0.0
  0
LINE
  5
1FF
330
1F
100
AcDbEntity
  8
0
  6
Continuous
 62
     7
370
    15
100
AcDbLine
 10
-68.0477800596
 20
98.594199664
 30
0.0
 11
-68.0477800596
 21
81.5774833625
 31
0.0
  0
LINE
  5
200
330
1F
100
AcDbEntity
  8
0
  6
Continuous
 62
     7
370
    15
100
AcDbLine
 10
-68.0477800596
 20
127.0774824387
 30
0.0
 11
-68.0477800596
 21
113.5774811572
 31
0.0
  0
LINE
  5
201
330
1F
100
AcDbEntity
  8
0
  6
Continuous
 62
     7
370
    15
100
AcDbLine
 10
-68.0477800596
 20
148.594200409
 30
0.0
 11
-68.0477800596
 21
135.07748375
 31
0.0
  0
LINE
  5
202
330
1F
100
AcDbEntity
  8
0
  6
Continuous
 62
     7
370
    15
100
AcDbLine
 10
-68.0477800596
 20
180.5774838156
 30
0.0
 11
-68.0477800596
 21
163.5774837649
 31
0.0
  0
LINE
  5
203
330
1F
100
AcDbEntity
  8
0
  6
Continuous
 62
     7
370
    15
100
AcDbLine
 10
-33.0477836358
 20
163.5774837649
 30
0.0
 11
-33.0477836358
 21
180.5774838156
 31
0.0
  0
LINE
  5
204
330
1F
100
AcDbEntity
  8
0
  6
Continuous
 62
     7
370
    15
100
AcDbLine
 10
-33.0477836358
 20
113.5774811572
 30
0.0
 11
-33.0477836358
 21
148.5774850315
 31
0.0
  0
LINE
  5
205
330
1F
100
AcDbEntity
  8
0
  6
Continuous
 62
     7
370
    15
100
AcDbLine
 10
-33.0477836358
 20
81.5774833625
 30
0.0
 11
-33.0477836358
 21
98.5774805611
 31
0.0
  0
LINE
  5
206
330
1F
100
AcDbEntity
  8
0
  6
Continuous
 62
     7
370
    15
100
AcDbLine
 10
-33.0477836358
 20
180.5774838156
 30
0.0
 11
-33.5477771985
 21
181.0774838394
 31
0.0
  0
LINE
  5
207
330
1F
100
AcDbEntity
  8
0
  6
Continuous
 62
     7
370
    15
100
AcDbLine
 10
-67.5477790463
 20
181.0774838394
 30
0.0
 11
-68.0477800596
 21
180.5774838156
 31
0.0
  0
LINE
  5
208
330
1F
100
AcDbEntity
  8
0
  6
Continuous
 62
     7
370
    15
100
AcDbLine
 10
-68.0477800596
 20
61.5774875349
 30
0.0
 11
-67.5477790463
 21
61.0774865216
 31
0.0
  0
LINE
  5
209
330
1F
100
AcDbEntity
  8
0
  6
Continuous
 62
     7
370
    15
100
AcDbLine
 10
-33.5477771985
 20
61.0774865216
 30
0.0
 11
-33.0477836358
 21
61.5774875349
 31
0.0
  0
LINE
  5
20A
330
1F
100
AcDbEntity
  8
0
  6
Continuous
 62
     7
370
    15
100
AcDbLine
 10
-68.0477800596
 20
81.5774833625
 30
0.0
 11
-68.0477800596
 21
61.5774875349
 31
0.0
  0
LINE
  5
20B
330
1F
100
AcDbEntity
  8
0
  6
Continuous
 62
     7
370
    15
100
AcDbLine
 10
-33.0477836358
 20
61.5774875349
 30
0.0
 11
-33.0477836358
 21
81.5774833625
 31
0.0
  0
LINE
  5
20C
330
1F
100
AcDbEntity
  8
0
  6
Continuous
 62
     7
370
    15
100
AcDbLine
 10
-58.0477821457
 20
61.0774865216
 30
0.0
 11
-58.0477821457
 21
44.077489323
 31
0.0
  0
LINE
  5
20D
330
1F
100
AcDbEntity
  8
0
  6
Continuous
 62
     7
370
    15
100
AcDbLine
 10
-43.0477815497
 20
44.077489323
 30
0.0
 11
-43.0477815497
 21
61.0774865216
 31
0.0
  0
ARC
  5
20E
330
1F
100
AcDbEntity
  8
0
  6
Continuous
 62
     7
370
    15
100
AcDbCircle
 10
-46.0477800582
 20
44.0774838394
 30
0.0
 40
3.0
100
AcDbArc
 50
270.0
 51
0.0
  0
ARC
  5
20F
330
1F
100
AcDbEntity
  8
0
  6
Continuous
 62
     7
370
    15
100
AcDbCircle
 10
-55.0477800582
 20
44.0774838394
 30
0.0
 40
3.0
100
AcDbArc
 50
180.0
 51
270.0
  0
LINE
  5
210
330
1F
100
AcDbEntity
  8
0
  6
Continuous
 62
     7
370
    15
100
AcDbLine
 10
-17.0477810132
 20
138.5774833923
 30
0.0
 11
-15.0477806854
 21
140.5774837202
 31
0.0
  0
LINE
  5
211
330
1F
100
AcDbEntity
  8
0
  6
Continuous
 62
     7
370
    15
100
AcDbLine
 10
-15.0477806854
 20
171.5774841448
 30
0.0
 11
-17.0477810132
 21
173.577484007
 31
0.0
  0
LINE
  5
212
330
1F
100
AcDbEntity
  8
0
  6
Continuous
 62
     7
370
    15
100
AcDbLine
 10
-17.0477810132
 20
173.577484007
 30
0.0
 11
-17.8477796542
 21
173.577484007
 31
0.0
  0
LINE
  5
213
330
1F
100
AcDbEntity
  8
0
  6
Continuous
 62
     7
370
    15
100
AcDbLine
 10
-17.8477796542
 20
138.5774833923
 30
0.0
 11
-17.0477810132
 21
138.5774833923
 31
0.0
  0
LINE
  5
214
330
1F
100
AcDbEntity
  8
0
  6
Continuous
 62
     7
370
    15
100
AcDbLine
 10
-17.8477796542
 20
173.577484007
 30
0.0
 11
-18.0477793145
 21
173.3774838811
 31
0.0
  0
LINE
  5
215
330
1F
100
AcDbEntity
  8
0
  6
Continuous
 62
     7
370
    15
100
AcDbLine
 10
-18.0477793145
 20
138.7774830526
 30
0.0
 11
-17.8477796542
 21
138.5774833923
 31
0.0
  0
LINE
  5
216
330
1F
100
AcDbEntity
  8
0
  6
Continuous
 62
     7
370
    15
100
AcDbLine
 10
-23.0477782714
 20
164.0774829155
 30
0.0
 11
-25.0477823245
 21
164.0774829155
 31
0.0
  0
LINE
  5
217
330
1F
100
AcDbEntity
  8
0
  6
Continuous
 62
     7
370
    15
100
AcDbLine
 10
-25.0477823245
 20
148.0774840182
 30
0.0
 11
-23.0477782714
 21
148.0774840182
 31
0.0
  0
LINE
  5
218
330
1F
100
AcDbEntity
  8
0
  6
Continuous
 62
     7
370
    15
100
AcDbLine
 10
-17.0477810132
 20
123.5774827963
 30
0.0
 11
-17.8477796542
 21
123.5774827963
 31
0.0
  0
LINE
  5
219
330
1F
100
AcDbEntity
  8
0
  6
Continuous
 62
     7
370
    15
100
AcDbLine
 10
-17.8477796542
 20
88.5774826473
 30
0.0
 11
-17.0477810132
 21
88.5774826473
 31
0.0
  0
LINE
  5
21A
330
1F
100
AcDbEntity
  8
0
  6
Continuous
 62
     7
370
    15
100
AcDbLine
 10
-17.0477810132
 20
88.5774826473
 30
0.0
 11
-15.0477806854
 21
90.5774867004
 31
0.0
  0
LINE
  5
21B
330
1F
100
AcDbEntity
  8
0
  6
Continuous
 62
     7
370
    15
100
AcDbLine
 10
-15.0477806854
 20
121.5774824685
 30
0.0
 11
-17.0477810132
 21
123.5774827963
 31
0.0
  0
LINE
  5
21C
330
1F
100
AcDbEntity
  8
0
  6
Continuous
 62
     7
370
    15
100
AcDbLine
 10
-17.8477796542
 20
123.5774827963
 30
0.0
 11
-18.0477793145
 21
123.377483136
 31
0.0
  0
LINE
  5
21D
330
1F
100
AcDbEntity
  8
0
  6
Continuous
 62
     7
370
    15
100
AcDbLine
 10
-18.0477793145
 20
88.7774860328
 30
0.0
 11
-17.8477796542
 21
88.5774826473
 31
0.0
  0
LINE
  5
21E
330
1F
100
AcDbEntity
  8
0
  6
Continuous
 62
     7
370
    15
100
AcDbLine
 10
-23.0477782714
 20
114.0774821704
 30
0.0
 11
-25.0477823245
 21
114.0774821704
 31
0.0
  0
LINE
  5
21F
330
1F
100
AcDbEntity
  8
0
  6
Continuous
 62
     7
370
    15
100
AcDbLine
 10
-25.0477823245
 20
98.0774869984
 30
0.0
 11
-23.0477782714
 21
98.0774869984
 31
0.0
  0
LINE
  5
220
330
1F
100
AcDbEntity
  8
0
  6
Continuous
 62
     7
370
    15
100
AcDbLine
 10
-18.0477793145
 20
123.5774827963
 30
0.0
 11
-19.0477813411
 21
123.5774827963
 31
0.0
  0
LINE
  5
221
330
1F
100
AcDbEntity
  8
0
  6
Continuous
 62
     7
370
    15
100
AcDbLine
 10
-19.0477813411
 20
88.5774826473
 30
0.0
 11
-18.0477793145
 21
88.5774826473
 31
0.0
  0
LINE
  5
222
330
1F
100
AcDbEntity
  8
0
  6
Continuous
 62
     7
370
    15
100
AcDbLine
 10
-19.0477813411
 20
116.0774862236
 30
0.0
 11
-23.0477782714
 21
116.0774862236
 31
0.0
  0
LINE
  5
223
330
1F
100
AcDbEntity
  8
0
  6
Continuous
 62
     7
370
    15
100
AcDbLine
 10
-23.0477782714
 20
96.0774829453
 30
0.0
 11
-19.0477813411
 21
96.0774829453
 31
0.0
  0
LINE
  5
224
330
1F
100
AcDbEntity
  8
0
  6
Continuous
 62
     7
370
    15
100
AcDbLine
 10
-30.0477775562
 20
88.5774826473
 30
0.0
 11
-29.0477829802
 21
88.5774826473
 31
0.0
  0
LINE
  5
225
330
1F
100
AcDbEntity
  8
0
  6
Continuous
 62
     7
370
    15
100
AcDbLine
 10
-29.0477829802
 20
123.5774827963
 30
0.0
 11
-30.0477775562
 21
123.5774827963
 31
0.0
  0
LINE
  5
226
330
1F
100
AcDbEntity
  8
0
  6
Continuous
 62
     7
370
    15
100
AcDbLine
 10
-29.0477829802
 20
96.0774829453
 30
0.0
 11
-25.0477823245
 21
96.0774829453
 31
0.0
  0
LINE
  5
227
330
1F
100
AcDbEntity
  8
0
  6
Continuous
 62
     7
370
    15
100
AcDbLine
 10
-25.0477823245
 20
116.0774862236
 30
0.0
 11
-29.0477829802
 21
116.0774862236
 31
0.0
  0
LINE
  5
228
330
1F
100
AcDbEntity
  8
0
  6
Continuous
 62
     7
370
    15
100
AcDbLine
 10
-30.0477775562
 20
138.5774833923
 30
0.0
 11
-29.0477829802
 21
138.5774833923
 31
0.0
  0
LINE
  5
229
330
1F
100
AcDbEntity
  8
0
  6
Continuous
 62
     7
370
    15
100
AcDbLine
 10
-29.0477829802
 20
173.577484007
 30
0.0
 11
-30.0477775562
 21
173.577484007
 31
0.0
  0
LINE
  5
22A
330
1F
100
AcDbEntity
  8
0
  6
Continuous
 62
     7
370
    15
100
AcDbLine
 10
-29.0477829802
 20
146.0774836904
 30
0.0
 11
-25.0477823245
 21
146.0774836904
 31
0.0
  0
LINE
  5
22B
330
1F
100
AcDbEntity
  8
0
  6
Continuous
 62
     7
370
    15
100
AcDbLine
 10
-25.0477823245
 20
166.0774841746
 30
0.0
 11
-29.0477829802
 21
166.0774841746
 31
0.0
  0
LINE
  5
22C
330
1F
100
AcDbEntity
  8
0
  6
Continuous
 62
     7
370
    15
100
AcDbLine
 10
-18.0477793145
 20
173.577484007
 30
0.0
 11
-19.0477813411
 21
173.577484007
 31
0.0
  0
LINE
  5
22D
330
1F
100
AcDbEntity
  8
0
  6
Continuous
 62
     7
370
    15
100
AcDbLine
 10
-19.0477813411
 20
138.5774833923
 30
0.0
 11
-18.0477793145
 21
138.5774833923
 31
0.0
  0
LINE
  5
22E
330
1F
100
AcDbEntity
  8
0
  6
Continuous
 62
     7
370
    15
100
AcDbLine
 10
-19.0477813411
 20
166.0774841746
 30
0.0
 11
-23.0477782714
 21
166.0774841746
 31
0.0
  0
LINE
  5
22F
330
1F
100
AcDbEntity
  8
0
  6
Continuous
 62
     7
370
    15
100
AcDbLine
 10
-23.0477782714
 20
146.0774836904
 30
0.0
 11
-19.0477813411
 21
146.0774836904
 31
0.0
  0
LINE
  5
230
330
1F
100
AcDbEntity
  8
0
  6
Continuous
 62
     7
370
    15
100
AcDbLine
 10
-30.0477775562
 20
123.5774827963
 30
0.0
 11
-32.0477816093
 21
123.5774827963
 31
0.0
  0
LINE
  5
231
330
1F
100
AcDbEntity
  8
0
  6
Continuous
 62
     7
370
    15
100
AcDbLine
 10
-32.0477816093
 20
88.5774826473
 30
0.0
 11
-30.0477775562
 21
88.5774826473
 31
0.0
  0
LINE
  5
232
330
1F
100
AcDbEntity
  8
0
  6
Continuous
 62
     7
370
    15
100
AcDbLine
 10
-32.0477816093
 20
113.5774811572
 30
0.0
 11
-33.0477836358
 21
113.5774811572
 31
0.0
  0
LINE
  5
233
330
1F
100
AcDbEntity
  8
0
  6
Continuous
 62
     7
370
    15
100
AcDbLine
 10
-33.0477836358
 20
98.5774805611
 30
0.0
 11
-32.0477816093
 21
98.5774805611
 31
0.0
  0
LINE
  5
234
330
1F
100
AcDbEntity
  8
0
  6
Continuous
 62
     7
370
    15
100
AcDbLine
 10
-30.0477775562
 20
173.577484007
 30
0.0
 11
-32.0477816093
 21
173.577484007
 31
0.0
  0
LINE
  5
235
330
1F
100
AcDbEntity
  8
0
  6
Continuous
 62
     7
370
    15
100
AcDbLine
 10
-32.0477816093
 20
138.5774833923
 30
0.0
 11
-30.0477775562
 21
138.5774833923
 31
0.0
  0
LINE
  5
236
330
1F
100
AcDbEntity
  8
0
  6
Continuous
 62
     7
370
    15
100
AcDbLine
 10
-32.0477816093
 20
163.5774837649
 30
0.0
 11
-33.0477836358
 21
163.5774837649
 31
0.0
  0
LINE
  5
237
330
1F
100
AcDbEntity
  8
0
  6
Continuous
 62
     7
370
    15
100
AcDbLine
 10
-33.0477836358
 20
148.5774850315
 30
0.0
 11
-32.0477816093
 21
148.5774850315
 31
0.0
  0
ARC
  5
238
330
1F
100
AcDbEntity
  8
0
  6
Continuous
 62
     7
370
    15
100
AcDbCircle
 10
-68.2477800582
 20
100.3774838394
 30
0.0
 40
0.8000000000000114
100
AcDbArc
 50
180.0
 51
270.0
  0
ARC
  5
239
330
1F
100
AcDbEntity
  8
0
  6
Continuous
 62
     7
370
    15
100
AcDbCircle
 10
-68.2477800582
 20
111.7774838394
 30
0.0
 40
0.8000000000000114
100
AcDbArc
 50
90.0
 51
180.0
  0
LINE
  5
23A
330
1F
100
AcDbEntity
  8
0
  6
Continuous
 62
     7
370
    15
100
AcDbLine
 10
-68.2477834451
 20
99.5774825877
 30
0.0
 11
-67.6452028382
 21
99.5774825877
 31
0.0
  0
LINE
  5
23B
330
1F
100
AcDbEntity
  8
0
  6
Continuous
 62
     7
370
    15
100
AcDbLine
 10
-67.6454561579
 20
112.5774865812
 30
0.0
 11
-68.2477834451
 21
112.5774865812
 31
0.0
  0
LINE
  5
23C
330
1F
100
AcDbEntity
  8
0
  6
Continuous
 62
     7
370
    15
100
AcDbLine
 10
-68.2477834451
 20
149.5774833327
 30
0.0
 11
-67.6452028382
 21
149.5774833327
 31
0.0
  0
LINE
  5
23D
330
1F
100
AcDbEntity
  8
0
  6
Continuous
 62
     7
370
    15
100
AcDbLine
 10
-67.6454561579
 20
162.577483601
 30
0.0
 11
-68.2477834451
 21
162.577483601
 31
0.0
  0
ARC
  5
23E
330
1F
100
AcDbEntity
  8
0
  6
Continuous
 62
     7
370
    15
100
AcDbCircle
 10
-68.2477800582
 20
150.3774838394
 30
0.0
 40
0.8000000000000398
100
AcDbArc
 50
180.0
 51
270.0
  0
ARC
  5
23F
330
1F
100
AcDbEntity
  8
0
  6
Continuous
 62
     7
370
    15
100
AcDbCircle
 10
-68.2477800582
 20
161.7774838394
 30
0.0
 40
0.8000000000000114
100
AcDbArc
 50
90.0
 51
180.0
  0
CIRCLE
  5
240
330
1F
100
AcDbEntity
  8
0
  6
Continuous
 62
     7
370
    15
100
AcDbCircle
 10
-50.5477800582
 20
131.0774838394
 30
0.0
 40
9.999999999999996
  0
CIRCLE
  5
241
330
1F
100
AcDbEntity
  8
0
  6
Continuous
 62
     7
370
    15
100
AcDbCircle
 10
-50.5477800582
 20
131.0774838394
 30
0.0
 40
9.499999999999982
  0
LINE
  5
242
330
1F
100
AcDbEntity
  8
0
  6
Continuous
 62
     7
370
    15
100
AcDbLine
 10
-69.0477820861
 20
127.7679836219
 30
0.0
 11
-69.0477820861
 21
134.3869825667
 31
0.0
  0
LINE
  5
243
330
1F
100
AcDbEntity
  8
0
  6
Continuous
 62
     7
370
    15
100
AcDbLine
 10
-68.6491164195
 20
127.0774824387
 30
0.0
 11
-68.6491164195
 21
135.07748375
 31
0.0
  0
LINE
  5
244
330
1F
100
AcDbEntity
  8
0
  6
Continuous
 62
     7
370
    15
100
AcDbLine
 10
-33.5477771985
 20
81.0774823493
 30
0.0
 11
-67.5477790463
 21
81.0774823493
 31
0.0
  0
LINE
  5
245
330
1F
100
AcDbEntity
  8
0
  6
Continuous
 62
     7
370
    15
100
AcDbLine
 10
-68.0477800596
 20
81.5774833625
 30
0.0
 11
-33.0477836358
 21
81.5774833625
 31
0.0
  0
LINE
  5
246
330
1F
100
AcDbEntity
  8
0
  6
Continuous
 62
     7
370
    15
100
AcDbLine
 10
-33.0477836358
 20
180.5774838156
 30
0.0
 11
-68.0477800596
 21
180.5774838156
 31
0.0
  0
ARC
  5
247
330
1F
100
AcDbEntity
  8
0
  6
Continuous
 62
     7
370
    15
100
AcDbCircle
 10
-84.5791849776
 20
156.0779570208
 30
0.0
 40
18.15296807547613
100
AcDbArc
 50
335.653067773
 51
24.4015777173
  0
SPLINE
  5
248
330
1F
100
AcDbEntity
  8
0
  6
Continuous
 62
     7
370
    15
100
AcDbSpline
210
0.0
220
0.0
230
1.0
 70
     8
 71
     3
 72
    27
 73
    23
 74
     0
 42
0.000000001
 43
0.00000001
 40
0.0
 40
0.0
 40
0.0
 40
0.0
 40
0.049737197760291
 40
0.1009929747300119
 40
0.1507112092831775
 40
0.2017506320201031
 40
0.2538731849973926
 40
0.3073585030461091
 40
0.3620756429950095
 40
0.4185370854255251
 40
0.4704176725270054
 40
0.5240832330165084
 40
0.5718515140711344
 40
0.6209562214087594
 40
0.6698655914014957
 40
0.7199738002818761
 40
0.7732207903659422
 40
0.8279292704870613
 40
0.8823850824490982
 40
0.9386416462269084
 40
0.9894908615189694
 40
1.0
 40
1.0
 40
1.0
 40
1.0
 10
-33.04778363583011
 20
98.57748056111708
 30
0.0
 10
-33.05560739329663
 20
98.5956500326244
 30
0.0
 10
-33.07149378367835
 20
98.632543727071
 30
0.0
 10
-33.19617906833307
 20
98.92781261064826
 30
0.0
 10
-33.38284005104812
 20
99.39043681770671
 30
0.0
 10
-33.62132294252633
 20
100.0232847663923
 30
0.0
 10
-33.89358158678245
 20
100.8244447883308
 30
0.0
 10
-34.17473131715712
 20
101.786735919028
 30
0.0
 10
-34.43493149799126
 20
102.9032555511602
 30
0.0
 10
-34.63102065160027
 20
104.1139984323747
 30
0.0
 10
-34.73785882781219
 20
105.3830984102038
 30
0.0
 10
-34.74297100171277
 20
106.6083847788403
 30
0.0
 10
-34.65675504887286
 20
107.7924250829809
 30
0.0
 10
-34.49956528845468
 20
108.8913717264026
 30
0.0
 10
-34.28299036108025
 20
109.9318905238743
 30
0.0
 10
-34.0248624068375
 20
110.9014013470154
 30
0.0
 10
-33.74519760099001
 20
111.7806695784115
 30
0.0
 10
-33.47583797879079
 20
112.5254944955375
 30
0.0
 10
-33.24642857745592
 20
113.1057389118988
 30
0.0
 10
-33.10241634918948
 20
113.4501695047024
 30
0.0
 10
-33.03966702278736
 20
113.5964976767682
 30
0.0
 10
-33.05269066978153
 20
113.565994013132
 30
0.0
 10
-33.05492129204196
 20
113.5607695048846
 30
0.0
  0
SPLINE
  5
249
330
1F
100
AcDbEntity
  8
0
  6
Continuous
 62
     7
370
    15
100
AcDbSpline
210
0.0
220
0.0
230
1.0
 70
     8
 71
     3
 72
    27
 73
    23
 74
     0
 42
0.000000001
 43
0.00000001
 40
0.0
 40
0.0
 40
0.0
 40
0.0
 40
0.049737171130118
 40
0.1009929460876205
 40
0.1507112386315705
 40
0.20175061886897
 40
0.2538732199503033
 40
0.3073584181954918
 40
0.3620756224706052
 40
0.4185369899921092
 40
0.4704176517577495
 40
0.5240832101404298
 40
0.5718516434523072
 40
0.6209562011004253
 40
0.669865706978636
 40
0.7199737889527044
 40
0.7732207769463803
 40
0.8279293448802681
 40
0.8823850525175571
 40
0.9386416358294934
 40
0.9894908580173791
 40
1.0
 40
1.0
 40
1.0
 40
1.0
 10
-33.04778363583011
 20
148.5774850314654
 30
0.0
 10
-33.05560738937215
 20
148.5956514840813
 30
0.0
 10
-33.0714937757854
 20
148.6325390578607
 30
0.0
 10
-33.19617923745476
 20
148.9278089518265
 30
0.0
 10
-33.38283972213772
 20
149.3904388601
 30
0.0
 10
-33.6213233375186
 20
150.0232827156807
 30
0.0
 10
-33.89358092527878
 20
150.8244458761939
 30
0.0
 10
-34.17473201564476
 20
151.7867331267653
 30
0.0
 10
-34.43493101363454
 20
152.9032539726454
 30
0.0
 10
-34.63102096559086
 20
154.1139963588722
 30
0.0
 10
-34.73785877360276
 20
155.3830968018434
 30
0.0
 10
-34.74297081557949
 20
156.6083847386025
 30
0.0
 10
-34.65675562596463
 20
157.7924256676611
 30
0.0
 10
-34.49956446403256
 20
158.8913721153642
 30
0.0
 10
-34.28299125131804
 20
159.9318921127016
 30
0.0
 10
-34.0248619183395
 20
160.9014006746511
 30
0.0
 10
-33.74519733985913
 20
161.7806677636285
 30
0.0
 10
-33.475838562964
 20
162.5254988705163
 30
0.0
 10
-33.24642822632662
 20
163.1057342505723
 30
0.0
 10
-33.1024164242136
 20
163.4501673265608
 30
0.0
 10
-33.03966702137787
 20
163.5965012725006
 30
0.0
 10
-33.05269066926361
 20
163.5659935855011
 30
0.0
 10
-33.05492129204196
 20
163.5607683872975
 30
0.0
  0
ARC
  5
24A
330
1F
100
AcDbEntity
  8
0
  6
Continuous
 62
     7
370
    15
100
AcDbCircle
 10
-84.5791621361
 20
106.0779553544
 30
0.0
 40
18.15294688549245
100
AcDbArc
 50
335.6530407009
 51
24.4016047961
  0
LINE
  5
24B
330
1F
100
AcDbEntity
  8
0
  6
Continuous
 62
     7
370
    15
100
AcDbLine
 10
-67.5477790463
 20
181.0774838394
 30
0.0
 11
-33.5477771985
 21
181.0774838394
 31
0.0
  0
LINE
  5
24C
330
1F
100
AcDbEntity
  8
0
  6
Continuous
 62
     7
370
    15
100
AcDbLine
 10
-33.5477771985
 20
61.0774865216
 30
0.0
 11
-67.5477790463
 21
61.0774865216
 31
0.0
  0
LINE
  5
24D
330
1F
100
AcDbEntity
  8
0
  6
Continuous
 62
     7
370
    15
100
AcDbLine
 10
-68.0477800596
 20
61.5774875349
 30
0.0
 11
-33.0477836358
 21
61.5774875349
 31
0.0
  0
LINE
  5
24E
330
1F
100
AcDbEntity
  8
0
  6
Continuous
 62
     7
370
    15
100
AcDbLine
 10
-46.0477801788
 20
41.0774832433
 30
0.0
 11
-55.0477835166
 21
41.0774832433
 31
0.0
  0
LINE
  5
24F
330
1F
100
AcDbEntity
  8
0
  6
Continuous
 62
     7
370
    15
100
AcDbLine
 10
-15.0477806854
 20
156.0774834668
 30
0.0
 11
-15.0477806854
 21
140.5774837202
 31
0.0
  0
LINE
  5
250
330
1F
100
AcDbEntity
  8
0
  6
Continuous
 62
     7
370
    15
100
AcDbLine
 10
-15.0477806854
 20
171.5774841448
 30
0.0
 11
-15.0477806854
 21
156.0774834668
 31
0.0
  0
LINE
  5
251
330
1F
100
AcDbEntity
  8
0
  6
Continuous
 62
     7
370
    15
100
AcDbLine
 10
-17.0477810132
 20
156.0774834668
 30
0.0
 11
-17.0477810132
 21
173.577484007
 31
0.0
  0
LINE
  5
252
330
1F
100
AcDbEntity
  8
0
  6
Continuous
 62
     7
370
    15
100
AcDbLine
 10
-17.0477810132
 20
138.5774833923
 30
0.0
 11
-17.0477810132
 21
156.0774834668
 31
0.0
  0
LINE
  5
253
330
1F
100
AcDbEntity
  8
0
  6
Continuous
 62
     7
370
    15
100
AcDbLine
 10
-17.8477796542
 20
173.577484007
 30
0.0
 11
-17.8477796542
 21
138.5774833923
 31
0.0
  0
LINE
  5
254
330
1F
100
AcDbEntity
  8
0
  6
Continuous
 62
     7
370
    15
100
AcDbLine
 10
-17.8477796542
 20
123.5774827963
 30
0.0
 11
-17.8477796542
 21
88.5774826473
 31
0.0
  0
LINE
  5
255
330
1F
100
AcDbEntity
  8
0
  6
Continuous
 62
     7
370
    15
100
AcDbLine
 10
-17.0477810132
 20
123.5745025641
 30
0.0
 11
-17.0477810132
 21
123.5774827963
 31
0.0
  0
LINE
  5
256
330
1F
100
AcDbEntity
  8
0
  6
Continuous
 62
     7
370
    15
100
AcDbLine
 10
-17.0477810132
 20
88.5774826473
 30
0.0
 11
-17.0477810132
 21
123.5745025641
 31
0.0
  0
LINE
  5
257
330
1F
100
AcDbEntity
  8
0
  6
Continuous
 62
     7
370
    15
100
AcDbLine
 10
-15.0477806854
 20
121.5774824685
 30
0.0
 11
-15.0477806854
 21
90.5774867004
 31
0.0
  0
LINE
  5
258
330
1F
100
AcDbEntity
  8
0
  6
Continuous
 62
     7
370
    15
100
AcDbLine
 10
-18.0477793145
 20
123.5774827963
 30
0.0
 11
-18.0477793145
 21
88.5774826473
 31
0.0
  0
LINE
  5
259
330
1F
100
AcDbEntity
  8
0
  6
Continuous
 62
     7
370
    15
100
AcDbLine
 10
-19.0477813411
 20
123.5774827963
 30
0.0
 11
-19.0477813411
 21
88.5774826473
 31
0.0
  0
LINE
  5
25A
330
1F
100
AcDbEntity
  8
0
  6
Continuous
 62
     7
370
    15
100
AcDbLine
 10
-23.0477782714
 20
116.0774862236
 30
0.0
 11
-23.0477782714
 21
96.0774829453
 31
0.0
  0
LINE
  5
25B
330
1F
100
AcDbEntity
  8
0
  6
Continuous
 62
     7
370
    15
100
AcDbLine
 10
-29.0477829802
 20
89.1084706253
 30
0.0
 11
-29.0477829802
 21
123.5774827963
 31
0.0
  0
LINE
  5
25C
330
1F
100
AcDbEntity
  8
0
  6
Continuous
 62
     7
370
    15
100
AcDbLine
 10
-29.0477829802
 20
88.5774826473
 30
0.0
 11
-29.0477829802
 21
89.1084706253
 31
0.0
  0
LINE
  5
25D
330
1F
100
AcDbEntity
  8
0
  6
Continuous
 62
     7
370
    15
100
AcDbLine
 10
-30.0477775562
 20
89.1084706253
 30
0.0
 11
-30.0477775562
 21
123.5774827963
 31
0.0
  0
LINE
  5
25E
330
1F
100
AcDbEntity
  8
0
  6
Continuous
 62
     7
370
    15
100
AcDbLine
 10
-30.0477775562
 20
88.5774826473
 30
0.0
 11
-30.0477775562
 21
89.1084706253
 31
0.0
  0
LINE
  5
25F
330
1F
100
AcDbEntity
  8
0
  6
Continuous
 62
     7
370
    15
100
AcDbLine
 10
-25.0477823245
 20
96.3809003895
 30
0.0
 11
-25.0477823245
 21
116.0774862236
 31
0.0
  0
LINE
  5
260
330
1F
100
AcDbEntity
  8
0
  6
Continuous
 62
     7
370
    15
100
AcDbLine
 10
-25.0477823245
 20
96.0774829453
 30
0.0
 11
-25.0477823245
 21
96.3809003895
 31
0.0
  0
LINE
  5
261
330
1F
100
AcDbEntity
  8
0
  6
Continuous
 62
     7
370
    15
100
AcDbLine
 10
-29.0477829802
 20
139.108467645
 30
0.0
 11
-29.0477829802
 21
173.577484007
 31
0.0
  0
LINE
  5
262
330
1F
100
AcDbEntity
  8
0
  6
Continuous
 62
     7
370
    15
100
AcDbLine
 10
-29.0477829802
 20
138.5774833923
 30
0.0
 11
-29.0477829802
 21
139.108467645
 31
0.0
  0
LINE
  5
263
330
1F
100
AcDbEntity
  8
0
  6
Continuous
 62
     7
370
    15
100
AcDbLine
 10
-30.0477775562
 20
139.108467645
 30
0.0
 11
-30.0477775562
 21
173.577484007
 31
0.0
  0
LINE
  5
264
330
1F
100
AcDbEntity
  8
0
  6
Continuous
 62
     7
370
    15
100
AcDbLine
 10
-30.0477775562
 20
138.5774833923
 30
0.0
 11
-30.0477775562
 21
139.108467645
 31
0.0
  0
LINE
  5
265
330
1F
100
AcDbEntity
  8
0
  6
Continuous
 62
     7
370
    15
100
AcDbLine
 10
-25.0477823245
 20
146.3809048599
 30
0.0
 11
-25.0477823245
 21
166.0774841746
 31
0.0
  0
LINE
  5
266
330
1F
100
AcDbEntity
  8
0
  6
Continuous
 62
     7
370
    15
100
AcDbLine
 10
-25.0477823245
 20
146.0774836904
 30
0.0
 11
-25.0477823245
 21
146.3809048599
 31
0.0
  0
LINE
  5
267
330
1F
100
AcDbEntity
  8
0
  6
Continuous
 62
     7
370
    15
100
AcDbLine
 10
-18.0477793145
 20
173.577484007
 30
0.0
 11
-18.0477793145
 21
138.5774833923
 31
0.0
  0
LINE
  5
268
330
1F
100
AcDbEntity
  8
0
  6
Continuous
 62
     7
370
    15
100
AcDbLine
 10
-19.0477813411
 20
173.577484007
 30
0.0
 11
-19.0477813411
 21
138.5774833923
 31
0.0
  0
LINE
  5
269
330
1F
100
AcDbEntity
  8
0
  6
Continuous
 62
     7
370
    15
100
AcDbLine
 10
-23.0477782714
 20
166.0774841746
 30
0.0
 11
-23.0477782714
 21
146.0774836904
 31
0.0
  0
LINE
  5
26A
330
1F
100
AcDbEntity
  8
0
  6
Continuous
 62
     7
370
    15
100
AcDbLine
 10
-30.0477775562
 20
123.5774827963
 30
0.0
 11
-30.0477775562
 21
88.5774826473
 31
0.0
  0
LINE
  5
26B
330
1F
100
AcDbEntity
  8
0
  6
Continuous
 62
     7
370
    15
100
AcDbLine
 10
-32.0477816093
 20
123.5774827963
 30
0.0
 11
-32.0477816093
 21
88.5774826473
 31
0.0
  0
LINE
  5
26C
330
1F
100
AcDbEntity
  8
0
  6
Continuous
 62
     7
370
    15
100
AcDbLine
 10
-30.0477775562
 20
173.577484007
 30
0.0
 11
-30.0477775562
 21
138.5774833923
 31
0.0
  0
LINE
  5
26D
330
1F
100
AcDbEntity
  8
0
  6
Continuous
 62
     7
370
    15
100
AcDbLine
 10
-32.0477816093
 20
173.577484007
 30
0.0
 11
-32.0477816093
 21
138.5774833923
 31
0.0
  0
LINE
  5
26E
330
1F
100
AcDbEntity
  8
0
  6
Continuous
 62
     7
370
    15
100
AcDbLine
 10
-69.0477820861
 20
106.0438638395
 30
0.0
 11
-69.0477820861
 21
111.7774804896
 31
0.0
  0
LINE
  5
26F
330
1F
100
AcDbEntity
  8
0
  6
Continuous
 62
     7
370
    15
100
AcDbLine
 10
-69.0477820861
 20
100.3774812287
 30
0.0
 11
-69.0477820861
 21
106.0438638395
 31
0.0
  0
LINE
  5
270
330
1F
100
AcDbEntity
  8
0
  6
Continuous
 62
     7
370
    15
100
AcDbLine
 10
-69.0477820861
 20
150.3774838364
 30
0.0
 11
-69.0477820861
 21
161.7774830973
 31
0.0
  0
LINE
  5
271
330
1F
100
AcDbEntity
  8
0
  6
Continuous
 62
     8
370
    15
100
AcDbLine
 10
-58.0477821457
 20
44.077489323
 30
0.0
 11
-43.0477815497
 21
44.077489323
 31
0.0
  0
LINE
  5
272
330
1F
100
AcDbEntity
  8
0
  6
Continuous
 62
     8
370
    15
100
AcDbLine
 10
-68.2477834451
 20
106.039147622
 30
0.0
 11
-68.2477834451
 21
99.5774825877
 31
0.0
  0
LINE
  5
273
330
1F
100
AcDbEntity
  8
0
  6
Continuous
 62
     8
370
    15
100
AcDbLine
 10
-68.2477834451
 20
112.5774865812
 30
0.0
 11
-68.2477834451
 21
106.039147622
 31
0.0
  0
LINE
  5
274
330
1F
100
AcDbEntity
  8
0
  6
Continuous
 62
     8
370
    15
100
AcDbLine
 10
-68.2477834451
 20
162.577483601
 30
0.0
 11
-68.2477834451
 21
149.5774833327
 31
0.0
  0
LINE
  5
275
330
1F
100
AcDbEntity
  8
0
  6
Continuous
 62
     7
370
    15
100
AcDbLine
 10
433.0970884883
 20
141.0774847334
 30
0.0
 11
432.5970874751
 21
140.5774837202
 31
0.0
  0
LINE
  5
276
330
1F
100
AcDbEntity
  8
0
  6
Continuous
 62
     7
370
    15
100
AcDbLine
 10
432.5970874751
 20
121.5774824685
 30
0.0
 11
433.0970884883
 21
121.0774851805
 31
0.0
  0
LINE
  5
277
330
1F
100
AcDbEntity
  8
0
  6
Continuous
 62
     7
370
    15
100
AcDbLine
 10
597.097089293
 20
141.0774847334
 30
0.0
 11
592.5970876241
 21
141.0774847334
 31
0.0
  0
LINE
  5
278
330
1F
100
AcDbEntity
  8
0
  6
Continuous
 62
     7
370
    15
100
AcDbLine
 10
557.5970912004
 20
141.0774847334
 30
0.0
 11
472.5970903063
 21
141.0774847334
 31
0.0
  0
LINE
  5
279
330
1F
100
AcDbEntity
  8
0
  6
Continuous
 62
     7
370
    15
100
AcDbLine
 10
437.597086432
 20
141.0774847334
 30
0.0
 11
433.0970884883
 21
141.0774847334
 31
0.0
  0
LINE
  5
27A
330
1F
100
AcDbEntity
  8
0
  6
Continuous
 62
     7
370
    15
100
AcDbLine
 10
433.0970884883
 20
121.0774851805
 30
0.0
 11
437.597086432
 21
121.0774851805
 31
0.0
  0
LINE
  5
27B
330
1F
100
AcDbEntity
  8
0
  6
Continuous
 62
     7
370
    15
100
AcDbLine
 10
472.5970903063
 20
121.0774851805
 30
0.0
 11
557.5970912004
 21
121.0774851805
 31
0.0
  0
LINE
  5
27C
330
1F
100
AcDbEntity
  8
0
  6
Continuous
 62
     7
370
    15
100
AcDbLine
 10
592.5970876241
 20
121.0774851805
 30
0.0
 11
597.097089293
 21
121.0774851805
 31
0.0
  0
LINE
  5
27D
330
1F
100
AcDbEntity
  8
0
  6
Continuous
 62
     7
370
    15
100
AcDbLine
 10
597.097089293
 20
121.0774851805
 30
0.0
 11
597.5970828557
 21
121.5774824685
 31
0.0
  0
LINE
  5
27E
330
1F
100
AcDbEntity
  8
0
  6
Continuous
 62
     7
370
    15
100
AcDbLine
 10
597.5970828557
 20
140.5774837202
 30
0.0
 11
597.097089293
 21
141.0774847334
 31
0.0
  0
LINE
  5
27F
330
1F
100
AcDbEntity
  8
0
  6
Continuous
 62
     7
370
    15
100
AcDbLine
 10
557.5970912004
 20
81.5774833625
 30
0.0
 11
558.0970847631
 21
81.0774823493
 31
0.0
  0
LINE
  5
280
330
1F
100
AcDbEntity
  8
0
  6
Continuous
 62
     7
370
    15
100
AcDbLine
 10
592.0970940614
 20
81.0774823493
 30
0.0
 11
592.5970876241
 21
81.5774833625
 31
0.0
  0
LINE
  5
281
330
1F
100
AcDbEntity
  8
0
  6
Continuous
 62
     7
370
    15
100
AcDbLine
 10
557.5970912004
 20
121.0774851805
 30
0.0
 11
557.5970912004
 21
81.5774833625
 31
0.0
  0
LINE
  5
282
330
1F
100
AcDbEntity
  8
0
  6
Continuous
 62
     7
370
    15
100
AcDbLine
 10
557.5970912004
 20
180.5774838156
 30
0.0
 11
557.5970912004
 21
141.0774847334
 31
0.0
  0
LINE
  5
283
330
1F
100
AcDbEntity
  8
0
  6
Continuous
 62
     7
370
    15
100
AcDbLine
 10
592.5970876241
 20
141.0774847334
 30
0.0
 11
592.5970876241
 21
180.5774838156
 31
0.0
  0
LINE
  5
284
330
1F
100
AcDbEntity
  8
0
  6
Continuous
 62
     7
370
    15
100
AcDbLine
 10
592.5970876241
 20
81.5774833625
 30
0.0
 11
592.5970876241
 21
121.0774851805
 31
0.0
  0
LINE
  5
285
330
1F
100
AcDbEntity
  8
0
  6
Continuous
 62
     7
370
    15
100
AcDbLine
 10
592.5970876241
 20
180.5774838156
 30
0.0
 11
592.0970940614
 21
181.0774838394
 31
0.0
  0
LINE
  5
286
330
1F
100
AcDbEntity
  8
0
  6
Continuous
 62
     7
370
    15
100
AcDbLine
 10
558.0970847631
 20
181.0774838394
 30
0.0
 11
557.5970912004
 21
180.5774838156
 31
0.0
  0
LINE
  5
287
330
1F
100
AcDbEntity
  8
0
  6
Continuous
 62
     7
370
    15
100
AcDbLine
 10
437.597086432
 20
61.5774875349
 30
0.0
 11
438.0970874453
 21
61.0774865216
 31
0.0
  0
LINE
  5
288
330
1F
100
AcDbEntity
  8
0
  6
Continuous
 62
     7
370
    15
100
AcDbLine
 10
472.097089293
 20
61.0774865216
 30
0.0
 11
472.5970903063
 21
61.5774875349
 31
0.0
  0
LINE
  5
289
330
1F
100
AcDbEntity
  8
0
  6
Continuous
 62
     7
370
    15
100
AcDbLine
 10
437.597086432
 20
121.0774851805
 30
0.0
 11
437.597086432
 21
61.5774875349
 31
0.0
  0
LINE
  5
28A
330
1F
100
AcDbEntity
  8
0
  6
Continuous
 62
     7
370
    15
100
AcDbLine
 10
437.597086432
 20
180.5774838156
 30
0.0
 11
437.597086432
 21
141.0774847334
 31
0.0
  0
LINE
  5
28B
330
1F
100
AcDbEntity
  8
0
  6
Continuous
 62
     7
370
    15
100
AcDbLine
 10
472.5970903063
 20
141.0774847334
 30
0.0
 11
472.5970903063
 21
180.5774838156
 31
0.0
  0
LINE
  5
28C
330
1F
100
AcDbEntity
  8
0
  6
Continuous
 62
     7
370
    15
100
AcDbLine
 10
472.5970903063
 20
61.5774875349
 30
0.0
 11
472.5970903063
 21
121.0774851805
 31
0.0
  0
LINE
  5
28D
330
1F
100
AcDbEntity
  8
0
  6
Continuous
 62
     7
370
    15
100
AcDbLine
 10
472.5970903063
 20
180.5774838156
 30
0.0
 11
472.097089293
 21
181.0774838394
 31
0.0
  0
LINE
  5
28E
330
1F
100
AcDbEntity
  8
0
  6
Continuous
 62
     7
370
    15
100
AcDbLine
 10
438.0970874453
 20
181.0774838394
 30
0.0
 11
437.597086432
 21
180.5774838156
 31
0.0
  0
ARC
  5
28F
330
1F
100
AcDbEntity
  8
0
  6
Continuous
 62
     7
370
    15
100
AcDbCircle
 10
459.5970867272
 20
44.0774838394
 30
0.0
 40
3.0
100
AcDbArc
 50
270.0
 51
0.0
  0
ARC
  5
290
330
1F
100
AcDbEntity
  8
0
  6
Continuous
 62
     7
370
    15
100
AcDbCircle
 10
450.5970867272
 20
44.0774838394
 30
0.0
 40
3.0
100
AcDbArc
 50
180.0
 51
270.0
  0
LINE
  5
291
330
1F
100
AcDbEntity
  8
0
  6
Continuous
 62
     7
370
    15
100
AcDbLine
 10
447.5970843458
 20
61.0774865216
 30
0.0
 11
447.5970843458
 21
44.077489323
 31
0.0
  0
LINE
  5
292
330
1F
100
AcDbEntity
  8
0
  6
Continuous
 62
     7
370
    15
100
AcDbLine
 10
462.5970849419
 20
44.077489323
 30
0.0
 11
462.5970849419
 21
61.0774865216
 31
0.0
  0
LINE
  5
293
330
1F
100
AcDbEntity
  8
0
  6
Continuous
 62
     7
370
    15
100
AcDbLine
 10
432.5970874751
 20
121.5774824685
 30
0.0
 11
432.5970874751
 21
140.5774837202
 31
0.0
  0
LINE
  5
294
330
1F
100
AcDbEntity
  8
0
  6
Continuous
 62
     7
370
    15
100
AcDbLine
 10
433.0970884883
 20
141.0774847334
 30
0.0
 11
433.0970884883
 21
121.0774851805
 31
0.0
  0
LINE
  5
295
330
1F
100
AcDbEntity
  8
0
  6
Continuous
 62
     7
370
    15
100
AcDbLine
 10
597.097089293
 20
121.0774851805
 30
0.0
 11
597.097089293
 21
141.0774847334
 31
0.0
  0
LINE
  5
296
330
1F
100
AcDbEntity
  8
0
  6
Continuous
 62
     7
370
    15
100
AcDbLine
 10
597.5970828557
 20
140.5774837202
 30
0.0
 11
597.5970828557
 21
121.5774824685
 31
0.0
  0
CIRCLE
  5
297
330
1F
100
AcDbEntity
  8
0
  6
Continuous
 62
     7
370
    15
100
AcDbCircle
 10
455.0970867272
 20
131.0774838394
 30
0.0
 40
3.309500000000014
  0
CIRCLE
  5
298
330
1F
100
AcDbEntity
  8
0
  6
Continuous
 62
     7
370
    15
100
AcDbCircle
 10
455.0970867272
 20
131.0774838394
 30
0.0
 40
4.0
  0
LINE
  5
299
330
1F
100
AcDbEntity
  8
0
  6
Continuous
 62
     7
370
    15
100
AcDbLine
 10
456.2517905259
 20
129.0774827665
 30
0.0
 11
457.4064889574
 21
131.0774830943
 31
0.0
  0
LINE
  5
29A
330
1F
100
AcDbEntity
  8
0
  6
Continuous
 62
     7
370
    15
100
AcDbLine
 10
456.2517905259
 20
133.0774834221
 30
0.0
 11
457.4064889574
 21
131.0774830943
 31
0.0
  0
LINE
  5
29B
330
1F
100
AcDbEntity
  8
0
  6
Continuous
 62
     7
370
    15
100
AcDbLine
 10
453.9423862124
 20
133.0774834221
 30
0.0
 11
456.2517905259
 21
133.0774834221
 31
0.0
  0
LINE
  5
29C
330
1F
100
AcDbEntity
  8
0
  6
Continuous
 62
     7
370
    15
100
AcDbLine
 10
453.9423862124
 20
133.0774834221
 30
0.0
 11
452.7876877809
 21
131.0774830943
 31
0.0
  0
LINE
  5
29D
330
1F
100
AcDbEntity
  8
0
  6
Continuous
 62
     7
370
    15
100
AcDbLine
 10
453.9423862124
 20
129.0774827665
 30
0.0
 11
452.7876877809
 21
131.0774830943
 31
0.0
  0
LINE
  5
29E
330
1F
100
AcDbEntity
  8
0
  6
Continuous
 62
     7
370
    15
100
AcDbLine
 10
453.9423862124
 20
129.0774827665
 30
0.0
 11
456.2517905259
 21
129.0774827665
 31
0.0
  0
LINE
  5
29F
330
1F
100
AcDbEntity
  8
0
  6
Continuous
 62
     7
370
    15
100
AcDbLine
 10
576.2517803931
 20
129.0774827665
 30
0.0
 11
577.4064862752
 21
131.0774830943
 31
0.0
  0
LINE
  5
2A0
330
1F
100
AcDbEntity
  8
0
  6
Continuous
 62
     7
370
    15
100
AcDbLine
 10
576.2517803931
 20
133.0774834221
 30
0.0
 11
577.4064862752
 21
131.0774830943
 31
0.0
  0
LINE
  5
2A1
330
1F
100
AcDbEntity
  8
0
  6
Continuous
 62
     7
370
    15
100
AcDbLine
 10
573.9423835301
 20
133.0774834221
 30
0.0
 11
576.2517803931
 21
133.0774834221
 31
0.0
  0
LINE
  5
2A2
330
1F
100
AcDbEntity
  8
0
  6
Continuous
 62
     7
370
    15
100
AcDbLine
 10
573.9423835301
 20
133.0774834221
 30
0.0
 11
572.7876925492
 21
131.0774830943
 31
0.0
  0
LINE
  5
2A3
330
1F
100
AcDbEntity
  8
0
  6
Continuous
 62
     7
370
    15
100
AcDbLine
 10
573.9423835301
 20
129.0774827665
 30
0.0
 11
572.7876925492
 21
131.0774830943
 31
0.0
  0
LINE
  5
2A4
330
1F
100
AcDbEntity
  8
0
  6
Continuous
 62
     7
370
    15
100
AcDbLine
 10
573.9423835301
 20
129.0774827665
 30
0.0
 11
576.2517803931
 21
129.0774827665
 31
0.0
  0
CIRCLE
  5
2A5
330
1F
100
AcDbEntity
  8
0
  6
Continuous
 62
     7
370
    15
100
AcDbCircle
 10
575.0970867272
 20
131.0774838394
 30
0.0
 40
3.309499999999957
  0
CIRCLE
  5
2A6
330
1F
100
AcDbEntity
  8
0
  6
Continuous
 62
     7
370
    15
100
AcDbCircle
 10
575.0970867272
 20
131.0774838394
 30
0.0
 40
4.0
  0
LINE
  5
2A7
330
1F
100
AcDbEntity
  8
0
  6
Continuous
 62
     7
370
    15
100
AcDbLine
 10
592.0970940614
 20
81.0774823493
 30
0.0
 11
558.0970847631
 21
81.0774823493
 31
0.0
  0
LINE
  5
2A8
330
1F
100
AcDbEntity
  8
0
  6
Continuous
 62
     7
370
    15
100
AcDbLine
 10
557.5970912004
 20
81.5774833625
 30
0.0
 11
592.5970876241
 21
81.5774833625
 31
0.0
  0
SPLINE
  5
2A9
330
1F
100
AcDbEntity
  8
0
  6
Continuous
 62
     7
370
    15
100
AcDbSpline
210
0.0
220
0.0
230
1.0
 70
     8
 71
     3
 72
    28
 73
    24
 74
     0
 42
0.000000001
 43
0.00000001
 40
0.0
 40
0.0
 40
0.0
 40
0.0
 40
0.0474299991470252
 40
0.0963567562953794
 40
0.1437590048536657
 40
0.1923693512904296
 40
0.2432649741978588
 40
0.2953641899702447
 40
0.3515344861025764
 40
0.4095321313703839
 40
0.4533115752404673
 40
0.4983248868086537
 40
0.5421265392471991
 40
0.5872219538274192
 40
0.6310453836801575
 40
0.6758229993762733
 40
0.7266616227279143
 40
0.7786860008205789
 40
0.8350485244136345
 40
0.8932762506080911
 40
0.9455876155995759
 40
0.9998599340074074
 40
1.0
 40
1.0
 40
1.0
 40
1.0
 10
592.5970876240744
 20
121.0774851804771
 30
0.0
 10
592.5841493552084
 20
121.100043760313
 30
0.0
 10
592.5578645219293
 20
121.1458728056157
 30
0.0
 10
592.3512706039562
 20
121.5115213400411
 30
0.0
 10
592.040819799664
 20
122.0806180246424
 30
0.0
 10
591.6374616857357
 20
122.8599803398177
 30
0.0
 10
591.1643497069491
 20
123.8507785307927
 30
0.0
 10
590.6474035849744
 20
125.0724743141214
 30
0.0
 10
590.1371126996961
 20
126.5266035647525
 30
0.0
 10
589.744569293894
 20
128.0645560008113
 30
0.0
 10
589.5126919439149
 20
129.5886307810938
 30
0.0
 10
589.4346353862869
 20
131.0100650549807
 30
0.0
 10
589.5005990575264
 20
132.4469981902392
 30
0.0
 10
589.6998195350772
 20
133.8310319352701
 30
0.0
 10
590.0082810573175
 20
135.1504417031751
 30
0.0
 10
590.4073136097359
 20
136.426961741428
 30
0.0
 10
590.8777847455638
 20
137.6481959665484
 30
0.0
 10
591.3921633860847
 20
138.7961242253153
 30
0.0
 10
591.8865249912315
 20
139.785661082242
 30
0.0
 10
592.2888372724755
 20
140.5313149591335
 30
0.0
 10
592.5277569895303
 20
140.957304193673
 30
0.0
 10
592.6221061002867
 20
141.119821218656
 30
0.0
 10
592.5969586424708
 20
141.0772627348032
 30
0.0
 10
592.5968939089789
 20
141.0771531826057
 30
0.0
  0
SPLINE
  5
2AA
330
1F
100
AcDbEntity
  8
0
  6
Continuous
 62
     7
370
    15
100
AcDbSpline
210
0.0
220
0.0
230
1.0
 70
     8
 71
     3
 72
    28
 73
    24
 74
     0
 42
0.000000001
 43
0.00000001
 40
0.0
 40
0.0
 40
0.0
 40
0.0
 40
0.0474300106483305
 40
0.0963566854617212
 40
0.1437590287088183
 40
0.1923693778956525
 40
0.2432650741625072
 40
0.2953642928823419
 40
0.3515344978007374
 40
0.4095322512223054
 40
0.4533115856230401
 40
0.4983249903202958
 40
0.5421265088870743
 40
0.5872219895082499
 40
0.6310454218402447
 40
0.675823016928112
 40
0.7266615538510788
 40
0.7786859348869584
 40
0.8350484616686541
 40
0.8932763397317265
 40
0.9455876130822319
 40
0.9998599446962441
 40
1.0
 40
1.0
 40
1.0
 40
1.0
 10
557.5970912003531
 20
141.0774847334422
 30
0.0
 10
557.6100314686321
 20
141.0549242999398
 30
0.0
 10
557.6363203381325
 20
141.0090915336142
 30
0.0
 10
557.8428832021506
 20
140.6434490029245
 30
0.0
 10
558.1533654666031
 20
140.0743521693328
 30
0.0
 10
558.5567156104014
 20
139.2949899641333
 30
0.0
 10
559.029829320545
 20
138.3041874029137
 30
0.0
 10
559.5467743083188
 20
137.0824924088627
 30
0.0
 10
560.0570681109288
 20
135.6283652183768
 30
0.0
 10
560.4496060116717
 20
134.0904119115916
 30
0.0
 10
560.6814944375096
 20
132.5663373499654
 30
0.0
 10
560.7595162570193
 20
131.1449036202388
 30
0.0
 10
560.6935913995433
 20
129.7079688886851
 30
0.0
 10
560.494338950817
 20
128.3239388901697
 30
0.0
 10
560.1858793861965
 20
127.0045299500257
 30
0.0
 10
559.7868721373444
 20
125.7280025304452
 30
0.0
 10
559.3163880558141
 20
124.5067754973506
 30
0.0
 10
558.8020310250118
 20
123.3588408983637
 30
0.0
 10
558.3075911665352
 20
122.3693265432309
 30
0.0
 10
557.9055703111104
 20
121.6235858005252
 30
0.0
 10
557.6655760267652
 20
121.1978833363309
 30
0.0
 10
557.5739934856776
 20
121.0346610591611
 30
0.0
 10
557.5972102552529
 20
121.0777059355266
 30
0.0
 10
557.5972700142875
 20
121.0778167313136
 30
0.0
  0
LINE
  5
2AB
330
1F
100
AcDbEntity
  8
0
  6
Continuous
 62
     7
370
    15
100
AcDbLine
 10
592.5970876241
 20
180.5774838156
 30
0.0
 11
557.5970912004
 21
180.5774838156
 31
0.0
  0
SPLINE
  5
2AC
330
1F
100
AcDbEntity
  8
0
  6
Continuous
 62
     7
370
    15
100
AcDbSpline
210
0.0
220
0.0
230
1.0
 70
    11
 71
     3
 72
    46
 73
    42
 74
     0
 42
0.000000001
 43
0.00000001
 40
0.0
 40
0.0
 40
0.0
 40
0.0
 40
0.025245382841467
 40
0.050496329350521
 40
0.075682223883526
 40
0.1008765737254571
 40
0.1272791412985359
 40
0.153682061501366
 40
0.1814843163736604
 40
0.2092718049381655
 40
0.2356603635835313
 40
0.2620433396062654
 40
0.2862575957198094
 40
0.3104801853365193
 40
0.3352319690810898
 40
0.3599907341191739
 40
0.3869824059787929
 40
0.4139701045088579
 40
0.4416542765549472
 40
0.4693259423183751
 40
0.4951623308594769
 40
0.5209976666276531
 40
0.5454552578156562
 40
0.569919722531643
 40
0.595148815017585
 40
0.6203842755378443
 40
0.6475308356877708
 40
0.6746717566449644
 40
0.7023007315702953
 40
0.7299141306792799
 40
0.7552993876255281
 40
0.7806864882066595
 40
0.8047482891744125
 40
0.828819204812436
 40
0.8543836914557692
 40
0.8799520395157611
 40
0.9075516583256609
 40
0.9351418235402701
 40
0.9623021777795849
 40
0.9894528054842245
 40
1.0
 40
1.0
 40
1.0
 40
1.0
 10
575.0970894122138
 20
163.5774837648667
 30
0.0
 10
574.695629431057
 20
163.558355860587
 30
0.0
 10
573.8926209935594
 20
163.5200958365518
 30
0.0
 10
572.7247120479554
 20
163.2241426023359
 30
0.0
 10
571.6274756904869
 20
162.7611706217767
 30
0.0
 10
570.6074574371139
 20
162.1259552245295
 30
0.0
 10
569.6939958439248
 20
161.3259539816696
 30
0.0
 10
568.8950452719943
 20
160.3587071536731
 30
0.0
 10
568.2584406924396
 20
159.2444499195572
 30
0.0
 10
567.816069877637
 20
158.0276836275686
 30
0.0
 10
567.5950837035722
 20
156.7642834504419
 30
0.0
 10
567.5834267613511
 20
155.5342216010202
 30
0.0
 10
567.7680115229165
 20
154.3576884713171
 30
0.0
 10
568.1161898757954
 20
153.254291592412
 30
0.0
 10
568.6317761759313
 20
152.2195415722867
 30
0.0
 10
569.3184653872472
 20
151.2452442243589
 30
0.0
 10
570.1773614078618
 20
150.3715421477092
 30
0.0
 10
571.2077775400285
 20
149.6212731212471
 30
0.0
 10
572.3712120484472
 20
149.0514673896981
 30
0.0
 10
573.6075709422963
 20
148.689118004483
 30
0.0
 10
574.8653822736756
 20
148.5489075444717
 30
0.0
 10
576.0794847767324
 20
148.6090749475435
 30
0.0
 10
577.2408224280332
 20
148.8604544539815
 30
0.0
 10
578.3345160944662
 20
149.2778841695286
 30
0.0
 10
579.3514119509653
 20
149.8645322663931
 30
0.0
 10
580.2932156859392
 20
150.6226393985042
 30
0.0
 10
581.1167110640964
 20
151.5462997584826
 30
0.0
 10
581.7991878595326
 20
152.6286023047365
 30
0.0
 10
582.2903772039364
 20
153.8301270380662
 30
0.0
 10
582.5675070365788
 20
155.0818662492885
 30
0.0
 10
582.623801756204
 20
156.3321132901376
 30
0.0
 10
582.4895261356951
 20
157.5179200039086
 30
0.0
 10
582.1755118283874
 20
158.6389295845925
 30
0.0
 10
581.701746635499
 20
159.6951950129605
 30
0.0
 10
581.0595732814106
 20
160.6773600807554
 30
0.0
 10
580.238315916537
 20
161.5855605810575
 30
0.0
 10
579.2497315914153
 20
162.3656023128446
 30
0.0
 10
578.1149366567198
 20
162.9852836403521
 30
0.0
 10
576.8855741734615
 20
163.3959053478957
 30
0.0
 10
575.8635487732661
 20
163.5618630649371
 30
0.0
 10
575.2646506758705
 20
163.5740688098771
 30
0.0
 10
575.0970894122138
 20
163.5774837648667
 30
0.0
  0
SPLINE
  5
2AD
330
1F
100
AcDbEntity
  8
0
  6
Continuous
 62
     7
370
    15
100
AcDbSpline
210
0.0
220
0.0
230
1.0
 70
    11
 71
     3
 72
    46
 73
    42
 74
     0
 42
0.000000001
 43
0.00000001
 40
0.0
 40
0.0
 40
0.0
 40
0.0
 40
0.0252453715922901
 40
0.0504963347952874
 40
0.0756822125158428
 40
0.1008765605828671
 40
0.127279176531695
 40
0.1536820654298507
 40
0.1814843516253719
 40
0.2092718382322873
 40
0.2356603566462515
 40
0.2620433308103418
 40
0.2862575852180252
 40
0.3104801361909659
 40
0.3352319870501623
 40
0.3599907191195484
 40
0.3869823890776418
 40
0.4139701306461372
 40
0.4416543007419152
 40
0.4693259428667378
 40
0.4951623295877022
 40
0.5209976595767984
 40
0.5454552653960417
 40
0.5699197283885412
 40
0.595148799954413
 40
0.620384306633942
 40
0.6475308364231558
 40
0.6746717554683094
 40
0.7023007641499157
 40
0.7299140853244674
 40
0.7552994185513169
 40
0.7806865173439625
 40
0.8047483539964224
 40
0.8288192679386834
 40
0.8543837207350511
 40
0.8799520952611629
 40
0.9075516410596063
 40
0.9351418043305268
 40
0.9623021937088069
 40
0.989452807536684
 40
1.0
 40
1.0
 40
1.0
 40
1.0
 10
575.0970894122138
 20
113.5774811571635
 30
0.0
 10
574.6956292811566
 20
113.5583560397131
 30
0.0
 10
573.8926200994252
 20
113.52010156878
 30
0.0
 10
572.724713075745
 20
113.224139844312
 30
0.0
 10
571.6274753340163
 20
112.7611724385297
 30
0.0
 10
570.6074561849342
 20
112.1259564459398
 30
0.0
 10
569.6939976980958
 20
111.3259512065958
 30
0.0
 10
568.8950439333928
 20
110.3587063113612
 30
0.0
 10
568.2584413031632
 20
109.2444474580685
 30
0.0
 10
567.8160700668066
 20
108.027681665476
 30
0.0
 10
567.5950835498335
 20
106.7642820837589
 30
0.0
 10
567.583426903329
 20
105.5342209075522
 30
0.0
 10
567.7680110389244
 20
104.3576881273104
 30
0.0
 10
568.1161912676088
 20
103.2542915914602
 30
0.0
 10
568.63177452786
 20
102.2195397809001
 30
0.0
 10
569.3184660495426
 20
101.2452432646398
 30
0.0
 10
570.1773623852368
 20
100.3715416706565
 30
0.0
 10
571.2077764246328
 20
99.62126838056095
 30
0.0
 10
572.3712115166528
 20
99.05146215693584
 30
0.0
 10
573.6075716180812
 20
98.68911781524724
 30
0.0
 10
574.8653819949428
 20
98.54890824486945
 30
0.0
 10
576.0794854421712
 20
98.60906797592459
 30
0.0
 10
577.240822002339
 20
98.86045504994894
 30
0.0
 10
578.3345154529347
 20
99.27788358410592
 30
0.0
 10
579.3514137810583
 20
99.8645289266571
 30
0.0
 10
580.2932137845233
 20
100.622641024423
 30
0.0
 10
581.1167117942639
 20
101.5462987855542
 30
0.0
 10
581.7991882629119
 20
102.6286020933327
 30
0.0
 10
582.2903761874826
 20
103.8301266271565
 30
0.0
 10
582.5675077166559
 20
105.0818659667787
 30
0.0
 10
582.6238017233454
 20
106.3321132115861
 30
0.0
 10
582.4895259440434
 20
107.5179216645174
 30
0.0
 10
582.1755120848319
 20
108.6389319803388
 30
0.0
 10
581.7017472448351
 20
109.6951978970545
 30
0.0
 10
581.0595718727512
 20
110.6773611117648
 30
0.0
 10
580.2383182838413
 20
111.5855639531687
 30
0.0
 10
579.2497297605252
 20
112.3655994587383
 30
0.0
 10
578.1149357266085
 20
112.9852794939478
 30
0.0
 10
576.8855756863086
 20
113.3959108957864
 30
0.0
 10
575.8635485418149
 20
113.5618631722099
 30
0.0
 10
575.264650655117
 20
113.5740667951063
 30
0.0
 10
575.0970894122138
 20
113.5774811571635
 30
0.0
  0
LINE
  5
2AE
330
1F
100
AcDbEntity
  8
0
  6
Continuous
 62
     7
370
    15
100
AcDbLine
 10
558.0970847631
 20
181.0774838394
 30
0.0
 11
592.0970940614
 21
181.0774838394
 31
0.0
  0
LINE
  5
2AF
330
1F
100
AcDbEntity
  8
0
  6
Continuous
 62
     7
370
    15
100
AcDbLine
 10
472.097089293
 20
61.0774865216
 30
0.0
 11
438.0970874453
 21
61.0774865216
 31
0.0
  0
LINE
  5
2B0
330
1F
100
AcDbEntity
  8
0
  6
Continuous
 62
     7
370
    15
100
AcDbLine
 10
437.597086432
 20
61.5774875349
 30
0.0
 11
472.5970903063
 21
61.5774875349
 31
0.0
  0
SPLINE
  5
2B1
330
1F
100
AcDbEntity
  8
0
  6
Continuous
 62
     7
370
    15
100
AcDbSpline
210
0.0
220
0.0
230
1.0
 70
    11
 71
     3
 72
    46
 73
    42
 74
     0
 42
0.000000001
 43
0.00000001
 40
0.0
 40
0.0
 40
0.0
 40
0.0
 40
0.0252453688746473
 40
0.0504961782285575
 40
0.0756821955281559
 40
0.1008764106532924
 40
0.1272790237599011
 40
0.1536820068845969
 40
0.181484213945911
 40
0.209271697561527
 40
0.2356602401207031
 40
0.2620432114446886
 40
0.286257463245728
 40
0.3104800583016482
 40
0.3352318381301283
 40
0.359990567534258
 40
0.3869823414425002
 40
0.4139699562804
 40
0.4416541233960006
 40
0.4693257625419944
 40
0.4951623016675712
 40
0.5209976288755161
 40
0.5454550798003395
 40
0.5699196847071681
 40
0.5951487535571519
 40
0.6203842575201
 40
0.6475306827657027
 40
0.6746716803537657
 40
0.7023006276045337
 40
0.7299139791282548
 40
0.7552993024033713
 40
0.7806863807540276
 40
0.8047481731966181
 40
0.828819147635047
 40
0.854383597679423
 40
0.879952071865847
 40
0.9075514947746333
 40
0.9351416550754963
 40
0.9623020415299833
 40
0.9894526524351199
 40
1.0
 40
1.0
 40
1.0
 40
1.0
 10
455.0970846438423
 20
113.5774811571635
 30
0.0
 10
454.6956243900592
 20
113.5583563895317
 30
0.0
 10
453.8926173661819
 20
113.5201027328033
 30
0.0
 10
452.7247122121458
 20
113.2241365128742
 30
0.0
 10
451.627473159323
 20
112.7611765485759
 30
0.0
 10
450.6074577230902
 20
112.1259540871693
 30
0.0
 10
449.694001189199
 20
111.3259489979407
 30
0.0
 10
448.8950372202233
 20
110.3587108040854
 30
0.0
 10
448.2584452701342
 20
109.2444450239319
 30
0.0
 10
447.816074865727
 20
108.0276811552028
 30
0.0
 10
447.5950760961008
 20
106.7642827951936
 30
0.0
 10
447.5834236046717
 20
105.5342211124259
 30
0.0
 10
447.7680032670233
 20
104.3576864220169
 30
0.0
 10
448.1161979188421
 20
103.2542949789424
 30
0.0
 10
448.6317678040257
 20
102.2195379832242
 30
0.0
 10
449.3184616171248
 20
101.2452408719371
 30
0.0
 10
450.177364604746
 20
100.3715464634119
 30
0.0
 10
451.2077719441016
 20
99.62126578970135
 30
0.0
 10
452.3712071429586
 20
99.05146269614117
 30
0.0
 10
453.607569121754
 20
98.68911673923836
 30
0.0
 10
454.8653821936776
 20
98.54890885493566
 30
0.0
 10
456.0794859852831
 20
98.60906673587503
 30
0.0
 10
457.240821152363
 20
98.86045787886144
 30
0.0
 10
458.3345167092114
 20
99.27788139676166
 30
0.0
 10
459.3514157784048
 20
99.86452960428075
 30
0.0
 10
460.2932174978733
 20
100.6226383359893
 30
0.0
 10
461.1167042591923
 20
101.5463038562401
 30
0.0
 10
461.799195662582
 20
102.6285975203391
 30
0.0
 10
462.2903652235002
 20
103.8301299638378
 30
0.0
 10
462.5675169353181
 20
105.0818643580134
 30
0.0
 10
462.6237916596462
 20
106.3321133579939
 30
0.0
 10
462.4895287453112
 20
107.5179204541325
 30
0.0
 10
462.1755256533846
 20
108.6389352421804
 30
0.0
 10
461.701747081675
 20
109.6951954291133
 30
0.0
 10
461.0595762239277
 20
110.6773643102987
 30
0.0
 10
460.2383130590595
 20
111.5855589160867
 30
0.0
 10
459.2497325358598
 20
112.3656021534896
 30
0.0
 10
458.1149379483023
 20
112.9852790249592
 30
0.0
 10
456.8855784944923
 20
113.3959110099757
 30
0.0
 10
455.8635487506083
 20
113.5618636023894
 30
0.0
 10
455.264648371684
 20
113.5740668606888
 30
0.0
 10
455.0970846438423
 20
113.5774811571635
 30
0.0
  0
SPLINE
  5
2B2
330
1F
100
AcDbEntity
  8
0
  6
Continuous
 62
     7
370
    15
100
AcDbSpline
210
0.0
220
0.0
230
1.0
 70
    11
 71
     3
 72
    46
 73
    42
 74
     0
 42
0.000000001
 43
0.00000001
 40
0.0
 40
0.0
 40
0.0
 40
0.0
 40
0.0252453801238416
 40
0.0504961727837079
 40
0.0756822068956977
 40
0.1008764237957503
 40
0.1272789885266348
 40
0.1536820029559197
 40
0.1814841786939344
 40
0.2092716642671606
 40
0.2356602470577161
 40
0.2620432202403647
 40
0.2862574737472826
 40
0.3104801074469179
 40
0.3352318201606026
 40
0.359990582533445
 40
0.3869823583432402
 40
0.4139699301425191
 40
0.4416540992084513
 40
0.4693257619930684
 40
0.4951623029388127
 40
0.520997635925856
 40
0.5454550722193463
 40
0.5699196788496905
 40
0.5951487686197607
 40
0.6203842264234628
 40
0.6475306820298945
 40
0.6746716815300232
 40
0.7023005950244604
 40
0.729914024482537
 40
0.7552992714770566
 40
0.780686351616216
 40
0.8047481083740536
 40
0.8288190845082672
 40
0.8543835683996241
 40
0.8799520161200703
 40
0.9075515120406258
 40
0.9351416742851976
 40
0.9623020256007434
 40
0.9894526503826612
 40
0.9999999999999999
 40
0.9999999999999999
 40
0.9999999999999999
 40
0.9999999999999999
 10
455.0970846438423
 20
163.5774837648667
 30
0.0
 10
454.6956245399606
 20
163.5583562104023
 30
0.0
 10
453.8926182603192
 20
163.5200970005815
 30
0.0
 10
452.7247111843536
 20
163.2241392709092
 30
0.0
 10
451.6274735157885
 20
162.7611747318282
 30
0.0
 10
450.6074589752643
 20
162.1259528657661
 30
0.0
 10
449.6939993350226
 20
161.3259517730237
 30
0.0
 10
448.8950385588222
 20
160.3587116463979
 30
0.0
 10
448.2584446594134
 20
159.244447485417
 30
0.0
 10
447.8160746765529
 20
158.0276831172984
 30
0.0
 10
447.5950762498429
 20
156.7642841618744
 30
0.0
 10
447.5834234626918
 20
155.534221805894
 30
0.0
 10
447.7680037510158
 20
154.3576867660251
 30
0.0
 10
448.1161965270225
 20
153.2542949798972
 30
0.0
 10
448.6317694520915
 20
152.2195397746008
 30
0.0
 10
449.3184609548274
 20
151.2452418316545
 30
0.0
 10
450.1773636273585
 20
150.3715469404596
 30
0.0
 10
451.2077730595047
 20
149.6212705303878
 30
0.0
 10
452.371207674752
 20
149.0514679289028
 30
0.0
 10
453.6075684459668
 20
148.6891169284686
 30
0.0
 10
454.8653824724125
 20
148.5489081545236
 30
0.0
 10
456.07948531984
 20
148.6090737074905
 30
0.0
 10
457.2408215780648
 20
148.8604572828764
 30
0.0
 10
458.3345173507452
 20
149.2778819821822
 30
0.0
 10
459.351413948312
 20
149.8645329440151
 30
0.0
 10
460.2932193992835
 20
150.6226367100809
 30
0.0
 10
461.1167035290168
 20
151.54630482917
 30
0.0
 10
461.7991952591967
 20
152.6285977317444
 30
0.0
 10
462.2903662399485
 20
153.83013037475
 30
0.0
 10
462.5675162552454
 20
155.0818646405274
 30
0.0
 10
462.6237916925077
 20
156.3321134365463
 30
0.0
 10
462.489528936957
 20
157.5179187935203
 30
0.0
 10
462.1755253969376
 20
158.6389328464348
 30
0.0
 10
461.7017464723315
 20
159.6951925450151
 30
0.0
 10
461.0595776325901
 20
160.6773632792953
 30
0.0
 10
460.2383106917432
 20
161.5855555439711
 30
0.0
 10
459.2497343667603
 20
162.3656050075949
 30
0.0
 10
458.1149388784132
 20
162.9852831713665
 30
0.0
 10
456.8855769816453
 20
163.395905462078
 30
0.0
 10
455.8635489820633
 20
163.5618634951489
 30
0.0
 10
455.2646483924381
 20
163.5740688754616
 30
0.0
 10
455.0970846438423
 20
163.5774837648667
 30
0.0
  0
LINE
  5
2B3
330
1F
100
AcDbEntity
  8
0
  6
Continuous
 62
     7
370
    15
100
AcDbLine
 10
472.5970903063
 20
180.5774838156
 30
0.0
 11
437.597086432
 21
180.5774838156
 31
0.0
  0
SPLINE
  5
2B4
330
1F
100
AcDbEntity
  8
0
  6
Continuous
 62
     7
370
    15
100
AcDbSpline
210
0.0
220
0.0
230
1.0
 70
     8
 71
     3
 72
    28
 73
    24
 74
     0
 42
0.000000001
 43
0.00000001
 40
0.0
 40
0.0
 40
0.0
 40
0.0
 40
0.0474300152232826
 40
0.0963567042868161
 40
0.1437590010860245
 40
0.1923693790860196
 40
0.2432650415738147
 40
0.2953642598058743
 40
0.3515344641983802
 40
0.4095322170769485
 40
0.4533115510678024
 40
0.498324967752477
 40
0.5421264859091668
 40
0.5872219661081394
 40
0.6310453980298404
 40
0.6758230537035049
 40
0.7266615901504997
 40
0.7786859706993047
 40
0.8350484969533103
 40
0.8932762986367366
 40
0.9455875878216414
 40
0.9998599304513774
 40
1.0
 40
1.0
 40
1.0
 40
1.0
 10
437.5970864319817
 20
141.0774847334422
 30
0.0
 10
437.6100276219603
 20
141.0549242659239
 30
0.0
 10
437.6363183665452
 20
141.0090914259597
 30
0.0
 10
437.8428898936039
 20
140.643449496659
 30
0.0
 10
438.153356400616
 20
140.0743513835067
 30
0.0
 10
438.5567177621313
 20
139.2949907911855
 30
0.0
 10
439.0298227416949
 20
138.3041868519533
 30
0.0
 10
439.5467701658861
 20
137.0824924991219
 30
0.0
 10
440.0570629069753
 20
135.628365178246
 30
0.0
 10
440.4496022221408
 20
134.0904119687667
 30
0.0
 10
440.681487069099
 20
132.5663370758903
 30
0.0
 10
440.7595215330804
 20
131.1449039057577
 30
0.0
 10
440.6935935456987
 20
129.7079688088648
 30
0.0
 10
440.4943411118221
 20
128.3239390572927
 30
0.0
 10
440.1858844674646
 20
127.0045287730551
 30
0.0
 10
439.7868639853241
 20
125.7280037540638
 30
0.0
 10
439.3163870387066
 20
124.5067752999522
 30
0.0
 10
438.8020145135376
 20
123.3588409169255
 30
0.0
 10
438.3076342036148
 20
122.3693271535604
 30
0.0
 10
437.9053903992783
 20
121.623585702478
 30
0.0
 10
437.6662186652652
 20
121.1978815419835
 30
0.0
 10
437.5725491931462
 20
121.034665401212
 30
0.0
 10
437.5972129318843
 20
121.0777059354866
 30
0.0
 10
437.5972764217869
 20
121.0778167313136
 30
0.0
  0
SPLINE
  5
2B5
330
1F
100
AcDbEntity
  8
0
  6
Continuous
 62
     7
370
    15
100
AcDbSpline
210
0.0
220
0.0
230
1.0
 70
     8
 71
     3
 72
    28
 73
    24
 74
     0
 42
0.000000001
 43
0.00000001
 40
0.0
 40
0.0
 40
0.0
 40
0.0
 40
0.0474300110165825
 40
0.0963567112195238
 40
0.1437590076109853
 40
0.192369414461372
 40
0.2432649727289019
 40
0.2953642597168266
 40
0.3515345580178655
 40
0.4095321533238815
 40
0.4533115988842674
 40
0.4983249121903952
 40
0.5421265559226727
 40
0.5872220039882879
 40
0.6310454845765916
 40
0.6758230409952731
 40
0.7266615984376072
 40
0.7786860473796393
 40
0.8350485099241366
 40
0.8932762889224459
 40
0.9455876232840865
 40
0.999859943787345
 40
1.0
 40
1.0
 40
1.0
 40
1.0
 10
472.5970903062836
 20
121.0774851804771
 30
0.0
 10
472.5841471695617
 20
121.100043689022
 30
0.0
 10
472.5578524658361
 20
121.1458725565853
 30
0.0
 10
472.351288006598
 20
121.5115218939199
 30
0.0
 10
472.0408214673829
 20
122.0806183046847
 30
0.0
 10
471.6374528570353
 20
122.8599787163523
 30
0.0
 10
471.1643571878964
 20
123.8507805875796
 30
0.0
 10
470.6473961051784
 20
125.0724730801273
 30
0.0
 10
470.1371064249369
 20
126.526602761538
 30
0.0
 10
469.7445739051771
 20
128.0645568847773
 30
0.0
 10
469.5126933606149
 20
129.5886307390906
 30
0.0
 10
469.4346414534729
 20
131.010064792855
 30
0.0
 10
469.5005897266311
 20
132.4469989374589
 30
0.0
 10
469.6998224035606
 20
133.8310323933343
 30
0.0
 10
470.0082944855797
 20
135.150439797222
 30
0.0
 10
470.4073152414717
 20
136.4269618286757
 30
0.0
 10
470.8777777210877
 20
137.6481980387867
 30
0.0
 10
471.3921636769458
 20
138.7961222325288
 30
0.0
 10
471.8865479033941
 20
139.7856624745244
 30
0.0
 10
472.2887192675321
 20
140.5313145736744
 30
0.0
 10
472.5281744493039
 20
140.9573031613795
 30
0.0
 10
472.6211417471993
 20
141.1198241737172
 30
0.0
 10
472.5969588374444
 20
141.0772627347756
 30
0.0
 10
472.5968965911881
 20
141.0771531826057
 30
0.0
  0
LINE
  5
2B6
330
1F
100
AcDbEntity
  8
0
  6
Continuous
 62
     7
370
    15
100
AcDbLine
 10
438.0970874453
 20
181.0774838394
 30
0.0
 11
472.097089293
 21
181.0774838394
 31
0.0
  0
LINE
  5
2B7
330
1F
100
AcDbEntity
  8
0
  6
Continuous
 62
     7
370
    15
100
AcDbLine
 10
459.5970863128
 20
41.0774832433
 30
0.0
 11
450.5970904255
 21
41.0774832433
 31
0.0
  0
CIRCLE
  5
2B8
330
1F
100
AcDbEntity
  8
0
  6
Continuous
 62
     7
370
    15
100
AcDbCircle
 10
455.0970867272
 20
156.0774838394
 30
0.0
 40
5.69999999999999
  0
CIRCLE
  5
2B9
330
1F
100
AcDbEntity
  8
0
  6
Continuous
 62
     7
370
    15
100
AcDbCircle
 10
455.0970867272
 20
156.0774838394
 30
0.0
 40
6.500000000000044
  0
LINE
  5
2BA
330
1F
100
AcDbEntity
  8
0
  6
Continuous
 62
     7
370
    15
100
AcDbLine
 10
455.1195853972
 20
152.6019086903
 30
0.0
 11
458.1182727242
 21
154.3591821408
 31
0.0
  0
LINE
  5
2BB
330
1F
100
AcDbEntity
  8
0
  6
Continuous
 62
     7
370
    15
100
AcDbLine
 10
458.1182727242
 20
154.3591821408
 30
0.0
 11
458.0957719708
 21
157.8347569173
 31
0.0
  0
LINE
  5
2BC
330
1F
100
AcDbEntity
  8
0
  6
Continuous
 62
     7
370
    15
100
AcDbLine
 10
455.0745838904
 20
159.553060106
 30
0.0
 11
458.0957719708
 21
157.8347569173
 31
0.0
  0
LINE
  5
2BD
330
1F
100
AcDbEntity
  8
0
  6
Continuous
 62
     7
370
    15
100
AcDbLine
 10
452.0758965635
 20
157.7957866555
 30
0.0
 11
455.0745838904
 21
159.553060106
 31
0.0
  0
LINE
  5
2BE
330
1F
100
AcDbEntity
  8
0
  6
Continuous
 62
     7
370
    15
100
AcDbLine
 10
452.0758965635
 20
157.7957866555
 30
0.0
 11
452.0983973169
 21
154.3202100163
 31
0.0
  0
LINE
  5
2BF
330
1F
100
AcDbEntity
  8
0
  6
Continuous
 62
     7
370
    15
100
AcDbLine
 10
455.1195853972
 20
152.6019086903
 30
0.0
 11
452.0983973169
 21
154.3202100163
 31
0.0
  0
ARC
  5
2C0
330
1F
100
AcDbEntity
  8
0
  6
Continuous
 62
     7
370
    15
100
AcDbCircle
 10
455.0970867272
 20
156.0774838394
 30
0.0
 40
3.009999999999978
100
AcDbArc
 50
240.3709197161
 51
300.3709197161
  0
ARC
  5
2C1
330
1F
100
AcDbEntity
  8
0
  6
Continuous
 62
     7
370
    15
100
AcDbCircle
 10
455.0970867272
 20
156.0774838394
 30
0.0
 40
3.010000000000017
100
AcDbArc
 50
120.3709197161
 51
180.3709197161
  0
ARC
  5
2C2
330
1F
100
AcDbEntity
  8
0
  6
Continuous
 62
     7
370
    15
100
AcDbCircle
 10
455.0970867272
 20
156.0774838394
 30
0.0
 40
3.010000000000028
100
AcDbArc
 50
60.3709197161
 51
120.3709197161
  0
ARC
  5
2C3
330
1F
100
AcDbEntity
  8
0
  6
Continuous
 62
     7
370
    15
100
AcDbCircle
 10
455.0970867272
 20
156.0774838394
 30
0.0
 40
3.010000000000028
100
AcDbArc
 50
0.3709197161
 51
60.3709197161
  0
ARC
  5
2C4
330
1F
100
AcDbEntity
  8
0
  6
Continuous
 62
     7
370
    15
100
AcDbCircle
 10
455.0970867272
 20
156.0774838394
 30
0.0
 40
3.010000000000018
100
AcDbArc
 50
300.3709197161
 51
0.3709197161
  0
ARC
  5
2C5
330
1F
100
AcDbEntity
  8
0
  6
Continuous
 62
     7
370
    15
100
AcDbCircle
 10
455.0970867272
 20
156.0774838394
 30
0.0
 40
3.010000000000017
100
AcDbArc
 50
180.3709197161
 51
240.3709197161
  0
CIRCLE
  5
2C6
330
1F
100
AcDbEntity
  8
0
  6
Continuous
 62
     7
370
    15
100
AcDbCircle
 10
575.0970867272
 20
106.0774838394
 30
0.0
 40
5.700000000000025
  0
CIRCLE
  5
2C7
330
1F
100
AcDbEntity
  8
0
  6
Continuous
 62
     7
370
    15
100
AcDbCircle
 10
575.0970867272
 20
106.0774838394
 30
0.0
 40
6.499999999999963
  0
LINE
  5
2C8
330
1F
100
AcDbEntity
  8
0
  6
Continuous
 62
     7
370
    15
100
AcDbLine
 10
575.11759341
 20
109.5530723995
 30
0.0
 11
572.0973962569
 21
107.8330313629
 31
0.0
  0
LINE
  5
2C9
330
1F
100
AcDbEntity
  8
0
  6
Continuous
 62
     7
370
    15
100
AcDbLine
 10
572.0973962569
 20
107.8330313629
 30
0.0
 11
572.0768922591
 21
104.3574398225
 31
0.0
  0
LINE
  5
2CA
330
1F
100
AcDbEntity
  8
0
  6
Continuous
 62
     7
370
    15
100
AcDbLine
 10
575.0765854144
 20
102.6018967694
 30
0.0
 11
572.0768922591
 21
104.3574398225
 31
0.0
  0
LINE
  5
2CB
330
1F
100
AcDbEntity
  8
0
  6
Continuous
 62
     7
370
    15
100
AcDbLine
 10
578.0967825675
 20
104.321937806
 30
0.0
 11
575.0765854144
 21
102.6018967694
 31
0.0
  0
LINE
  5
2CC
330
1F
100
AcDbEntity
  8
0
  6
Continuous
 62
     7
370
    15
100
AcDbLine
 10
578.0967825675
 20
104.321937806
 30
0.0
 11
578.1172865653
 21
107.7975218957
 31
0.0
  0
LINE
  5
2CD
330
1F
100
AcDbEntity
  8
0
  6
Continuous
 62
     7
370
    15
100
AcDbLine
 10
575.11759341
 20
109.5530723995
 30
0.0
 11
578.1172865653
 21
107.7975218957
 31
0.0
  0
ARC
  5
2CE
330
1F
100
AcDbEntity
  8
0
  6
Continuous
 62
     7
370
    15
100
AcDbCircle
 10
575.0970867272
 20
106.0774838394
 30
0.0
 40
3.010000000000034
100
AcDbArc
 50
179.6620534906
 51
239.6620534907
  0
ARC
  5
2CF
330
1F
100
AcDbEntity
  8
0
  6
Continuous
 62
     7
370
    15
100
AcDbCircle
 10
575.0970867272
 20
106.0774838394
 30
0.0
 40
3.010000000000041
100
AcDbArc
 50
299.6620534907
 51
359.6620534906
  0
ARC
  5
2D0
330
1F
100
AcDbEntity
  8
0
  6
Continuous
 62
     7
370
    15
100
AcDbCircle
 10
575.0970867272
 20
106.0774838394
 30
0.0
 40
3.010000000000041
100
AcDbArc
 50
239.6620534907
 51
299.6620534907
  0
ARC
  5
2D1
330
1F
100
AcDbEntity
  8
0
  6
Continuous
 62
     7
370
    15
100
AcDbCircle
 10
575.0970867272
 20
106.0774838394
 30
0.0
 40
3.010000000000034
100
AcDbArc
 50
119.6620534906
 51
179.6620534906
  0
ARC
  5
2D2
330
1F
100
AcDbEntity
  8
0
  6
Continuous
 62
     7
370
    15
100
AcDbCircle
 10
575.0970867272
 20
106.0774838394
 30
0.0
 40
3.010000000000045
100
AcDbArc
 50
59.6620534906
 51
119.6620534906
  0
ARC
  5
2D3
330
1F
100
AcDbEntity
  8
0
  6
Continuous
 62
     7
370
    15
100
AcDbCircle
 10
575.0970867272
 20
106.0774838394
 30
0.0
 40
3.010000000000045
100
AcDbArc
 50
359.6620534906
 51
59.6620534906
  0
CIRCLE
  5
2D4
330
1F
100
AcDbEntity
  8
0
  6
Continuous
 62
     7
370
    15
100
AcDbCircle
 10
455.0970867272
 20
106.0774838394
 30
0.0
 40
5.700000000000001
  0
CIRCLE
  5
2D5
330
1F
100
AcDbEntity
  8
0
  6
Continuous
 62
     7
370
    15
100
AcDbCircle
 10
455.0970867272
 20
106.0774838394
 30
0.0
 40
6.500000000000025
  0
LINE
  5
2D6
330
1F
100
AcDbEntity
  8
0
  6
Continuous
 62
     7
370
    15
100
AcDbLine
 10
455.5098766112
 20
109.528530187
 30
0.0
 11
452.3147845292
 21
108.1604918307
 31
0.0
  0
LINE
  5
2D7
330
1F
100
AcDbEntity
  8
0
  6
Continuous
 62
     7
370
    15
100
AcDbLine
 10
452.3147845292
 20
108.1604918307
 30
0.0
 11
451.9020000124
 21
104.7094425028
 31
0.0
  0
LINE
  5
2D8
330
1F
100
AcDbEntity
  8
0
  6
Continuous
 62
     7
370
    15
100
AcDbLine
 10
454.684300127
 20
102.6264315313
 30
0.0
 11
451.9020000124
 21
104.7094425028
 31
0.0
  0
LINE
  5
2D9
330
1F
100
AcDbEntity
  8
0
  6
Continuous
 62
     7
370
    15
100
AcDbLine
 10
457.8793922091
 20
103.9944773382
 30
0.0
 11
454.684300127
 21
102.6264315313
 31
0.0
  0
LINE
  5
2DA
330
1F
100
AcDbEntity
  8
0
  6
Continuous
 62
     7
370
    15
100
AcDbLine
 10
457.8793922091
 20
103.9944773382
 30
0.0
 11
458.2921767259
 21
107.445526666
 31
0.0
  0
LINE
  5
2DB
330
1F
100
AcDbEntity
  8
0
  6
Continuous
 62
     7
370
    15
100
AcDbLine
 10
455.5098766112
 20
109.528530187
 30
0.0
 11
458.2921767259
 21
107.445526666
 31
0.0
  0
ARC
  5
2DC
330
1F
100
AcDbEntity
  8
0
  6
Continuous
 62
     7
370
    15
100
AcDbCircle
 10
455.0970867272
 20
106.0774838394
 30
0.0
 40
3.009999999999998
100
AcDbArc
 50
293.1791466708
 51
353.1791466708
  0
ARC
  5
2DD
330
1F
100
AcDbEntity
  8
0
  6
Continuous
 62
     7
370
    15
100
AcDbCircle
 10
455.0970867272
 20
106.0774838394
 30
0.0
 40
3.010000000000018
100
AcDbArc
 50
233.1791466708
 51
293.1791466708
  0
ARC
  5
2DE
330
1F
100
AcDbEntity
  8
0
  6
Continuous
 62
     7
370
    15
100
AcDbCircle
 10
455.0970867272
 20
106.0774838394
 30
0.0
 40
3.010000000000018
100
AcDbArc
 50
173.1791466708
 51
233.1791466708
  0
ARC
  5
2DF
330
1F
100
AcDbEntity
  8
0
  6
Continuous
 62
     7
370
    15
100
AcDbCircle
 10
455.0970867272
 20
106.0774838394
 30
0.0
 40
3.009999999999986
100
AcDbArc
 50
113.1791466708
 51
173.1791466708
  0
ARC
  5
2E0
330
1F
100
AcDbEntity
  8
0
  6
Continuous
 62
     7
370
    15
100
AcDbCircle
 10
455.0970867272
 20
106.0774838394
 30
0.0
 40
3.009999999999995
100
AcDbArc
 50
53.1791466708
 51
113.1791466708
  0
ARC
  5
2E1
330
1F
100
AcDbEntity
  8
0
  6
Continuous
 62
     7
370
    15
100
AcDbCircle
 10
455.0970867272
 20
106.0774838394
 30
0.0
 40
3.009999999999995
100
AcDbArc
 50
353.1791466708
 51
53.1791466708
  0
CIRCLE
  5
2E2
330
1F
100
AcDbEntity
  8
0
  6
Continuous
 62
     7
370
    15
100
AcDbCircle
 10
575.0970867272
 20
156.0774838394
 30
0.0
 40
5.699999999999976
  0
CIRCLE
  5
2E3
330
1F
100
AcDbEntity
  8
0
  6
Continuous
 62
     7
370
    15
100
AcDbCircle
 10
575.0970867272
 20
156.0774838394
 30
0.0
 40
6.499999999999925
  0
LINE
  5
2E4
330
1F
100
AcDbEntity
  8
0
  6
Continuous
 62
     7
370
    15
100
AcDbLine
 10
575.913613441
 20
152.6991071021
 30
0.0
 11
578.43110502
 21
155.095424301
 31
0.0
  0
LINE
  5
2E5
330
1F
100
AcDbEntity
  8
0
  6
Continuous
 62
     7
370
    15
100
AcDbLine
 10
578.43110502
 20
155.095424301
 30
0.0
 11
577.6145809913
 21
158.4738006657
 31
0.0
  0
LINE
  5
2E6
330
1F
100
AcDbEntity
  8
0
  6
Continuous
 62
     7
370
    15
100
AcDbLine
 10
574.2805653834
 20
159.4558598316
 30
0.0
 11
577.6145809913
 21
158.4738006657
 31
0.0
  0
LINE
  5
2E7
330
1F
100
AcDbEntity
  8
0
  6
Continuous
 62
     7
370
    15
100
AcDbLine
 10
571.7630589032
 20
157.0595426327
 30
0.0
 11
574.2805653834
 21
159.4558598316
 31
0.0
  0
LINE
  5
2E8
330
1F
100
AcDbEntity
  8
0
  6
Continuous
 62
     7
370
    15
100
AcDbLine
 10
571.7630589032
 20
157.0595426327
 30
0.0
 11
572.579582932
 21
153.681166268
 31
0.0
  0
LINE
  5
2E9
330
1F
100
AcDbEntity
  8
0
  6
Continuous
 62
     7
370
    15
100
AcDbLine
 10
575.913613441
 20
152.6991071021
 30
0.0
 11
572.579582932
 21
153.681166268
 31
0.0
  0
ARC
  5
2EA
330
1F
100
AcDbEntity
  8
0
  6
Continuous
 62
     7
370
    15
100
AcDbCircle
 10
575.0970867272
 20
156.0774838394
 30
0.0
 40
3.009999999999976
100
AcDbArc
 50
193.5872929349
 51
253.5872929349
  0
ARC
  5
2EB
330
1F
100
AcDbEntity
  8
0
  6
Continuous
 62
     7
370
    15
100
AcDbCircle
 10
575.0970867272
 20
156.0774838394
 30
0.0
 40
3.00999999999998
100
AcDbArc
 50
133.5872929349
 51
193.5872929349
  0
ARC
  5
2EC
330
1F
100
AcDbEntity
  8
0
  6
Continuous
 62
     7
370
    15
100
AcDbCircle
 10
575.0970867272
 20
156.0774838394
 30
0.0
 40
3.01000000000003
100
AcDbArc
 50
73.5872929349
 51
133.5872929349
  0
ARC
  5
2ED
330
1F
100
AcDbEntity
  8
0
  6
Continuous
 62
     7
370
    15
100
AcDbCircle
 10
575.0970867272
 20
156.0774838394
 30
0.0
 40
3.01000000000003
100
AcDbArc
 50
13.5872929349
 51
73.5872929349
  0
ARC
  5
2EE
330
1F
100
AcDbEntity
  8
0
  6
Continuous
 62
     7
370
    15
100
AcDbCircle
 10
575.0970867272
 20
156.0774838394
 30
0.0
 40
3.009999999999974
100
AcDbArc
 50
313.5872929349
 51
13.5872929349
  0
ARC
  5
2EF
330
1F
100
AcDbEntity
  8
0
  6
Continuous
 62
     7
370
    15
100
AcDbCircle
 10
575.0970867272
 20
156.0774838394
 30
0.0
 40
3.009999999999976
100
AcDbArc
 50
253.5872929349
 51
313.5872929349
  0
LINE
  5
2F0
330
1F
100
AcDbEntity
  8
0
  6
Continuous
 62
     8
370
    15
100
AcDbLine
 10
447.5970843458
 20
44.077489323
 30
0.0
 11
462.5970849419
 21
44.077489323
 31
0.0
  0
ENDSEC
  0
SECTION
  2
OBJECTS
  0
DICTIONARY
  5
C
330
0
100
AcDbDictionary
281
     1
  3
ACAD_GROUP
350
D
  3
ACAD_LAYOUT
350
1A
  3
ACAD_MLINESTYLE
350
17
  3
ACAD_PLOTSETTINGS
350
19
  3
ACAD_PLOTSTYLENAME
350
E
  3
ACAD_SCALELIST
350
47
  0
DICTIONARY
  5
D
102
{ACAD_REACTORS
330
C
102
}
330
C
100
AcDbDictionary
281
     1
  0
DICTIONARY
  5
1A
102
{ACAD_REACTORS
330
C
102
}
330
C
100
AcDbDictionary
281
     1
  3
Layout1
350
1E
  3
Layout2
350
26
  3
Model
350
22
  0
DICTIONARY
  5
17
102
{ACAD_REACTORS
330
C
102
}
330
C
100
AcDbDictionary
281
     1
  3
Standard
350
18
  0
DICTIONARY
  5
19
102
{ACAD_REACTORS
330
C
102
}
330
C
100
AcDbDictionary
281
     1
  0
ACDBDICTIONARYWDFLT
  5
E
102
{ACAD_REACTORS
330
C
102
}
330
C
100
AcDbDictionary
281
     1
  3
Normal
350
F
100
AcDbDictionaryWithDefault
340
F
  0
DICTIONARY
  5
47
102
{ACAD_REACTORS
330
C
102
}
330
C
100
AcDbDictionary
281
     1
  3
A0
350
48
  3
A1
350
49
  3
A2
350
4A
  3
A3
350
4B
  3
A4
350
4C
  3
A5
350
4D
  3
A6
350
4E
  3
A7
350
4F
  3
A8
350
50
  3
A9
350
51
  3
B0
350
52
  3
B1
350
53
  3
B2
350
54
  3
B3
350
55
  3
B4
350
56
  3
B5
350
57
  3
B6
350
58
  3
B7
350
59
  3
B8
350
5A
  3
B9
350
5B
  3
C0
350
5C
  3
C1
350
5D
  3
C2
350
5E
  3
C3
350
5F
  3
C4
350
60
  3
C5
350
61
  3
C6
350
62
  3
C7
350
63
  3
C8
350
64
  3
C9
350
65
  3
D0
350
66
  3
D1
350
67
  3
D2
350
68
  0
LAYOUT
  5
1E
102
{ACAD_REACTORS
330
1A
102
}
330
1A
100
AcDbPlotSettings
  1

  2
none_device
  4

  6

 40
0.0
 41
0.0
 42
0.0
 43
0.0
 44
0.0
 45
0.0
 46
0.0
 47
0.0
 48
0.0
 49
0.0
140
0.0
141
0.0
142
1.0
143
1.0
 70
   688
 72
     1
 73
     0
 74
     5
  7

 75
    16
147
1.0
148
0.0
149
0.0
100
AcDbLayout
  1
Layout1
 70
     1
 71
     1
 10
0.0
 20
0.0
 11
420.0
 21
297.0
 12
0.0
 22
0.0
 32
0.0
 14
1.0000000000E+20
 24
1.0000000000E+20
 34
1.0000000000E+20
 15
-1.0000000000E+20
 25
-1.0000000000E+20
 35
-1.0000000000E+20
146
0.0
 13
0.0
 23
0.0
 33
0.0
 16
1.0
 26
0.0
 36
0.0
 17
0.0
 27
1.0
 37
0.0
 76
     0
330
1B
  0
LAYOUT
  5
26
102
{ACAD_REACTORS
330
1A
102
}
330
1A
100
AcDbPlotSettings
  1

  2
none_device
  4

  6

 40
0.0
 41
0.0
 42
0.0
 43
0.0
 44
0.0
 45
0.0
 46
0.0
 47
0.0
 48
0.0
 49
0.0
140
0.0
141
0.0
142
1.0
143
1.0
 70
   688
 72
     1
 73
     0
 74
     5
  7

 75
    16
147
1.0
148
0.0
149
0.0
100
AcDbLayout
  1
Layout2
 70
     1
 71
     2
 10
0.0
 20
0.0
 11
0.0
 21
0.0
 12
0.0
 22
0.0
 32
0.0
 14
0.0
 24
0.0
 34
0.0
 15
0.0
 25
0.0
 35
0.0
146
0.0
 13
0.0
 23
0.0
 33
0.0
 16
1.0
 26
0.0
 36
0.0
 17
0.0
 27
1.0
 37
0.0
 76
     0
330
23
  0
LAYOUT
  5
22
102
{ACAD_REACTORS
330
1A
102
}
330
1A
100
AcDbPlotSettings
  1

  2
none_device
  4
Letter_(8.50_x_11.00_Inches)
  6

 40
6.35
 41
6.35
 42
6.35000508
 43
6.35000508
 44
215.9
 45
279.4
 46
0.0
 47
0.0
 48
0.0
 49
0.0
140
0.0
141
0.0
142
1.0
143
1.0
 70
  1712
 72
     1
 73
     0
 74
     0
  7

 75
     0
147
1.0
148
0.0
149
0.0
100
AcDbLayout
  1
Model
 70
     1
 71
     0
 10
0.0
 20
0.0
 11
279.4
 21
215.9
 12
0.0
 22
0.0
 32
0.0
 14
0.0
 24
0.0
 34
0.0
 15
279.4
 25
215.9
 35
0.0
146
0.0
 13
0.0
 23
0.0
 33
0.0
 16
1.0
 26
0.0
 36
0.0
 17
0.0
 27
1.0
 37
0.0
 76
     0
330
1F
331
29
  0
MLINESTYLE
  5
18
102
{ACAD_REACTORS
330
17
102
}
330
17
100
AcDbMlineStyle
  2
Standard
 70
     0
  3

 62
   256
 51
90.0
 52
90.0
 71
     2
 49
0.5
 62
   256
  6
BYLAYER
 49
-0.5
 62
   256
  6
BYLAYER
  0
ACDBPLACEHOLDER
  5
F
102
{ACAD_REACTORS
330
E
102
}
330
E
  0
SCALE
  5
48
102
{ACAD_REACTORS
330
47
102
}
330
47
100
AcDbScale
 70
     0
300
1:1
140
1.0
141
1.0
290
     1
  0
SCALE
  5
49
102
{ACAD_REACTORS
330
47
102
}
330
47
100
AcDbScale
 70
     0
300
1:2
140
1.0
141
2.0
290
     0
  0
SCALE
  5
4A
102
{ACAD_REACTORS
330
47
102
}
330
47
100
AcDbScale
 70
     0
300
1:4
140
1.0
141
4.0
290
     0
  0
SCALE
  5
4B
102
{ACAD_REACTORS
330
47
102
}
330
47
100
AcDbScale
 70
     0
300
1:5
140
1.0
141
5.0
290
     0
  0
SCALE
  5
4C
102
{ACAD_REACTORS
330
47
102
}
330
47
100
AcDbScale
 70
     0
300
1:8
140
1.0
141
8.0
290
     0
  0
SCALE
  5
4D
102
{ACAD_REACTORS
330
47
102
}
330
47
100
AcDbScale
 70
     0
300
1:10
140
1.0
141
10.0
290
     0
  0
SCALE
  5
4E
102
{ACAD_REACTORS
330
47
102
}
330
47
100
AcDbScale
 70
     0
300
1:16
140
1.0
141
16.0
290
     0
  0
SCALE
  5
4F
102
{ACAD_REACTORS
330
47
102
}
330
47
100
AcDbScale
 70
     0
300
1:20
140
1.0
141
20.0
290
     0
  0
SCALE
  5
50
102
{ACAD_REACTORS
330
47
102
}
330
47
100
AcDbScale
 70
     0
300
1:30
140
1.0
141
30.0
290
     0
  0
SCALE
  5
51
102
{ACAD_REACTORS
330
47
102
}
330
47
100
AcDbScale
 70
     0
300
1:40
140
1.0
141
40.0
290
     0
  0
SCALE
  5
52
102
{ACAD_REACTORS
330
47
102
}
330
47
100
AcDbScale
 70
     0
300
1:50
140
1.0
141
50.0
290
     0
  0
SCALE
  5
53
102
{ACAD_REACTORS
330
47
102
}
330
47
100
AcDbScale
 70
     0
300
1:100
140
1.0
141
100.0
290
     0
  0
SCALE
  5
54
102
{ACAD_REACTORS
330
47
102
}
330
47
100
AcDbScale
 70
     0
300
2:1
140
2.0
141
1.0
290
     0
  0
SCALE
  5
55
102
{ACAD_REACTORS
330
47
102
}
330
47
100
AcDbScale
 70
     0
300
4:1
140
4.0
141
1.0
290
     0
  0
SCALE
  5
56
102
{ACAD_REACTORS
330
47
102
}
330
47
100
AcDbScale
 70
     0
300
8:1
140
8.0
141
1.0
290
     0
  0
SCALE
  5
57
102
{ACAD_REACTORS
330
47
102
}
330
47
100
AcDbScale
 70
     0
300
10:1
140
10.0
141
1.0
290
     0
  0
SCALE
  5
58
102
{ACAD_REACTORS
330
47
102
}
330
47
100
AcDbScale
 70
     0
300
100:1
140
100.0
141
1.0
290
     0
  0
SCALE
  5
59
102
{ACAD_REACTORS
330
47
102
}
330
47
100
AcDbScale
 70
     0
300
1/128" = 1'-0"
140
0.0078125
141
12.0
290
     0
  0
SCALE
  5
5A
102
{ACAD_REACTORS
330
47
102
}
330
47
100
AcDbScale
 70
     0
300
1/64" = 1'-0"
140
0.015625
141
12.0
290
     0
  0
SCALE
  5
5B
102
{ACAD_REACTORS
330
47
102
}
330
47
100
AcDbScale
 70
     0
300
1/32" = 1'-0"
140
0.03125
141
12.0
290
     0
  0
SCALE
  5
5C
102
{ACAD_REACTORS
330
47
102
}
330
47
100
AcDbScale
 70
     0
300
1/16" = 1'-0"
140
0.0625
141
12.0
290
     0
  0
SCALE
  5
5D
102
{ACAD_REACTORS
330
47
102
}
330
47
100
AcDbScale
 70
     0
300
3/32" = 1'-0"
140
0.09375
141
12.0
290
     0
  0
SCALE
  5
5E
102
{ACAD_REACTORS
330
47
102
}
330
47
100
AcDbScale
 70
     0
300
1/8" = 1'-0"
140
0.125
141
12.0
290
     0
  0
SCALE
  5
5F
102
{ACAD_REACTORS
330
47
102
}
330
47
100
AcDbScale
 70
     0
300
3/16" = 1'-0"
140
0.1875
141
12.0
290
     0
  0
SCALE
  5
60
102
{ACAD_REACTORS
330
47
102
}
330
47
100
AcDbScale
 70
     0
300
1/4" = 1'-0"
140
0.25
141
12.0
290
     0
  0
SCALE
  5
61
102
{ACAD_REACTORS
330
47
102
}
330
47
100
AcDbScale
 70
     0
300
3/8" = 1'-0"
140
0.375
141
12.0
290
     0
  0
SCALE
  5
62
102
{ACAD_REACTORS
330
47
102
}
330
47
100
AcDbScale
 70
     0
300
1/2" = 1'-0"
140
0.5
141
12.0
290
     0
  0
SCALE
  5
63
102
{ACAD_REACTORS
330
47
102
}
330
47
100
AcDbScale
 70
     0
300
3/4" = 1'-0"
140
0.75
141
12.0
290
     0
  0
SCALE
  5
64
102
{ACAD_REACTORS
330
47
102
}
330
47
100
AcDbScale
 70
     0
300
1" = 1'-0"
140
1.0
141
12.0
290
     0
  0
SCALE
  5
65
102
{ACAD_REACTORS
330
47
102
}
330
47
100
AcDbScale
 70
     0
300
1-1/2" = 1'-0"
140
1.5
141
12.0
290
     0
  0
SCALE
  5
66
102
{ACAD_REACTORS
330
47
102
}
330
47
100
AcDbScale
 70
     0
300
3" = 1'-0"
140
3.0
141
12.0
290
     0
  0
SCALE
  5
67
102
{ACAD_REACTORS
330
47
102
}
330
47
100
AcDbScale
 70
     0
300
6" = 1'-0"
140
6.0
141
12.0
290
     0
  0
SCALE
  5
68
102
{ACAD_REACTORS
330
47
102
}
330
47
100
AcDbScale
 70
     0
300
1'-0" = 1'-0"
140
12.0
141
12.0
290
     0
  0
ENDSEC
  0
EOF
