  0
SECTION
  2
HEADER
  9
$ACADVER
  1
AC1015
  9
$ACADMAINTVER
 70
     6
  9
$DWGCODEPAGE
  3
ANSI_1252
  9
$INSBASE
 10
0.0
 20
0.0
 30
0.0
  9
$EXTMIN
 10
0.0
 20
0.0
 30
0.0
  9
$EXTMAX
 10
279.4
 20
215.9
 30
0.0
  9
$LIMMIN
 10
0.0
 20
0.0
  9
$LIMMAX
 10
279.4
 20
215.9
  9
$ORTHOMODE
 70
     0
  9
$REGENMODE
 70
     1
  9
$FILLMODE
 70
     1
  9
$QTEXTMODE
 70
     0
  9
$MIRRTEXT
 70
     1
  9
$LTSCALE
 40
1.0
  9
$ATTMODE
 70
     1
  9
$TEXTSIZE
 40
3.5
  9
$TRACEWID
 40
1.0
  9
$TEXTSTYLE
  7
Standard
  9
$CLAYER
  8
0
  9
$CELTYPE
  6
ByLayer
  9
$CECOLOR
 62
   256
  9
$CELTSCALE
 40
1.0
  9
$DISPSILH
 70
     0
  9
$DIMSCALE
 40
1.0
  9
$DIMASZ
 40
3.302
  9
$DIMEXO
 40
1.0
  9
$DIMDLI
 40
3.75
  9
$DIMRND
 40
0.0
  9
$DIMDLE
 40
0.0
  9
$DIMEXE
 40
1.0
  9
$DIMTP
 40
0.0
  9
$DIMTM
 40
0.0
  9
$DIMTXT
 40
3.5
  9
$DIMCEN
 40
2.5
  9
$DIMTSZ
 40
0.0
  9
$DIMTOL
 70
     0
  9
$DIMLIM
 70
     0
  9
$DIMTIH
 70
     1
  9
$DIMTOH
 70
     1
  9
$DIMSE1
 70
     0
  9
$DIMSE2
 70
     0
  9
$DIMTAD
 70
     1
  9
$DIMZIN
 70
     0
  9
$DIMBLK
  1

  9
$DIMASO
 70
     1
  9
$DIMSHO
 70
     1
  9
$DIMPOST
  1

  9
$DIMAPOST
  1

  9
$DIMALT
 70
     0
  9
$DIMALTD
 70
     3
  9
$DIMALTF
 40
0.0393700787
  9
$DIMLFAC
 40
5.0
  9
$DIMTOFL
 70
     1
  9
$DIMTVP
 40
0.0
  9
$DIMTIX
 70
     0
  9
$DIMSOXD
 70
     0
  9
$DIMSAH
 70
     0
  9
$DIMBLK1
  1

  9
$DIMBLK2
  1

  9
$DIMSTYLE
  2
ISO-25
  9
$DIMCLRD
 70
     0
  9
$DIMCLRE
 70
     0
  9
$DIMCLRT
 70
     0
  9
$DIMTFAC
 40
1.0
  9
$DIMGAP
 40
1.524
  9
$DIMJUST
 70
     0
  9
$DIMSD1
 70
     0
  9
$DIMSD2
 70
     0
  9
$DIMTOLJ
 70
     0
  9
$DIMTZIN
 70
     0
  9
$DIMALTZ
 70
     0
  9
$DIMALTTZ
 70
     0
  9
$DIMUPT
 70
     0
  9
$DIMDEC
 70
     2
  9
$DIMTDEC
 70
     2
  9
$DIMALTU
 70
     2
  9
$DIMALTTD
 70
     3
  9
$DIMTXSTY
  7
Standard
  9
$DIMAUNIT
 70
     0
  9
$DIMADEC
 70
     2
  9
$DIMALTRND
 40
0.0
  9
$DIMAZIN
 70
     0
  9
$DIMDSEP
 70
    44
  9
$DIMATFIT
 70
     3
  9
$DIMFRAC
 70
     0
  9
$DIMLDRBLK
  1

  9
$DIMLUNIT
 70
     2
  9
$DIMLWD
 70
    -2
  9
$DIMLWE
 70
    -2
  9
$DIMTMOVE
 70
     0
  9
$LUNITS
 70
     2
  9
$LUPREC
 70
     2
  9
$SKETCHINC
 40
1.0
  9
$FILLETRAD
 40
10.0
  9
$AUNITS
 70
     0
  9
$AUPREC
 70
     2
  9
$MENU
  1
.
  9
$ELEVATION
 40
0.0
  9
$PELEVATION
 40
0.0
  9
$THICKNESS
 40
0.0
  9
$LIMCHECK
 70
     0
  9
$CHAMFERA
 40
0.0
  9
$CHAMFERB
 40
0.0
  9
$CHAMFERC
 40
0.0
  9
$CHAMFERD
 40
0.0
  9
$SKPOLY
 70
     0
  9
$TDCREATE
 40
2458571.479611505
  9
$TDUCREATE
 40
2458571.479611505
  9
$TDUPDATE
 40
2458571.479613345
  9
$TDUUPDATE
 40
2458571.479613345
  9
$TDINDWG
 40
0.0000000116
  9
$TDUSRTIMER
 40
0.0000000116
  9
$USRTIMER
 70
     1
  9
$ANGBASE
 50
0.0
  9
$ANGDIR
 70
     0
  9
$PDMODE
 70
     0
  9
$PDSIZE
 40
-1.0
  9
$PLINEWID
 40
0.0
  9
$SPLFRAME
 70
     0
  9
$SPLINETYPE
 70
     6
  9
$SPLINESEGS
 70
     8
  9
$HANDSEED
  5
1DD
  9
$SURFTAB1
 70
     6
  9
$SURFTAB2
 70
     6
  9
$SURFTYPE
 70
     6
  9
$SURFU
 70
     6
  9
$SURFV
 70
     6
  9
$UCSBASE
  2

  9
$UCSNAME
  2

  9
$UCSORG
 10
0.0
 20
0.0
 30
0.0
  9
$UCSXDIR
 10
1.0
 20
0.0
 30
0.0
  9
$UCSYDIR
 10
0.0
 20
1.0
 30
0.0
  9
$UCSORTHOREF
  2

  9
$UCSORTHOVIEW
 70
     0
  9
$UCSORGTOP
 10
0.0
 20
0.0
 30
0.0
  9
$UCSORGBOTTOM
 10
0.0
 20
0.0
 30
0.0
  9
$UCSORGLEFT
 10
0.0
 20
0.0
 30
0.0
  9
$UCSORGRIGHT
 10
0.0
 20
0.0
 30
0.0
  9
$UCSORGFRONT
 10
0.0
 20
0.0
 30
0.0
  9
$UCSORGBACK
 10
0.0
 20
0.0
 30
0.0
  9
$PUCSBASE
  2

  9
$PUCSNAME
  2

  9
$PUCSORG
 10
0.0
 20
0.0
 30
0.0
  9
$PUCSXDIR
 10
1.0
 20
0.0
 30
0.0
  9
$PUCSYDIR
 10
0.0
 20
1.0
 30
0.0
  9
$PUCSORTHOREF
  2

  9
$PUCSORTHOVIEW
 70
     0
  9
$PUCSORGTOP
 10
0.0
 20
0.0
 30
0.0
  9
$PUCSORGBOTTOM
 10
0.0
 20
0.0
 30
0.0
  9
$PUCSORGLEFT
 10
0.0
 20
0.0
 30
0.0
  9
$PUCSORGRIGHT
 10
0.0
 20
0.0
 30
0.0
  9
$PUCSORGFRONT
 10
0.0
 20
0.0
 30
0.0
  9
$PUCSORGBACK
 10
0.0
 20
0.0
 30
0.0
  9
$USERI1
 70
     0
  9
$USERI2
 70
     0
  9
$USERI3
 70
     0
  9
$USERI4
 70
     0
  9
$USERI5
 70
     0
  9
$USERR1
 40
0.0
  9
$USERR2
 40
0.0
  9
$USERR3
 40
0.0
  9
$USERR4
 40
0.0
  9
$USERR5
 40
0.0
  9
$WORLDVIEW
 70
     1
  9
$SHADEDGE
 70
     3
  9
$SHADEDIF
 70
    70
  9
$TILEMODE
 70
     1
  9
$MAXACTVP
 70
    64
  9
$PINSBASE
 10
0.0
 20
0.0
 30
0.0
  9
$PLIMCHECK
 70
     0
  9
$PEXTMIN
 10
1.0000000000E+20
 20
1.0000000000E+20
 30
1.0000000000E+20
  9
$PEXTMAX
 10
-1.0000000000E+20
 20
-1.0000000000E+20
 30
-1.0000000000E+20
  9
$PLIMMIN
 10
0.0
 20
0.0
  9
$PLIMMAX
 10
420.0
 20
297.0
  9
$UNITMODE
 70
     0
  9
$VISRETAIN
 70
     1
  9
$PLINEGEN
 70
     0
  9
$PSLTSCALE
 70
     1
  9
$TREEDEPTH
 70
  3020
  9
$CMLSTYLE
  2
Standard
  9
$CMLJUST
 70
     0
  9
$CMLSCALE
 40
20.0
  9
$PROXYGRAPHICS
 70
     1
  9
$MEASUREMENT
 70
     1
  9
$CELWEIGHT
370
    -1
  9
$ENDCAPS
280
     0
  9
$JOINSTYLE
280
     0
  9
$LWDISPLAY
290
     1
  9
$INSUNITS
 70
     4
  9
$HYPERLINKBASE
  1

  9
$STYLESHEET
  1

  9
$XEDIT
290
     1
  9
$CEPSNTYPE
380
     0
  9
$PSTYLEMODE
290
     1
  9
$FINGERPRINTGUID
  2
{E1E10DB3-C019-4810-952A-BD3F93834302}
  9
$VERSIONGUID
  2
{FAEB1C32-E019-11D5-929B-00C0DF256EC4}
  9
$EXTNAMES
290
     1
  9
$PSVPSCALE
 40
0.0
  9
$OLESTARTUP
290
     0
  0
ENDSEC
  0
SECTION
  2
CLASSES
  0
CLASS
  1
ACDBDICTIONARYWDFLT
  2
AcDbDictionaryWithDefault
  3
ObjectDBX Classes
 90
        0
280
     0
281
     0
  0
CLASS
  1
VISUALSTYLE
  2
AcDbVisualStyle
  3
ObjectDBX Classes
 90
     4095
280
     0
281
     0
  0
CLASS
  1
MATERIAL
  2
AcDbMaterial
  3
ObjectDBX Classes
 90
     1153
280
     0
281
     0
  0
CLASS
  1
SCALE
  2
AcDbScale
  3
ObjectDBX Classes
 90
     1153
280
     0
281
     0
  0
CLASS
  1
TABLESTYLE
  2
AcDbTableStyle
  3
ObjectDBX Classes
 90
     4095
280
     0
281
     0
  0
CLASS
  1
MLEADERSTYLE
  2
AcDbMLeaderStyle
  3
ACDB_MLEADERSTYLE_CLASS
 90
     4095
280
     0
281
     0
  0
CLASS
  1
SUN
  2
AcDbSun
  3
SCENEOE
 90
     1153
280
     0
281
     0
  0
CLASS
  1
ACDBPLACEHOLDER
  2
AcDbPlaceHolder
  3
ObjectDBX Classes
 90
        0
280
     0
281
     0
  0
CLASS
  1
LAYOUT
  2
AcDbLayout
  3
ObjectDBX Classes
 90
        0
280
     0
281
     0
  0
ENDSEC
  0
SECTION
  2
TABLES
  0
TABLE
  2
VPORT
  5
8
330
0
100
AcDbSymbolTable
 70
     1
  0
VPORT
  5
29
330
8
100
AcDbSymbolTableRecord
100
AcDbViewportTableRecord
  2
*Active
 70
     0
 10
0.0
 20
0.0
 11
1.0
 21
1.0
 12
139.7
 22
107.95
 13
0.0
 23
0.0
 14
10.0
 24
10.0
 15
10.0
 25
10.0
 16
0.0
 26
0.0
 36
1.0
 17
0.0
 27
0.0
 37
0.0
 40
215.9
 41
1.2941176471
 42
50.0
 43
0.0
 44
0.0
 50
0.0
 51
0.0
 71
     0
 72
  2000
 73
     1
 74
     3
 75
     0
 76
     0
 77
     0
 78
     0
281
     0
 65
     1
110
0.0
120
0.0
130
0.0
111
1.0
121
0.0
131
0.0
112
0.0
122
1.0
132
0.0
 79
     0
146
0.0
  0
ENDTAB
  0
TABLE
  2
LTYPE
  5
5
330
0
100
AcDbSymbolTable
 70
     6
  0
LTYPE
  5
14
330
5
100
AcDbSymbolTableRecord
100
AcDbLinetypeTableRecord
  2
ByBlock
 70
     0
  3

 72
    65
 73
     0
 40
0.0
  0
LTYPE
  5
15
330
5
100
AcDbSymbolTableRecord
100
AcDbLinetypeTableRecord
  2
ByLayer
 70
     0
  3

 72
    65
 73
     0
 40
0.0
  0
LTYPE
  5
16
330
5
100
AcDbSymbolTableRecord
100
AcDbLinetypeTableRecord
  2
Continuous
 70
     0
  3
Solid line
 72
    65
 73
     0
 40
0.0
  0
LTYPE
  5
6E
330
5
100
AcDbSymbolTableRecord
100
AcDbLinetypeTableRecord
  2
HIDDEN
 70
     0
  3
Hidden __ __ __ __ __ __ __ __ __ __ __ __ __ __
 72
    65
 73
     2
 40
1.905
 49
1.27
 74
     0
 49
-0.635
 74
     0
  0
LTYPE
  5
6F
330
5
100
AcDbSymbolTableRecord
100
AcDbLinetypeTableRecord
  2
PHANTOM
 70
     0
  3
Phantom ______  __  __  ______  __  __  ______
 72
    65
 73
     6
 40
12.7
 49
6.35
 74
     0
 49
-1.27
 74
     0
 49
1.27
 74
     0
 49
-1.27
 74
     0
 49
1.27
 74
     0
 49
-1.27
 74
     0
  0
LTYPE
  5
70
330
5
100
AcDbSymbolTableRecord
100
AcDbLinetypeTableRecord
  2
CENTER
 70
     0
  3
Center ____ _ ____ _ ____ _ ____ _ ____ _ ____
 72
    65
 73
     4
 40
10.16
 49
6.35
 74
     0
 49
-1.27
 74
     0
 49
1.27
 74
     0
 49
-1.27
 74
     0
  0
LTYPE
  5
71
330
5
100
AcDbSymbolTableRecord
100
AcDbLinetypeTableRecord
  2
CENTERX2
 70
     0
  3
Center (2x) ________  __  ________  __  _____
 72
    65
 73
     4
 40
20.32
 49
12.7
 74
     0
 49
-2.54
 74
     0
 49
2.54
 74
     0
 49
-2.54
 74
     0
  0
LTYPE
  5
72
330
5
100
AcDbSymbolTableRecord
100
AcDbLinetypeTableRecord
  2
DOT2
 70
     0
  3
Dot (.5x) ........................................
 72
    65
 73
     2
 40
0.635
 49
0.0
 74
     0
 49
-0.635
 74
     0
  0
ENDTAB
  0
TABLE
  2
LAYER
  5
2
330
0
100
AcDbSymbolTable
 70
     1
  0
LAYER
  5
10
330
2
100
AcDbSymbolTableRecord
100
AcDbLayerTableRecord
  2
0
 70
     0
 62
     7
  6
Continuous
370
    -3
390
F
  0
ENDTAB
  0
TABLE
  2
STYLE
  5
3
330
0
100
AcDbSymbolTable
 70
     1
  0
STYLE
  5
11
330
3
100
AcDbSymbolTableRecord
100
AcDbTextStyleTableRecord
  2
Standard
 70
     0
 40
0.0
 41
1.0
 50
0.0
 71
     0
 42
3.5
  3
txt
  4

  0
ENDTAB
  0
TABLE
  2
VIEW
  5
6
330
0
100
AcDbSymbolTable
 70
     0
  0
ENDTAB
  0
TABLE
  2
UCS
  5
7
330
0
100
AcDbSymbolTable
 70
     0
  0
ENDTAB
  0
TABLE
  2
APPID
  5
9
330
0
100
AcDbSymbolTable
 70
     1
  0
APPID
  5
12
330
9
100
AcDbSymbolTableRecord
100
AcDbRegAppTableRecord
  2
ACAD
 70
     0
  0
ENDTAB
  0
TABLE
  2
DIMSTYLE
  5
A
330
0
100
AcDbSymbolTable
 70
     1
100
AcDbDimStyleTable
  0
DIMSTYLE
105
27
330
A
100
AcDbSymbolTableRecord
100
AcDbDimStyleTableRecord
  2
ISO-25
 70
     0
 41
2.5
 42
0.625
 43
3.75
 44
1.25
 73
     0
 74
     0
 77
     1
 78
     8
140
2.5
141
2.5
143
0.0393700787
147
0.625
171
     3
172
     1
178
     0
271
     2
272
     2
274
     3
278
    44
283
     0
284
     8
340
11
  0
ENDTAB
  0
TABLE
  2
BLOCK_RECORD
  5
1
330
0
100
AcDbSymbolTable
 70
     1
  0
BLOCK_RECORD
  5
1F
330
1
100
AcDbSymbolTableRecord
100
AcDbBlockTableRecord
  2
*Model_Space
340
22
  0
BLOCK_RECORD
  5
1B
330
1
100
AcDbSymbolTableRecord
100
AcDbBlockTableRecord
  2
*Paper_Space
340
1E
  0
BLOCK_RECORD
  5
23
330
1
100
AcDbSymbolTableRecord
100
AcDbBlockTableRecord
  2
*Paper_Space0
340
26
  0
ENDTAB
  0
ENDSEC
  0
SECTION
  2
BLOCKS
  0
BLOCK
  5
20
330
1F
100
AcDbEntity
  8
0
100
AcDbBlockBegin
  2
*Model_Space
 70
     0
 10
0.0
 20
0.0
 30
0.0
  3
*Model_Space
  1

  0
ENDBLK
  5
21
330
1F
100
AcDbEntity
  8
0
100
AcDbBlockEnd
  0
BLOCK
  5
1C
330
1B
100
AcDbEntity
 67
     1
  8
0
100
AcDbBlockBegin
  2
*Paper_Space
 70
     0
 10
0.0
 20
0.0
 30
0.0
  3
*Paper_Space
  1

  0
ENDBLK
  5
1D
330
1B
100
AcDbEntity
 67
     1
  8
0
100
AcDbBlockEnd
  0
BLOCK
  5
24
330
23
100
AcDbEntity
  8
0
100
AcDbBlockBegin
  2
*Paper_Space0
 70
     0
 10
0.0
 20
0.0
 30
0.0
  3
*Paper_Space0
  1

  0
ENDBLK
  5
25
330
23
100
AcDbEntity
  8
0
100
AcDbBlockEnd
  0
ENDSEC
  0
SECTION
  2
ENTITIES
  0
LWPOLYLINE
  5
73
330
1F
100
AcDbEntity
  8
0
  6
Continuous
 62
     7
370
    15
100
AcDbPolyline
 90
       12
 70
   128
 43
0.0
 10
210.4764746739
 20
315.4316238821
 10
212.7819823338
 20
315.4313705624
 10
215.040551336
 20
315.4306404055
 10
217.2061966969
 20
315.4294334114
 10
219.234855683
 20
315.4277793825
 10
221.0852222754
 20
315.4257081211
 10
222.7196263386
 20
315.4232643307
 10
224.1047935797
 20
315.4204927147
 10
225.2125161006
 20
315.417467779
 10
226.0202633454
 20
315.414234227
 10
226.5115844323
 20
315.4108516634
 10
226.676480682
 20
315.4074094952
  0
LINE
  5
74
330
1F
100
AcDbEntity
  8
0
  6
Continuous
 62
     7
370
    15
100
AcDbLine
 10
226.676480682
 20
-34.5922045648
 30
0.0
 11
226.676480682
 21
315.4074094952
 31
0.0
  0
LWPOLYLINE
  5
75
330
1F
100
AcDbEntity
  8
0
  6
Continuous
 62
     7
370
    15
100
AcDbPolyline
 90
       12
 70
   128
 43
0.0
 10
226.676480682
 20
-34.5922045648
 10
226.5115844323
 20
-34.5887549459
 10
226.0202633454
 20
-34.5853798329
 10
225.2125161006
 20
-34.5821462809
 10
224.1047935797
 20
-34.5791138946
 10
222.7196263386
 20
-34.5763497292
 10
221.0852222754
 20
-34.5739059388
 10
219.234855683
 20
-34.5718346774
 10
217.2061966969
 20
-34.5701806485
 10
215.040551336
 20
-34.5689736545
 10
212.7819823338
 20
-34.568236047
 10
210.4764746739
 20
-34.5679901778
  0
LINE
  5
76
330
1F
100
AcDbEntity
  8
0
  6
Continuous
 62
     7
370
    15
100
AcDbLine
 10
210.4764746739
 20
-34.5679901778
 30
0.0
 11
210.4764746739
 21
315.4316238821
 31
0.0
  0
LINE
  5
77
330
1F
100
AcDbEntity
  8
0
  6
Continuous
 62
     7
370
    15
100
AcDbLine
 10
210.4764746739
 20
-34.5697857677
 30
0.0
 11
210.4764746739
 21
-34.5679901778
 31
0.0
  0
LINE
  5
78
330
1F
100
AcDbEntity
  8
0
  6
Continuous
 62
     7
370
    15
100
AcDbLine
 10
225.4764752699
 20
-34.5922045648
 30
0.0
 11
226.676480682
 21
-34.5922045648
 31
0.0
  0
LWPOLYLINE
  5
79
330
1F
100
AcDbEntity
  8
0
  6
Continuous
 62
     7
370
    15
100
AcDbPolyline
 90
       11
 70
   128
 43
0.0
 10
225.4764752699
 20
-34.5922045648
 10
225.2918051793
 20
-34.5886953413
 10
224.7423248602
 20
-34.5852755248
 10
223.8415794684
 20
-34.5820270717
 10
222.6117270304
 20
-34.5790244877
 10
221.0830765082
 20
-34.5763497292
 10
219.2932533337
 20
-34.574062401
 10
217.2863351418
 20
-34.5722295582
 10
215.111734183
 20
-34.5708810031
 10
212.8229903294
 20
-34.5700614392
 10
210.4764746739
 20
-34.5697857677
  0
LINE
  5
7A
330
1F
100
AcDbEntity
  8
0
  6
Continuous
 62
     7
370
    15
100
AcDbLine
 10
-32.1235192703
 20
315.4316238821
 30
0.0
 11
-32.1235192703
 21
-34.5679901778
 31
0.0
  0
LINE
  5
7B
330
1F
100
AcDbEntity
  8
0
  6
Continuous
 62
     7
370
    15
100
AcDbLine
 10
210.4764746739
 20
315.4316238821
 30
0.0
 11
-32.1235192703
 21
315.4316238821
 31
0.0
  0
LINE
  5
7C
330
1F
100
AcDbEntity
  8
0
  6
Continuous
 62
     7
370
    15
100
AcDbLine
 10
-32.1235192703
 20
-34.5679901778
 30
0.0
 11
210.4764746739
 21
-34.5679901778
 31
0.0
  0
ARC
  5
7D
330
1F
100
AcDbEntity
  8
0
  6
Continuous
 62
     7
370
    15
100
AcDbCircle
 10
89.1764957625
 20
26.9319625265
 30
0.0
 40
3.500017703153323
100
AcDbArc
 50
180.000356641
 51
269.9999482777
  0
ARC
  5
7E
330
1F
100
AcDbEntity
  8
0
  6
Continuous
 62
     7
370
    15
100
AcDbCircle
 10
89.1764765996
 20
26.9319455679
 30
0.0
 40
3.500000744629208
100
AcDbArc
 50
270.0002619794
 51
359.9999209726
  0
LINE
  5
7F
330
1F
100
AcDbEntity
  8
0
  6
Continuous
 62
     7
370
    15
100
AcDbLine
 10
92.6764773442
 20
26.9319407404
 30
0.0
 11
92.6764773442
 21
117.9318420351
 31
0.0
  0
ARC
  5
80
330
1F
100
AcDbEntity
  8
0
  6
Continuous
 62
     7
370
    15
100
AcDbCircle
 10
89.1764750494
 20
117.9318356574
 30
0.0
 40
3.50000229479363
100
AcDbArc
 50
0.0001044038
 51
89.9997126442
  0
ARC
  5
81
330
1F
100
AcDbEntity
  8
0
  6
Continuous
 62
     7
370
    15
100
AcDbCircle
 10
89.1764973127
 20
117.9318186989
 30
0.0
 40
3.500019253308793
100
AcDbArc
 50
90.0000770984
 51
179.9996179829
  0
LINE
  5
82
330
1F
100
AcDbEntity
  8
0
  6
Continuous
 62
     7
370
    15
100
AcDbLine
 10
85.6764780594
 20
117.9318420351
 30
0.0
 11
85.6764780594
 21
26.9319407404
 31
0.0
  0
LINE
  5
83
330
1F
100
AcDbEntity
  8
0
  6
Continuous
 62
     7
370
    15
100
AcDbLine
 10
-32.1235192703
 20
-34.5697857677
 30
0.0
 11
-32.1235192703
 21
-34.5679901778
 31
0.0
  0
LINE
  5
84
330
1F
100
AcDbEntity
  8
0
  6
Continuous
 62
     7
370
    15
100
AcDbLine
 10
-32.1235192703
 20
-34.5697857677
 30
0.0
 11
210.4764746739
 21
-34.5697857677
 31
0.0
  0
LWPOLYLINE
  5
85
330
1F
100
AcDbEntity
  8
0
  6
Continuous
 62
     7
370
    15
100
AcDbPolyline
 90
       12
 70
   128
 43
0.0
 10
-32.1235192703
 20
-34.5679901778
 10
-34.4290269302
 20
-34.568236047
 10
-36.6875959323
 20
-34.5689736545
 10
-38.8532412933
 20
-34.5701806485
 10
-40.8819151805
 20
-34.5718346774
 10
-42.7322519706
 20
-34.5739059388
 10
-44.366670935
 20
-34.5763497292
 10
-45.7518530773
 20
-34.5791138946
 10
-46.8595457958
 20
-34.5821462809
 10
-47.6673079418
 20
-34.5853798329
 10
-48.1586290286
 20
-34.5887549459
 10
-48.3234954761
 20
-34.5922045648
  0
LWPOLYLINE
  5
86
330
1F
100
AcDbEntity
  8
0
  6
Continuous
 62
     7
370
    15
100
AcDbPolyline
 90
       11
 70
   128
 43
0.0
 10
-32.1235192703
 20
-34.5697857677
 10
-34.4700349258
 20
-34.5700614392
 10
-36.7587638782
 20
-34.5708810031
 10
-38.9333797382
 20
-34.5722295582
 10
-40.9402979301
 20
-34.574062401
 10
-42.7301360057
 20
-34.5763497292
 10
-44.258786528
 20
-34.5790244877
 10
-45.4886389659
 20
-34.5820270717
 10
-46.3893843578
 20
-34.5852755248
 10
-46.9388199733
 20
-34.5886953413
 10
-47.1235347675
 20
-34.5922045648
  0
LINE
  5
87
330
1F
100
AcDbEntity
  8
0
  6
Continuous
 62
     7
370
    15
100
AcDbLine
 10
-47.1235347675
 20
-34.5922045648
 30
0.0
 11
-48.3234954761
 21
-34.5922045648
 31
0.0
  0
LINE
  5
88
330
1F
100
AcDbEntity
  8
0
  6
Continuous
 62
     7
370
    15
100
AcDbLine
 10
-48.3234954761
 20
-34.5922045648
 30
0.0
 11
-48.3234954761
 21
315.4074094952
 31
0.0
  0
LWPOLYLINE
  5
89
330
1F
100
AcDbEntity
  8
0
  6
Continuous
 62
     7
370
    15
100
AcDbPolyline
 90
       12
 70
   128
 43
0.0
 10
-48.3234954761
 20
315.4074094952
 10
-48.1586290286
 20
315.4108516634
 10
-47.6673079418
 20
315.414234227
 10
-46.8595457958
 20
315.417467779
 10
-45.7518530773
 20
315.4204927147
 10
-44.366670935
 20
315.4232643307
 10
-42.7322519706
 20
315.4257081211
 10
-40.8819151805
 20
315.4277793825
 10
-38.8532412933
 20
315.4294334114
 10
-36.6875959323
 20
315.4306404055
 10
-34.4290269302
 20
315.4313705624
 10
-32.1235192703
 20
315.4316238821
  0
LINE
  5
8A
330
1F
100
AcDbEntity
  8
0
  6
Continuous
 62
     7
370
    15
100
AcDbLine
 10
89.176492603
 20
121.4318379522
 30
0.0
 11
89.176492603
 21
121.4300423623
 31
0.0
  0
ARC
  5
8B
330
1F
100
AcDbEntity
  8
0
  6
Continuous
 62
     7
370
    15
100
AcDbCircle
 10
89.1764765996
 20
117.9300416177
 30
0.0
 40
3.500000744629208
100
AcDbArc
 50
0.0000790274
 51
89.9997380206
  0
ARC
  5
8C
330
1F
100
AcDbEntity
  8
0
  6
Continuous
 62
     7
370
    15
100
AcDbCircle
 10
89.1764957625
 20
117.9300246591
 30
0.0
 40
3.500017703153323
100
AcDbArc
 50
90.0000517223
 51
179.999643359
  0
LINE
  5
8D
330
1F
100
AcDbEntity
  8
0
  6
Continuous
 62
     7
370
    15
100
AcDbLine
 10
226.676480682
 20
-34.7114883601
 30
0.0
 11
226.676480682
 21
-34.5922045648
 31
0.0
  0
LINE
  5
8E
330
1F
100
AcDbEntity
  8
0
  6
Continuous
 62
     7
370
    15
100
AcDbLine
 10
225.4764752699
 20
-34.7114883601
 30
0.0
 11
226.676480682
 21
-34.7114883601
 31
0.0
  0
LINE
  5
8F
330
1F
100
AcDbEntity
  8
0
  6
Continuous
 62
     7
370
    15
100
AcDbLine
 10
225.4764752699
 20
-34.7114883601
 30
0.0
 11
225.4764752699
 21
-34.5922045648
 31
0.0
  0
LINE
  5
90
330
1F
100
AcDbEntity
  8
0
  6
Continuous
 62
     7
370
    15
100
AcDbLine
 10
-47.1235347675
 20
-34.5922045648
 30
0.0
 11
-47.1235347675
 21
-34.7114883601
 31
0.0
  0
LINE
  5
91
330
1F
100
AcDbEntity
  8
0
  6
Continuous
 62
     7
370
    15
100
AcDbLine
 10
-48.3234954761
 20
-34.7114883601
 30
0.0
 11
-47.1235347675
 21
-34.7114883601
 31
0.0
  0
LINE
  5
92
330
1F
100
AcDbEntity
  8
0
  6
Continuous
 62
     7
370
    15
100
AcDbLine
 10
-48.3234954761
 20
-34.5922045648
 30
0.0
 11
-48.3234954761
 21
-34.7114883601
 31
0.0
  0
LINE
  5
93
330
1F
100
AcDbEntity
  8
0
  6
Continuous
 62
     7
370
    15
100
AcDbLine
 10
-114.048497946
 20
288.5384998978
 30
0.0
 11
-115.0862297127
 21
288.5384998978
 31
0.0
  0
LINE
  5
94
330
1F
100
AcDbEntity
  8
0
  6
Continuous
 62
     7
370
    15
100
AcDbLine
 10
-115.1161214421
 20
268.5385040701
 30
0.0
 11
-114.048497946
 21
268.5385040701
 31
0.0
  0
LINE
  5
95
330
1F
100
AcDbEntity
  8
0
  6
Continuous
 62
     7
370
    15
100
AcDbLine
 10
-114.048497946
 20
8.5384987057
 30
0.0
 11
-115.5047586272
 21
8.5384987057
 31
0.0
  0
LINE
  5
96
330
1F
100
AcDbEntity
  8
0
  6
Continuous
 62
     7
370
    15
100
AcDbLine
 10
-115.5346503565
 20
-11.461497122
 30
0.0
 11
-114.048497946
 21
-11.461497122
 31
0.0
  0
LINE
  5
97
330
1F
100
AcDbEntity
  8
0
  6
Continuous
 62
     7
370
    15
100
AcDbLine
 10
-114.048497946
 20
278.5384945334
 30
0.0
 11
-114.048497946
 21
288.5384998978
 31
0.0
  0
LINE
  5
98
330
1F
100
AcDbEntity
  8
0
  6
Continuous
 62
     7
370
    15
100
AcDbLine
 10
-114.048497946
 20
268.5385040701
 30
0.0
 11
-114.048497946
 21
278.5384945334
 31
0.0
  0
LINE
  5
99
330
1F
100
AcDbEntity
  8
0
  6
Continuous
 62
     7
370
    15
100
AcDbLine
 10
-114.048497946
 20
-1.4614992082
 30
0.0
 11
-114.048497946
 21
8.5384987057
 31
0.0
  0
LINE
  5
9A
330
1F
100
AcDbEntity
  8
0
  6
Continuous
 62
     7
370
    15
100
AcDbLine
 10
-114.048497946
 20
-11.461497122
 30
0.0
 11
-114.048497946
 21
-1.4614992082
 31
0.0
  0
LINE
  5
9B
330
1F
100
AcDbEntity
  8
0
  6
Continuous
 62
     7
370
    15
100
AcDbLine
 10
-116.0485019991
 20
-24.4195990502
 30
0.0
 11
-116.0485019991
 21
-28.4615017712
 31
0.0
  0
LINE
  5
9C
330
1F
100
AcDbEntity
  8
0
  6
Continuous
 62
     7
370
    15
100
AcDbLine
 10
-116.0485019991
 20
-28.4615017712
 30
0.0
 11
-117.8892722437
 21
-28.4615017712
 31
0.0
  0
LINE
  5
9D
330
1F
100
AcDbEntity
  8
0
  6
Continuous
 62
     7
370
    15
100
AcDbLine
 10
-118.0484911511
 20
-29.724896723
 30
0.0
 11
-116.0485019991
 21
-29.724896723
 31
0.0
  0
LINE
  5
9E
330
1F
100
AcDbEntity
  8
0
  6
Continuous
 62
     7
370
    15
100
AcDbLine
 10
-118.0484911511
 20
-29.724896723
 30
0.0
 11
-118.0484911511
 21
-28.6958597838
 31
0.0
  0
LINE
  5
9F
330
1F
100
AcDbEntity
  8
0
  6
Continuous
 62
     7
370
    15
100
AcDbLine
 10
-116.0485019991
 20
-29.724896723
 30
0.0
 11
-116.0485019991
 21
-28.4615017712
 31
0.0
  0
LINE
  5
A0
330
1F
100
AcDbEntity
  8
0
  6
Continuous
 62
     7
370
    15
100
AcDbLine
 10
-118.7851002524
 20
-30.4614983737
 30
0.0
 11
-118.7851002524
 21
-32.4615024268
 31
0.0
  0
LINE
  5
A1
330
1F
100
AcDbEntity
  8
0
  6
Continuous
 62
     7
370
    15
100
AcDbLine
 10
-121.9368299553
 20
-32.4615024268
 30
0.0
 11
-118.7851002524
 21
-32.4615024268
 31
0.0
  0
LINE
  5
A2
330
1F
100
AcDbEntity
  8
0
  6
Continuous
 62
     7
370
    15
100
AcDbLine
 10
-119.5017268965
 20
-30.4614983737
 30
0.0
 11
-118.7851002524
 21
-30.4614983737
 31
0.0
  0
ARC
  5
A3
330
1F
100
AcDbEntity
  8
0
  6
Continuous
 62
     7
370
    15
100
AcDbCircle
 10
-118.7850965284
 20
-29.7249004315
 30
0.0
 40
0.7366000000000348
100
AcDbArc
 50
270.0
 51
0.0
  0
ARC
  5
A4
330
1F
100
AcDbEntity
  8
0
  6
Continuous
 62
     7
370
    15
100
AcDbCircle
 10
-118.7850965284
 20
-29.7249004315
 30
0.0
 40
2.736600000000038
100
AcDbArc
 50
270.0
 51
0.0
  0
LINE
  5
A5
330
1F
100
AcDbEntity
  8
0
  6
Continuous
 62
     7
370
    15
100
AcDbLine
 10
-209.3693336556
 20
-34.5922045648
 30
0.0
 11
-208.8461687872
 21
315.4074094952
 31
0.0
  0
LINE
  5
A6
330
1F
100
AcDbEntity
  8
0
  6
Continuous
 62
     7
370
    15
100
AcDbLine
 10
-208.8461687872
 20
315.4074094952
 30
0.0
 11
-120.0462749312
 21
315.2746699513
 31
0.0
  0
ARC
  5
A7
330
1F
100
AcDbEntity
  8
0
  6
Continuous
 62
     7
370
    15
100
AcDbCircle
 10
-120.0537457533
 20
310.2746770861
 30
0.0
 40
5.000000000000053
100
AcDbArc
 50
359.9143573476
 51
89.9143573476
  0
ARC
  5
A8
330
1F
100
AcDbEntity
  8
0
  6
Continuous
 62
     7
370
    15
100
AcDbCircle
 10
-129.5484965284
 20
-20.7115004315
 30
0.0
 40
14.00000000000005
100
AcDbArc
 50
269.9143573476
 51
359.9143573476
  0
LINE
  5
A9
330
1F
100
AcDbEntity
  8
0
  6
Continuous
 62
     7
370
    15
100
AcDbLine
 10
-129.5694282362
 20
-34.7114883601
 30
0.0
 11
-209.3693336556
 21
-34.5922045648
 31
0.0
  0
LINE
  5
AA
330
1F
100
AcDbEntity
  8
0
  6
Continuous
 62
     7
370
    15
100
AcDbLine
 10
-115.0537451813
 20
310.2672092379
 30
0.0
 11
-115.5485084364
 21
-20.7324259221
 31
0.0
  0
LWPOLYLINE
  5
AB
330
1F
100
AcDbEntity
  8
0
  6
Continuous
 62
     7
370
    15
100
AcDbPolyline
 90
       12
 70
   128
 43
0.0
 10
-225.0461524436
 20
315.4316238821
 10
-224.8812636444
 20
315.4313705624
 10
-224.3899425576
 20
315.4306404055
 10
-223.5821953127
 20
315.4294334114
 10
-222.4744653413
 20
315.4277793825
 10
-221.0893055508
 20
315.4257081211
 10
-219.4549014876
 20
315.4232643307
 10
-217.6045423457
 20
315.4204927147
 10
-215.5758908102
 20
315.417467779
 10
-213.4102379987
 20
315.414234227
 10
-211.1516689966
 20
315.4108516634
 10
-208.8461687872
 20
315.4074094952
  0
LINE
  5
AC
330
1F
100
AcDbEntity
  8
0
  6
Continuous
 62
     7
370
    15
100
AcDbLine
 10
-225.569317312
 20
-34.5679901778
 30
0.0
 11
-225.0461524436
 21
315.4316238821
 31
0.0
  0
LWPOLYLINE
  5
AD
330
1F
100
AcDbEntity
  8
0
  6
Continuous
 62
     7
370
    15
100
AcDbPolyline
 90
       12
 70
   128
 43
0.0
 10
-209.3693336556
 20
-34.5922045648
 10
-211.6748338649
 20
-34.5887549459
 10
-213.9333954165
 20
-34.5853798329
 10
-216.099048228
 20
-34.5821462809
 10
-218.1277072141
 20
-34.5791138946
 10
-219.9780663559
 20
-34.5763497292
 10
-221.6124629686
 20
-34.5739059388
 10
-222.9976227591
 20
-34.5718346774
 10
-224.1053527305
 20
-34.5701806485
 10
-224.9130999753
 20
-34.5689736545
 10
-225.4044210622
 20
-34.568236047
 10
-225.569317312
 20
-34.5679901778
  0
LINE
  5
AE
330
1F
100
AcDbEntity
  8
0
  6
Continuous
 62
     7
370
    15
100
AcDbLine
 10
309.6772251502
 20
268.5385040701
 30
0.0
 11
310.7448486463
 21
268.5385040701
 31
0.0
  0
LINE
  5
AF
330
1F
100
AcDbEntity
  8
0
  6
Continuous
 62
     7
370
    15
100
AcDbLine
 10
310.7149569169
 20
288.5384998978
 30
0.0
 11
309.6772251502
 21
288.5384998978
 31
0.0
  0
LINE
  5
B0
330
1F
100
AcDbEntity
  8
0
  6
Continuous
 62
     7
370
    15
100
AcDbLine
 10
309.6772251502
 20
-11.461497122
 30
0.0
 11
311.1633775607
 21
-11.461497122
 31
0.0
  0
LINE
  5
B1
330
1F
100
AcDbEntity
  8
0
  6
Continuous
 62
     7
370
    15
100
AcDbLine
 10
311.1334858314
 20
8.5384987057
 30
0.0
 11
309.6772251502
 21
8.5384987057
 31
0.0
  0
LINE
  5
B2
330
1F
100
AcDbEntity
  8
0
  6
Continuous
 62
     7
370
    15
100
AcDbLine
 10
309.6772251502
 20
288.5384998978
 30
0.0
 11
309.6772251502
 21
268.5385040701
 31
0.0
  0
LINE
  5
B3
330
1F
100
AcDbEntity
  8
0
  6
Continuous
 62
     7
370
    15
100
AcDbLine
 10
309.6772251502
 20
8.5384987057
 30
0.0
 11
309.6772251502
 21
-11.461497122
 31
0.0
  0
LINE
  5
B4
330
1F
100
AcDbEntity
  8
0
  6
Continuous
 62
     7
370
    15
100
AcDbLine
 10
311.6772292033
 20
-28.4615017712
 30
0.0
 11
311.6772292033
 21
-24.4195990502
 31
0.0
  0
LINE
  5
B5
330
1F
100
AcDbEntity
  8
0
  6
Continuous
 62
     7
370
    15
100
AcDbLine
 10
313.5179994479
 20
-28.4615017712
 30
0.0
 11
311.6772292033
 21
-28.4615017712
 31
0.0
  0
LINE
  5
B6
330
1F
100
AcDbEntity
  8
0
  6
Continuous
 62
     7
370
    15
100
AcDbLine
 10
313.6772183553
 20
-29.724896723
 30
0.0
 11
311.6772292033
 21
-29.724896723
 31
0.0
  0
LINE
  5
B7
330
1F
100
AcDbEntity
  8
0
  6
Continuous
 62
     7
370
    15
100
AcDbLine
 10
311.6772292033
 20
-28.4615017712
 30
0.0
 11
311.6772292033
 21
-29.724896723
 31
0.0
  0
LINE
  5
B8
330
1F
100
AcDbEntity
  8
0
  6
Continuous
 62
     7
370
    15
100
AcDbLine
 10
313.6772183553
 20
-28.6958597838
 30
0.0
 11
313.6772183553
 21
-29.724896723
 31
0.0
  0
ARC
  5
B9
330
1F
100
AcDbEntity
  8
0
  6
Continuous
 62
     7
370
    15
100
AcDbCircle
 10
314.4138237326
 20
-29.7249004315
 30
0.0
 40
2.736600000000038
100
AcDbArc
 50
180.0
 51
270.0
  0
LINE
  5
BA
330
1F
100
AcDbEntity
  8
0
  6
Continuous
 62
     7
370
    15
100
AcDbLine
 10
314.4138274566
 20
-30.4614983737
 30
0.0
 11
314.4138274566
 21
-32.4615024268
 31
0.0
  0
ARC
  5
BB
330
1F
100
AcDbEntity
  8
0
  6
Continuous
 62
     7
370
    15
100
AcDbCircle
 10
314.4138237326
 20
-29.7249004315
 30
0.0
 40
0.7366000000000348
100
AcDbArc
 50
180.0
 51
270.0
  0
LINE
  5
BC
330
1F
100
AcDbEntity
  8
0
  6
Continuous
 62
     7
370
    15
100
AcDbLine
 10
314.4138274566
 20
-30.4614983737
 30
0.0
 11
315.1304541007
 21
-30.4614983737
 31
0.0
  0
LINE
  5
BD
330
1F
100
AcDbEntity
  8
0
  6
Continuous
 62
     7
370
    15
100
AcDbLine
 10
314.4138274566
 20
-32.4615024268
 30
0.0
 11
317.5655571595
 21
-32.4615024268
 31
0.0
  0
ARC
  5
BE
330
1F
100
AcDbEntity
  8
0
  6
Continuous
 62
     7
370
    15
100
AcDbCircle
 10
315.6824729575
 20
310.2746770861
 30
0.0
 40
5.000000000000053
100
AcDbArc
 50
90.0856426524
 51
180.0856426524
  0
LINE
  5
BF
330
1F
100
AcDbEntity
  8
0
  6
Continuous
 62
     7
370
    15
100
AcDbLine
 10
404.9980608598
 20
-34.5922045648
 30
0.0
 11
404.4748959914
 21
315.4074094952
 31
0.0
  0
LINE
  5
C0
330
1F
100
AcDbEntity
  8
0
  6
Continuous
 62
     7
370
    15
100
AcDbLine
 10
404.9980608598
 20
-34.5922045648
 30
0.0
 11
325.1981554404
 21
-34.7114883601
 31
0.0
  0
ARC
  5
C1
330
1F
100
AcDbEntity
  8
0
  6
Continuous
 62
     7
370
    15
100
AcDbCircle
 10
325.1772237326
 20
-20.7115004315
 30
0.0
 40
14.00000000000002
100
AcDbArc
 50
180.0856426524
 51
270.0856426524
  0
LINE
  5
C2
330
1F
100
AcDbEntity
  8
0
  6
Continuous
 62
     7
370
    15
100
AcDbLine
 10
311.1772356406
 20
-20.7324259221
 30
0.0
 11
310.6824723855
 21
310.2672092379
 31
0.0
  0
LINE
  5
C3
330
1F
100
AcDbEntity
  8
0
  6
Continuous
 62
     7
370
    15
100
AcDbLine
 10
315.6750021354
 20
315.2746699513
 30
0.0
 11
404.4748959914
 21
315.4074094952
 31
0.0
  0
LWPOLYLINE
  5
C4
330
1F
100
AcDbEntity
  8
0
  6
Continuous
 62
     7
370
    15
100
AcDbPolyline
 90
       12
 70
   128
 43
0.0
 10
421.1980445162
 20
-34.5679901778
 10
421.0331482664
 20
-34.568236047
 10
420.5418271795
 20
-34.5689736545
 10
419.7340799347
 20
-34.5701806485
 10
418.6263499633
 20
-34.5718346774
 10
417.2411901728
 20
-34.5739059388
 10
415.6067935601
 20
-34.5763497292
 10
413.7564344183
 20
-34.5791138946
 10
411.7277754322
 20
-34.5821462809
 10
409.5621226207
 20
-34.5853798329
 10
407.3035610691
 20
-34.5887549459
 10
404.9980608598
 20
-34.5922045648
  0
LWPOLYLINE
  5
C5
330
1F
100
AcDbEntity
  8
0
  6
Continuous
 62
     7
370
    15
100
AcDbPolyline
 90
       12
 70
   128
 43
0.0
 10
404.4748959914
 20
315.4074094952
 10
406.7803962008
 20
315.4108516634
 10
409.0389652029
 20
315.414234227
 10
411.2046180144
 20
315.417467779
 10
413.23326955
 20
315.4204927147
 10
415.0836286918
 20
315.4232643307
 10
416.718032755
 20
315.4257081211
 10
418.1031925455
 20
315.4277793825
 10
419.2109225169
 20
315.4294334114
 10
420.0186697618
 20
315.4306404055
 10
420.5099908487
 20
315.4313705624
 10
420.6748796478
 20
315.4316238821
  0
LINE
  5
C6
330
1F
100
AcDbEntity
  8
0
  6
Continuous
 62
     7
370
    15
100
AcDbLine
 10
420.6748796478
 20
315.4316238821
 30
0.0
 11
421.1980445162
 21
-34.5679901778
 31
0.0
  0
LINE
  5
C7
330
1F
100
AcDbEntity
  8
0
  6
Continuous
 62
     7
370
    15
100
AcDbLine
 10
-22.8235257553
 20
-84.4897876786
 30
0.0
 11
-22.8235257553
 21
-86.4897917318
 31
0.0
  0
LINE
  5
C8
330
1F
100
AcDbEntity
  8
0
  6
Continuous
 62
     7
370
    15
100
AcDbLine
 10
-2.8235150264
 20
-86.4897917318
 30
0.0
 11
-2.8235150264
 21
-84.4897876786
 31
0.0
  0
LINE
  5
C9
330
1F
100
AcDbEntity
  8
0
  6
Continuous
 62
     7
370
    15
100
AcDbLine
 10
181.17647043
 20
-84.4897876786
 30
0.0
 11
181.17647043
 21
-86.4897917318
 31
0.0
  0
LINE
  5
CA
330
1F
100
AcDbEntity
  8
0
  6
Continuous
 62
     7
370
    15
100
AcDbLine
 10
201.1764811589
 20
-86.4897917318
 30
0.0
 11
201.1764811589
 21
-84.4897876786
 31
0.0
  0
LINE
  5
CB
330
1F
100
AcDbEntity
  8
0
  6
Continuous
 62
     7
370
    15
100
AcDbLine
 10
-47.1235347675
 20
-105.0921778487
 30
0.0
 11
-45.8101464199
 21
-105.0921778487
 31
0.0
  0
LINE
  5
CC
330
1F
100
AcDbEntity
  8
0
  6
Continuous
 62
     7
370
    15
100
AcDbLine
 10
-45.8101464199
 20
-94.0921853589
 30
0.0
 11
-47.1235347675
 21
-94.0921853589
 31
0.0
  0
LINE
  5
CD
330
1F
100
AcDbEntity
  8
0
  6
Continuous
 62
     7
370
    15
100
AcDbLine
 10
-45.2900660919
 20
-103.2587389755
 30
0.0
 11
-44.8735190319
 21
-102.8421770143
 31
0.0
  0
LINE
  5
CE
330
1F
100
AcDbEntity
  8
0
  6
Continuous
 62
     7
370
    15
100
AcDbLine
 10
-44.8735190319
 20
-102.8421770143
 30
0.0
 11
-43.0735183643
 21
-102.8421770143
 31
0.0
  0
LINE
  5
CF
330
1F
100
AcDbEntity
  8
0
  6
Continuous
 62
     7
370
    15
100
AcDbLine
 10
-43.0735183643
 20
-96.3421861934
 30
0.0
 11
-43.8101125644
 21
-96.3421861934
 31
0.0
  0
LINE
  5
D0
330
1F
100
AcDbEntity
  8
0
  6
Continuous
 62
     7
370
    15
100
AcDbLine
 10
225.4764752699
 20
-94.0921853589
 30
0.0
 11
224.1630720212
 21
-94.0921853589
 31
0.0
  0
LINE
  5
D1
330
1F
100
AcDbEntity
  8
0
  6
Continuous
 62
     7
370
    15
100
AcDbLine
 10
224.1630720212
 20
-105.0921778487
 30
0.0
 11
225.4764752699
 21
-105.0921778487
 31
0.0
  0
LINE
  5
D2
330
1F
100
AcDbEntity
  8
0
  6
Continuous
 62
     7
370
    15
100
AcDbLine
 10
223.2264744355
 20
-102.8421770143
 30
0.0
 11
223.6430363967
 21
-103.2587389755
 31
0.0
  0
LINE
  5
D3
330
1F
100
AcDbEntity
  8
0
  6
Continuous
 62
     7
370
    15
100
AcDbLine
 10
222.1630828692
 20
-96.3421861934
 30
0.0
 11
221.4264737679
 21
-96.3421861934
 31
0.0
  0
LINE
  5
D4
330
1F
100
AcDbEntity
  8
0
  6
Continuous
 62
     7
370
    15
100
AcDbLine
 10
221.4264737679
 20
-102.8421770143
 30
0.0
 11
223.2264744355
 21
-102.8421770143
 31
0.0
  0
LINE
  5
D5
330
1F
100
AcDbEntity
  8
0
  6
Continuous
 62
     7
370
    15
100
AcDbLine
 10
-47.1235347675
 20
-105.4897855329
 30
0.0
 11
-45.8101464199
 21
-105.4897855329
 31
0.0
  0
LINE
  5
D6
330
1F
100
AcDbEntity
  8
0
  6
Continuous
 62
     7
370
    15
100
AcDbLine
 10
-43.8101125644
 20
-103.2397846984
 30
0.0
 11
-43.0735183643
 21
-103.2397846984
 31
0.0
  0
LINE
  5
D7
330
1F
100
AcDbEntity
  8
0
  6
Continuous
 62
     7
370
    15
100
AcDbLine
 10
224.1630720212
 20
-105.4897855329
 30
0.0
 11
225.4764752699
 21
-105.4897855329
 31
0.0
  0
LINE
  5
D8
330
1F
100
AcDbEntity
  8
0
  6
Continuous
 62
     7
370
    15
100
AcDbLine
 10
221.4264737679
 20
-103.2397846984
 30
0.0
 11
222.1630828692
 21
-103.2397846984
 31
0.0
  0
LINE
  5
D9
330
1F
100
AcDbEntity
  8
0
  6
Continuous
 62
     7
370
    15
100
AcDbLine
 10
222.1630828692
 20
-99.1748224305
 30
0.0
 11
224.1630720212
 21
-99.1748224305
 31
0.0
  0
LINE
  5
DA
330
1F
100
AcDbEntity
  8
0
  6
Continuous
 62
     7
370
    15
100
AcDbLine
 10
-45.8101464199
 20
-99.1748224305
 30
0.0
 11
-43.8101125644
 21
-99.1748224305
 31
0.0
  0
LINE
  5
DB
330
1F
100
AcDbEntity
  8
0
  6
Continuous
 62
     7
370
    15
100
AcDbLine
 10
-2.8235150264
 20
-84.4897876786
 30
0.0
 11
-22.8235257553
 21
-84.4897876786
 31
0.0
  0
LINE
  5
DC
330
1F
100
AcDbEntity
  8
0
  6
Continuous
 62
     7
370
    15
100
AcDbLine
 10
201.1764811589
 20
-84.4897876786
 30
0.0
 11
181.17647043
 21
-84.4897876786
 31
0.0
  0
LINE
  5
DD
330
1F
100
AcDbEntity
  8
0
  6
Continuous
 62
     7
370
    15
100
AcDbLine
 10
-45.6235242771
 20
-99.1748224305
 30
0.0
 11
-45.6235242771
 21
-104.0696601676
 31
0.0
  0
LINE
  5
DE
330
1F
100
AcDbEntity
  8
0
  6
Continuous
 62
     7
370
    15
100
AcDbLine
 10
-44.8735190319
 20
-99.1748224305
 30
0.0
 11
-44.8735190319
 21
-102.8421770143
 31
0.0
  0
LINE
  5
DF
330
1F
100
AcDbEntity
  8
0
  6
Continuous
 62
     7
370
    15
100
AcDbLine
 10
223.9764796807
 20
-104.0696601676
 30
0.0
 11
223.9764796807
 21
-99.1748224305
 31
0.0
  0
LINE
  5
E0
330
1F
100
AcDbEntity
  8
0
  6
Continuous
 62
     7
370
    15
100
AcDbLine
 10
223.2264744355
 20
-102.8421770143
 30
0.0
 11
223.2264744355
 21
-99.1748224305
 31
0.0
  0
ARC
  5
E1
330
1F
100
AcDbEntity
  8
0
  6
Continuous
 62
     7
370
    15
100
AcDbCircle
 10
-33.0735208568
 20
-181.4897862611
 30
0.0
 40
10.00000000000001
100
AcDbArc
 50
180.0
 51
270.0
  0
LINE
  5
E2
330
1F
100
AcDbEntity
  8
0
  6
Continuous
 62
     7
370
    15
100
AcDbLine
 10
-43.0735183643
 20
-181.4897830891
 30
0.0
 11
-43.0735183643
 21
-89.226389985
 31
0.0
  0
LINE
  5
E3
330
1F
100
AcDbEntity
  8
0
  6
Continuous
 62
     7
370
    15
100
AcDbLine
 10
221.4264737679
 20
-89.226389985
 30
0.0
 11
-43.0735183643
 21
-89.226389985
 31
0.0
  0
LINE
  5
E4
330
1F
100
AcDbEntity
  8
0
  6
Continuous
 62
     7
370
    15
100
AcDbLine
 10
221.4264737679
 20
-89.226389985
 30
0.0
 11
221.4264737679
 21
-181.4897830891
 31
0.0
  0
ARC
  5
E5
330
1F
100
AcDbEntity
  8
0
  6
Continuous
 62
     7
370
    15
100
AcDbCircle
 10
211.4264791432
 20
-181.4897862611
 30
0.0
 40
10.0
100
AcDbArc
 50
270.0
 51
0.0
  0
LINE
  5
E6
330
1F
100
AcDbEntity
  8
0
  6
Continuous
 62
     7
370
    15
100
AcDbLine
 10
211.4264833047
 20
-191.4897884535
 30
0.0
 11
-33.073527901
 21
-191.4897884535
 31
0.0
  0
LINE
  5
E7
330
1F
100
AcDbEntity
  8
0
  6
Continuous
 62
     7
370
    15
100
AcDbLine
 10
221.4264737679
 20
-86.4897917318
 30
0.0
 11
221.4264737679
 21
-89.226389985
 31
0.0
  0
LINE
  5
E8
330
1F
100
AcDbEntity
  8
0
  6
Continuous
 62
     7
370
    15
100
AcDbLine
 10
-43.0735183643
 20
-89.226389985
 30
0.0
 11
-43.0735183643
 21
-86.4897917318
 31
0.0
  0
LINE
  5
E9
330
1F
100
AcDbEntity
  8
0
  6
Continuous
 62
     7
370
    15
100
AcDbLine
 10
-43.0735183643
 20
-86.4897917318
 30
0.0
 11
221.4264737679
 21
-86.4897917318
 31
0.0
  0
ARC
  5
EA
330
1F
100
AcDbEntity
  8
0
  6
Continuous
 62
     7
370
    15
100
AcDbCircle
 10
221.4264791432
 20
-89.2263862611
 30
0.0
 40
2.73660000000001
100
AcDbArc
 50
0.0
 51
90.0
  0
LINE
  5
EB
330
1F
100
AcDbEntity
  8
0
  6
Continuous
 62
     7
370
    15
100
AcDbLine
 10
222.1630828692
 20
-89.226389985
 30
0.0
 11
224.1630720212
 21
-89.226389985
 31
0.0
  0
ARC
  5
EC
330
1F
100
AcDbEntity
  8
0
  6
Continuous
 62
     7
370
    15
100
AcDbCircle
 10
221.4264791432
 20
-89.2263862611
 30
0.0
 40
0.7366000000000099
100
AcDbArc
 50
0.0
 51
90.0
  0
LINE
  5
ED
330
1F
100
AcDbEntity
  8
0
  6
Continuous
 62
     7
370
    15
100
AcDbLine
 10
-43.8101125644
 20
-89.226389985
 30
0.0
 11
-45.8101464199
 21
-89.226389985
 31
0.0
  0
ARC
  5
EE
330
1F
100
AcDbEntity
  8
0
  6
Continuous
 62
     7
370
    15
100
AcDbCircle
 10
-43.0735208568
 20
-89.2263862611
 30
0.0
 40
2.736600000000088
100
AcDbArc
 50
90.0
 51
180.0
  0
ARC
  5
EF
330
1F
100
AcDbEntity
  8
0
  6
Continuous
 62
     7
370
    15
100
AcDbCircle
 10
-43.0735208568
 20
-89.2263862611
 30
0.0
 40
0.736600000000081
100
AcDbArc
 50
90.0
 51
180.0
  0
LINE
  5
F0
330
1F
100
AcDbEntity
  8
0
  6
Continuous
 62
     7
370
    15
100
AcDbLine
 10
222.1630828692
 20
-96.1748163509
 30
0.0
 11
224.1630720212
 21
-96.1748163509
 31
0.0
  0
LINE
  5
F1
330
1F
100
AcDbEntity
  8
0
  6
Continuous
 62
     7
370
    15
100
AcDbLine
 10
224.1630720212
 20
-96.1748163509
 30
0.0
 11
224.1630720212
 21
-89.226389985
 31
0.0
  0
LINE
  5
F2
330
1F
100
AcDbEntity
  8
0
  6
Continuous
 62
     7
370
    15
100
AcDbLine
 10
222.1630828692
 20
-96.1748163509
 30
0.0
 11
222.1630828692
 21
-89.226389985
 31
0.0
  0
LINE
  5
F3
330
1F
100
AcDbEntity
  8
0
  6
Continuous
 62
     7
370
    15
100
AcDbLine
 10
224.1630720212
 20
-96.1748163509
 30
0.0
 11
224.1630720212
 21
-99.1748224305
 31
0.0
  0
LINE
  5
F4
330
1F
100
AcDbEntity
  8
0
  6
Continuous
 62
     7
370
    15
100
AcDbLine
 10
222.1630828692
 20
-99.1748224305
 30
0.0
 11
222.1630828692
 21
-96.1748163509
 31
0.0
  0
LINE
  5
F5
330
1F
100
AcDbEntity
  8
0
  6
Continuous
 62
     7
370
    15
100
AcDbLine
 10
-43.8101125644
 20
-89.226389985
 30
0.0
 11
-43.8101125644
 21
-96.1748163509
 31
0.0
  0
LINE
  5
F6
330
1F
100
AcDbEntity
  8
0
  6
Continuous
 62
     7
370
    15
100
AcDbLine
 10
-45.8101464199
 20
-96.1748163509
 30
0.0
 11
-43.8101125644
 21
-96.1748163509
 31
0.0
  0
LINE
  5
F7
330
1F
100
AcDbEntity
  8
0
  6
Continuous
 62
     7
370
    15
100
AcDbLine
 10
-45.8101464199
 20
-89.226389985
 30
0.0
 11
-45.8101464199
 21
-96.1748163509
 31
0.0
  0
LINE
  5
F8
330
1F
100
AcDbEntity
  8
0
  6
Continuous
 62
     7
370
    15
100
AcDbLine
 10
-43.8101125644
 20
-96.1748163509
 30
0.0
 11
-43.8101125644
 21
-99.1748224305
 31
0.0
  0
LINE
  5
F9
330
1F
100
AcDbEntity
  8
0
  6
Continuous
 62
     7
370
    15
100
AcDbLine
 10
-45.8101464199
 20
-99.1748224305
 30
0.0
 11
-45.8101464199
 21
-96.1748163509
 31
0.0
  0
LINE
  5
FA
330
1F
100
AcDbEntity
  8
0
  6
Continuous
 62
     7
370
    15
100
AcDbLine
 10
224.1630720212
 20
-108.7791870641
 30
0.0
 11
222.1630828692
 21
-108.7791870641
 31
0.0
  0
LINE
  5
FB
330
1F
100
AcDbEntity
  8
0
  6
Continuous
 62
     7
370
    15
100
AcDbLine
 10
224.1630720212
 20
-116.4897929239
 30
0.0
 11
222.1630828692
 21
-116.4897929239
 31
0.0
  0
LINE
  5
FC
330
1F
100
AcDbEntity
  8
0
  6
Continuous
 62
     7
370
    15
100
AcDbLine
 10
224.1630720212
 20
-108.7791870641
 30
0.0
 11
224.1630720212
 21
-116.4897929239
 31
0.0
  0
LINE
  5
FD
330
1F
100
AcDbEntity
  8
0
  6
Continuous
 62
     7
370
    15
100
AcDbLine
 10
222.1630828692
 20
-108.7791870641
 30
0.0
 11
222.1630828692
 21
-116.4897929239
 31
0.0
  0
LINE
  5
FE
330
1F
100
AcDbEntity
  8
0
  6
Continuous
 62
     7
370
    15
100
AcDbLine
 10
-43.8101125644
 20
-108.7791870641
 30
0.0
 11
-45.8101464199
 21
-108.7791870641
 31
0.0
  0
LINE
  5
FF
330
1F
100
AcDbEntity
  8
0
  6
Continuous
 62
     7
370
    15
100
AcDbLine
 10
-43.8101125644
 20
-116.4897929239
 30
0.0
 11
-45.8101464199
 21
-116.4897929239
 31
0.0
  0
LINE
  5
100
330
1F
100
AcDbEntity
  8
0
  6
Continuous
 62
     7
370
    15
100
AcDbLine
 10
-43.8101125644
 20
-108.7791870641
 30
0.0
 11
-43.8101125644
 21
-116.4897929239
 31
0.0
  0
LINE
  5
101
330
1F
100
AcDbEntity
  8
0
  6
Continuous
 62
     7
370
    15
100
AcDbLine
 10
-45.8101464199
 20
-108.7791870641
 30
0.0
 11
-45.8101464199
 21
-116.4897929239
 31
0.0
  0
LINE
  5
102
330
1F
100
AcDbEntity
  8
0
  6
Continuous
 62
     7
370
    15
100
AcDbLine
 10
224.1630720212
 20
-104.0696601676
 30
0.0
 11
224.1630720212
 21
-108.7791870641
 31
0.0
  0
LINE
  5
103
330
1F
100
AcDbEntity
  8
0
  6
Continuous
 62
     7
370
    15
100
AcDbLine
 10
222.1630828692
 20
-102.8421770143
 30
0.0
 11
222.1630828692
 21
-108.7791870641
 31
0.0
  0
LINE
  5
104
330
1F
100
AcDbEntity
  8
0
  6
Continuous
 62
     7
370
    15
100
AcDbLine
 10
-43.8101125644
 20
-102.8421770143
 30
0.0
 11
-43.8101125644
 21
-108.7791870641
 31
0.0
  0
LINE
  5
105
330
1F
100
AcDbEntity
  8
0
  6
Continuous
 62
     7
370
    15
100
AcDbLine
 10
-45.8101464199
 20
-104.0696601676
 30
0.0
 11
-45.8101464199
 21
-108.7791870641
 31
0.0
  0
LINE
  5
106
330
1F
100
AcDbEntity
  8
0
  6
Continuous
 62
     7
370
    15
100
AcDbLine
 10
210.4764746739
 20
-195.4874421763
 30
0.0
 11
-32.1235192703
 21
-195.4874421763
 31
0.0
  0
LINE
  5
107
330
1F
100
AcDbEntity
  8
0
  6
Continuous
 62
     7
370
    15
100
AcDbLine
 10
-32.1235192703
 20
-194.2874442147
 30
0.0
 11
-32.1235192703
 21
-195.4874421763
 31
0.0
  0
LINE
  5
108
330
1F
100
AcDbEntity
  8
0
  6
Continuous
 62
     7
370
    15
100
AcDbLine
 10
210.4764746739
 20
-194.2874442147
 30
0.0
 11
-32.1235192703
 21
-194.2874442147
 31
0.0
  0
LINE
  5
109
330
1F
100
AcDbEntity
  8
0
  6
Continuous
 62
     7
370
    15
100
AcDbLine
 10
210.4764746739
 20
-194.2874442147
 30
0.0
 11
210.4764746739
 21
-195.4874421763
 31
0.0
  0
ARC
  5
10A
330
1F
100
AcDbEntity
  8
0
  6
Continuous
 62
     7
370
    15
100
AcDbCircle
 10
210.4764885684
 20
-179.2874500627
 30
0.0
 40
16.19999211361123
100
AcDbArc
 50
269.9999508581
 51
359.9999700888
  0
LINE
  5
10B
330
1F
100
AcDbEntity
  8
0
  6
Continuous
 62
     7
370
    15
100
AcDbLine
 10
226.676480682
 20
-179.8106233882
 30
0.0
 11
226.676480682
 21
-179.2874585199
 31
0.0
  0
ARC
  5
10C
330
1F
100
AcDbEntity
  8
0
  6
Continuous
 62
     7
370
    15
100
AcDbCircle
 10
210.4764782044
 20
-179.8106045669
 30
0.0
 40
16.20000247768331
100
AcDbArc
 50
269.9999875135
 51
359.9999334334
  0
LINE
  5
10D
330
1F
100
AcDbEntity
  8
0
  6
Continuous
 62
     7
370
    15
100
AcDbLine
 10
210.4764746739
 20
-196.0106070446
 30
0.0
 11
210.4764746739
 21
-195.4874421763
 31
0.0
  0
ARC
  5
10E
330
1F
100
AcDbEntity
  8
0
  6
Continuous
 62
     7
370
    15
100
AcDbCircle
 10
210.4764895813
 20
-179.2874585261
 30
0.0
 40
14.99998568867237
100
AcDbArc
 50
269.999943058
 51
0.0000000238
  0
LINE
  5
10F
330
1F
100
AcDbEntity
  8
0
  6
Continuous
 62
     7
370
    15
100
AcDbLine
 10
225.4764752699
 20
-179.2874585199
 30
0.0
 11
226.676480682
 21
-179.2874585199
 31
0.0
  0
LINE
  5
110
330
1F
100
AcDbEntity
  8
0
  6
Continuous
 62
     7
370
    15
100
AcDbLine
 10
-32.1235192703
 20
-195.4874421763
 30
0.0
 11
-32.1235192703
 21
-196.0106070446
 31
0.0
  0
LINE
  5
111
330
1F
100
AcDbEntity
  8
0
  6
Continuous
 62
     7
370
    15
100
AcDbLine
 10
-32.1235192703
 20
-196.0106070446
 30
0.0
 11
210.4764746739
 21
-196.0106070446
 31
0.0
  0
LWPOLYLINE
  5
112
330
1F
100
AcDbEntity
  8
0
  6
Continuous
 62
     7
370
    15
100
AcDbPolyline
 90
        9
 70
   128
 43
0.0
 10
89.176492603
 20
-195.9239120888
 10
88.4936617924
 20
-195.9238077807
 10
87.8370868279
 20
-195.9235097574
 10
87.2319804741
 20
-195.9230254697
 10
86.7016183449
 20
-195.9223772692
 10
86.2663256241
 20
-195.9215875077
 10
85.9429108216
 20
-195.9206785368
 10
85.7437419011
 20
-195.9197025108
 10
85.6764780594
 20
-195.9186817812
  0
LWPOLYLINE
  5
113
330
1F
100
AcDbEntity
  8
0
  6
Continuous
 62
     7
370
    15
100
AcDbPolyline
 90
        9
 70
   128
 43
0.0
 10
92.6764773442
 20
-195.9186817812
 10
92.6092135026
 20
-195.9197025108
 10
92.410044582
 20
-195.9206785368
 10
92.0866297795
 20
-195.9215875077
 10
91.651366861
 20
-195.9223772692
 10
91.1209749295
 20
-195.9230254697
 10
90.5158685757
 20
-195.9235097574
 10
89.8592936112
 20
-195.9238077807
 10
89.176492603
 20
-195.9239120888
  0
LINE
  5
114
330
1F
100
AcDbEntity
  8
0
  6
Continuous
 62
     7
370
    15
100
AcDbLine
 10
92.6764773442
 20
-195.9186817812
 30
0.0
 11
92.6764773442
 21
-195.7826565313
 31
0.0
  0
LWPOLYLINE
  5
115
330
1F
100
AcDbEntity
  8
0
  6
Continuous
 62
     7
370
    15
100
AcDbPolyline
 90
        9
 70
   128
 43
0.0
 10
89.176492603
 20
-195.7774262237
 10
89.8592936112
 20
-195.7775230812
 10
90.5158685757
 20
-195.7778211045
 10
91.1209749295
 20
-195.7783053922
 10
91.651366861
 20
-195.7789610433
 10
92.0866297795
 20
-195.7797508048
 10
92.410044582
 20
-195.7806523251
 10
92.6092135026
 20
-195.7816358017
 10
92.6764773442
 20
-195.7826565313
  0
LWPOLYLINE
  5
116
330
1F
100
AcDbEntity
  8
0
  6
Continuous
 62
     7
370
    15
100
AcDbPolyline
 90
        9
 70
   128
 43
0.0
 10
85.6764780594
 20
-195.7826565313
 10
85.7437419011
 20
-195.7816358017
 10
85.9429108216
 20
-195.7806523251
 10
86.2663256241
 20
-195.7797508048
 10
86.7016183449
 20
-195.7789610433
 10
87.2319804741
 20
-195.7783053922
 10
87.8370868279
 20
-195.7778211045
 10
88.4936617924
 20
-195.7775230812
 10
89.176492603
 20
-195.7774262237
  0
LINE
  5
117
330
1F
100
AcDbEntity
  8
0
  6
Continuous
 62
     7
370
    15
100
AcDbLine
 10
85.6764780594
 20
-195.7826565313
 30
0.0
 11
85.6764780594
 21
-195.9186817812
 31
0.0
  0
ARC
  5
118
330
1F
100
AcDbEntity
  8
0
  6
Continuous
 62
     7
370
    15
100
AcDbCircle
 10
-32.1235440459
 20
-179.287490746
 30
0.0
 40
16.19995143024353
100
AcDbArc
 50
179.9998860229
 51
270.0000876261
  0
LINE
  5
119
330
1F
100
AcDbEntity
  8
0
  6
Continuous
 62
     7
370
    15
100
AcDbLine
 10
-47.1235347675
 20
-179.2874585199
 30
0.0
 11
-48.3234954761
 21
-179.2874585199
 31
0.0
  0
ARC
  5
11A
330
1F
100
AcDbEntity
  8
0
  6
Continuous
 62
     7
370
    15
100
AcDbCircle
 10
-32.1235372752
 20
-179.2874467224
 30
0.0
 40
14.99999749231234
100
AcDbArc
 50
180.0000450628
 51
270.0000687737
  0
ARC
  5
11B
330
1F
100
AcDbEntity
  8
0
  6
Continuous
 62
     7
370
    15
100
AcDbCircle
 10
-32.1235640055
 20
-179.810675574
 30
0.0
 40
16.19993147066365
100
AcDbArc
 50
179.9998154297
 51
270.0001582192
  0
LINE
  5
11C
330
1F
100
AcDbEntity
  8
0
  6
Continuous
 62
     7
370
    15
100
AcDbLine
 10
-48.3234954761
 20
-179.8106233882
 30
0.0
 11
-48.3234954761
 21
-179.2874585199
 31
0.0
  0
LINE
  5
11D
330
1F
100
AcDbEntity
  8
0
  6
Continuous
 62
     7
370
    15
100
AcDbLine
 10
225.4764752699
 20
-179.2874585199
 30
0.0
 11
225.4764752699
 21
-90.4875646638
 31
0.0
  0
LINE
  5
11E
330
1F
100
AcDbEntity
  8
0
  6
Continuous
 62
     7
370
    15
100
AcDbLine
 10
226.676480682
 20
-90.4875646638
 30
0.0
 11
225.4764752699
 21
-90.4875646638
 31
0.0
  0
LINE
  5
11F
330
1F
100
AcDbEntity
  8
0
  6
Continuous
 62
     7
370
    15
100
AcDbLine
 10
226.676480682
 20
-179.2874585199
 30
0.0
 11
226.676480682
 21
-90.4875646638
 31
0.0
  0
LINE
  5
120
330
1F
100
AcDbEntity
  8
0
  6
Continuous
 62
     7
370
    15
100
AcDbLine
 10
-48.3234954761
 20
-90.4875646638
 30
0.0
 11
-48.3234954761
 21
-179.2874585199
 31
0.0
  0
LINE
  5
121
330
1F
100
AcDbEntity
  8
0
  6
Continuous
 62
     7
370
    15
100
AcDbLine
 10
-47.1235347675
 20
-90.4875646638
 30
0.0
 11
-48.3234954761
 21
-90.4875646638
 31
0.0
  0
LINE
  5
122
330
1F
100
AcDbEntity
  8
0
  6
Continuous
 62
     7
370
    15
100
AcDbLine
 10
-47.1235347675
 20
-90.4875646638
 30
0.0
 11
-47.1235347675
 21
-179.2874585199
 31
0.0
  0
LINE
  5
123
330
1F
100
AcDbEntity
  8
0
  6
Continuous
 62
     7
370
    15
100
AcDbLine
 10
225.4764752699
 20
-85.4950349139
 30
0.0
 11
226.676480682
 21
-85.4950349139
 31
0.0
  0
LINE
  5
124
330
1F
100
AcDbEntity
  8
0
  6
Continuous
 62
     7
370
    15
100
AcDbLine
 10
226.676480682
 20
-85.4950349139
 30
0.0
 11
226.676480682
 21
-90.4875646638
 31
0.0
  0
LINE
  5
125
330
1F
100
AcDbEntity
  8
0
  6
Continuous
 62
     7
370
    15
100
AcDbLine
 10
225.4764752699
 20
-90.4875646638
 30
0.0
 11
225.4764752699
 21
-85.4950349139
 31
0.0
  0
LINE
  5
126
330
1F
100
AcDbEntity
  8
0
  6
Continuous
 62
     7
370
    15
100
AcDbLine
 10
-48.3234954761
 20
-85.4950349139
 30
0.0
 11
-47.1235347675
 21
-85.4950349139
 31
0.0
  0
LINE
  5
127
330
1F
100
AcDbEntity
  8
0
  6
Continuous
 62
     7
370
    15
100
AcDbLine
 10
-48.3234954761
 20
-90.4875646638
 30
0.0
 11
-48.3234954761
 21
-85.4950349139
 31
0.0
  0
LINE
  5
128
330
1F
100
AcDbEntity
  8
0
  6
Continuous
 62
     7
370
    15
100
AcDbLine
 10
-47.1235347675
 20
-85.4950349139
 30
0.0
 11
-47.1235347675
 21
-90.4875646638
 31
0.0
  0
LINE
  5
129
330
1F
100
AcDbEntity
  8
0
  6
Continuous
 62
     8
370
    15
100
AcDbLine
 10
89.176492603
 20
-195.7774262237
 30
0.0
 11
89.176492603
 21
-195.9239120888
 31
0.0
  0
LINE
  5
12A
330
1F
100
AcDbEntity
  8
0
  6
Continuous
 62
     7
370
    15
100
AcDbLine
 10
-2.8235150264
 20
377.2517838155
 30
0.0
 11
-2.8235150264
 21
379.2517878686
 31
0.0
  0
LINE
  5
12B
330
1F
100
AcDbEntity
  8
0
  6
Continuous
 62
     7
370
    15
100
AcDbLine
 10
-22.8235257553
 20
379.2517878686
 30
0.0
 11
-22.8235257553
 21
377.2517838155
 31
0.0
  0
LINE
  5
12C
330
1F
100
AcDbEntity
  8
0
  6
Continuous
 62
     7
370
    15
100
AcDbLine
 10
201.1764811589
 20
377.2517838155
 30
0.0
 11
201.1764811589
 21
379.2517878686
 31
0.0
  0
LINE
  5
12D
330
1F
100
AcDbEntity
  8
0
  6
Continuous
 62
     7
370
    15
100
AcDbLine
 10
181.17647043
 20
379.2517878686
 30
0.0
 11
181.17647043
 21
377.2517838155
 31
0.0
  0
LINE
  5
12E
330
1F
100
AcDbEntity
  8
0
  6
Continuous
 62
     7
370
    15
100
AcDbLine
 10
-47.1235347675
 20
386.8541814958
 30
0.0
 11
-45.8101464199
 21
386.8541814958
 31
0.0
  0
LINE
  5
12F
330
1F
100
AcDbEntity
  8
0
  6
Continuous
 62
     7
370
    15
100
AcDbLine
 10
-43.8101125644
 20
389.1041823303
 30
0.0
 11
-43.0735183643
 21
389.1041823303
 31
0.0
  0
LINE
  5
130
330
1F
100
AcDbEntity
  8
0
  6
Continuous
 62
     7
370
    15
100
AcDbLine
 10
224.1630720212
 20
386.8541814958
 30
0.0
 11
225.4764752699
 21
386.8541814958
 31
0.0
  0
LINE
  5
131
330
1F
100
AcDbEntity
  8
0
  6
Continuous
 62
     7
370
    15
100
AcDbLine
 10
221.4264737679
 20
389.1041823303
 30
0.0
 11
222.1630828692
 21
389.1041823303
 31
0.0
  0
LINE
  5
132
330
1F
100
AcDbEntity
  8
0
  6
Continuous
 62
     7
370
    15
100
AcDbLine
 10
-47.1235347675
 20
387.2517891799
 30
0.0
 11
-45.8101464199
 21
387.2517891799
 31
0.0
  0
LINE
  5
133
330
1F
100
AcDbEntity
  8
0
  6
Continuous
 62
     7
370
    15
100
AcDbLine
 10
-45.8101464199
 20
398.2517816698
 30
0.0
 11
-47.1235347675
 21
398.2517816698
 31
0.0
  0
LINE
  5
134
330
1F
100
AcDbEntity
  8
0
  6
Continuous
 62
     7
370
    15
100
AcDbLine
 10
-43.8101125644
 20
389.5017751132
 30
0.0
 11
-43.0735183643
 21
389.5017751132
 31
0.0
  0
LINE
  5
135
330
1F
100
AcDbEntity
  8
0
  6
Continuous
 62
     7
370
    15
100
AcDbLine
 10
-43.0735183643
 20
396.0017808353
 30
0.0
 11
-43.8101125644
 21
396.0017808353
 31
0.0
  0
LINE
  5
136
330
1F
100
AcDbEntity
  8
0
  6
Continuous
 62
     7
370
    15
100
AcDbLine
 10
225.4764752699
 20
398.2517816698
 30
0.0
 11
224.1630720212
 21
398.2517816698
 31
0.0
  0
LINE
  5
137
330
1F
100
AcDbEntity
  8
0
  6
Continuous
 62
     7
370
    15
100
AcDbLine
 10
224.1630720212
 20
387.2517891799
 30
0.0
 11
225.4764752699
 21
387.2517891799
 31
0.0
  0
LINE
  5
138
330
1F
100
AcDbEntity
  8
0
  6
Continuous
 62
     7
370
    15
100
AcDbLine
 10
222.1630828692
 20
396.0017808353
 30
0.0
 11
221.4264737679
 21
396.0017808353
 31
0.0
  0
LINE
  5
139
330
1F
100
AcDbEntity
  8
0
  6
Continuous
 62
     7
370
    15
100
AcDbLine
 10
221.4264737679
 20
389.5017751132
 30
0.0
 11
222.1630828692
 21
389.5017751132
 31
0.0
  0
LINE
  5
13A
330
1F
100
AcDbEntity
  8
0
  6
Continuous
 62
     7
370
    15
100
AcDbLine
 10
-22.8235257553
 20
377.2517838155
 30
0.0
 11
-2.8235150264
 21
377.2517838155
 31
0.0
  0
LINE
  5
13B
330
1F
100
AcDbEntity
  8
0
  6
Continuous
 62
     7
370
    15
100
AcDbLine
 10
181.17647043
 20
377.2517838155
 30
0.0
 11
201.1764811589
 21
377.2517838155
 31
0.0
  0
ARC
  5
13C
330
1F
100
AcDbEntity
  8
0
  6
Continuous
 62
     7
370
    15
100
AcDbCircle
 10
54.1630791432
 20
406.2517823979
 30
0.0
 40
10.00000000000001
100
AcDbArc
 50
180.0
 51
270.0
  0
LINE
  5
13D
330
1F
100
AcDbEntity
  8
0
  6
Continuous
 62
     7
370
    15
100
AcDbLine
 10
54.1630851342
 20
396.2517776166
 30
0.0
 11
124.1630779816
 21
396.2517776166
 31
0.0
  0
ARC
  5
13E
330
1F
100
AcDbEntity
  8
0
  6
Continuous
 62
     7
370
    15
100
AcDbCircle
 10
124.1630791432
 20
406.2517823979
 30
0.0
 40
10.0
100
AcDbArc
 50
270.0
 51
0.0
  0
LINE
  5
13F
330
1F
100
AcDbEntity
  8
0
  6
Continuous
 62
     7
370
    15
100
AcDbLine
 10
134.1630684449
 20
406.2517829811
 30
0.0
 11
134.1630684449
 21
465.2517833387
 31
0.0
  0
ARC
  5
140
330
1F
100
AcDbEntity
  8
0
  6
Continuous
 62
     7
370
    15
100
AcDbCircle
 10
144.1630791432
 20
465.2517823979
 30
0.0
 40
10.0
100
AcDbArc
 50
90.0
 51
180.0
  0
LINE
  5
141
330
1F
100
AcDbEntity
  8
0
  6
Continuous
 62
     7
370
    15
100
AcDbLine
 10
144.1630887105
 20
475.2517812525
 30
0.0
 11
211.4264833047
 21
475.2517812525
 31
0.0
  0
ARC
  5
142
330
1F
100
AcDbEntity
  8
0
  6
Continuous
 62
     7
370
    15
100
AcDbCircle
 10
211.4264791432
 20
465.2517823979
 30
0.0
 40
10.0
100
AcDbArc
 50
0.0
 51
90.0
  0
LINE
  5
143
330
1F
100
AcDbEntity
  8
0
  6
Continuous
 62
     7
370
    15
100
AcDbLine
 10
221.4264737679
 20
465.2517833387
 30
0.0
 11
221.4264737679
 21
381.9883861219
 31
0.0
  0
LINE
  5
144
330
1F
100
AcDbEntity
  8
0
  6
Continuous
 62
     7
370
    15
100
AcDbLine
 10
-43.0735183643
 20
381.9883861219
 30
0.0
 11
221.4264737679
 21
381.9883861219
 31
0.0
  0
LINE
  5
145
330
1F
100
AcDbEntity
  8
0
  6
Continuous
 62
     7
370
    15
100
AcDbLine
 10
-43.0735183643
 20
381.9883861219
 30
0.0
 11
-43.0735183643
 21
465.2517833387
 31
0.0
  0
ARC
  5
146
330
1F
100
AcDbEntity
  8
0
  6
Continuous
 62
     7
370
    15
100
AcDbCircle
 10
-33.0735208568
 20
465.2517823979
 30
0.0
 40
10.00000000000001
100
AcDbArc
 50
90.0
 51
180.0
  0
LINE
  5
147
330
1F
100
AcDbEntity
  8
0
  6
Continuous
 62
     7
370
    15
100
AcDbLine
 10
-33.073527901
 20
475.2517812525
 30
0.0
 11
34.1630744053
 21
475.2517812525
 31
0.0
  0
ARC
  5
148
330
1F
100
AcDbEntity
  8
0
  6
Continuous
 62
     7
370
    15
100
AcDbCircle
 10
34.1630791432
 20
465.2517823979
 30
0.0
 40
10.00000000000001
100
AcDbArc
 50
0.0
 51
90.0
  0
LINE
  5
149
330
1F
100
AcDbEntity
  8
0
  6
Continuous
 62
     7
370
    15
100
AcDbLine
 10
44.1630648686
 20
465.2517833387
 30
0.0
 11
44.1630648686
 21
406.2517829811
 31
0.0
  0
LINE
  5
14A
330
1F
100
AcDbEntity
  8
0
  6
Continuous
 62
     7
370
    15
100
AcDbLine
 10
221.4264737679
 20
379.2517878686
 30
0.0
 11
-43.0735183643
 21
379.2517878686
 31
0.0
  0
LINE
  5
14B
330
1F
100
AcDbEntity
  8
0
  6
Continuous
 62
     7
370
    15
100
AcDbLine
 10
-43.0735183643
 20
379.2517878686
 30
0.0
 11
-43.0735183643
 21
381.9883861219
 31
0.0
  0
LINE
  5
14C
330
1F
100
AcDbEntity
  8
0
  6
Continuous
 62
     7
370
    15
100
AcDbLine
 10
221.4264737679
 20
381.9883861219
 30
0.0
 11
221.4264737679
 21
379.2517878686
 31
0.0
  0
ARC
  5
14D
330
1F
100
AcDbEntity
  8
0
  6
Continuous
 62
     7
370
    15
100
AcDbCircle
 10
-43.0735208568
 20
381.9883823979
 30
0.0
 40
2.736600000000088
100
AcDbArc
 50
180.0
 51
270.0
  0
LINE
  5
14E
330
1F
100
AcDbEntity
  8
0
  6
Continuous
 62
     7
370
    15
100
AcDbLine
 10
-43.8101125644
 20
381.9883861219
 30
0.0
 11
-45.8101464199
 21
381.9883861219
 31
0.0
  0
ARC
  5
14F
330
1F
100
AcDbEntity
  8
0
  6
Continuous
 62
     7
370
    15
100
AcDbCircle
 10
-43.0735208568
 20
381.9883823979
 30
0.0
 40
0.736600000000081
100
AcDbArc
 50
180.0
 51
270.0
  0
ARC
  5
150
330
1F
100
AcDbEntity
  8
0
  6
Continuous
 62
     7
370
    15
100
AcDbCircle
 10
221.4264791432
 20
381.9883823979
 30
0.0
 40
2.73660000000001
100
AcDbArc
 50
270.0
 51
360.0
  0
ARC
  5
151
330
1F
100
AcDbEntity
  8
0
  6
Continuous
 62
     7
370
    15
100
AcDbCircle
 10
221.4264791432
 20
381.9883823979
 30
0.0
 40
0.7366000000000099
100
AcDbArc
 50
270.0
 51
0.0
  0
LINE
  5
152
330
1F
100
AcDbEntity
  8
0
  6
Continuous
 62
     7
370
    15
100
AcDbLine
 10
222.1630828692
 20
381.9883861219
 30
0.0
 11
224.1630720212
 21
381.9883861219
 31
0.0
  0
LINE
  5
153
330
1F
100
AcDbEntity
  8
0
  6
Continuous
 62
     7
370
    15
100
AcDbLine
 10
-43.8101125644
 20
404.2517789279
 30
0.0
 11
-45.8101464199
 21
404.2517789279
 31
0.0
  0
LINE
  5
154
330
1F
100
AcDbEntity
  8
0
  6
Continuous
 62
     7
370
    15
100
AcDbLine
 10
-43.8101125644
 20
404.2517789279
 30
0.0
 11
-43.8101125644
 21
381.9883861219
 31
0.0
  0
LINE
  5
155
330
1F
100
AcDbEntity
  8
0
  6
Continuous
 62
     7
370
    15
100
AcDbLine
 10
-45.8101464199
 20
404.2517789279
 30
0.0
 11
-45.8101464199
 21
381.9883861219
 31
0.0
  0
LINE
  5
156
330
1F
100
AcDbEntity
  8
0
  6
Continuous
 62
     7
370
    15
100
AcDbLine
 10
-45.8101464199
 20
409.2517890607
 30
0.0
 11
-43.8101125644
 21
409.2517890607
 31
0.0
  0
LINE
  5
157
330
1F
100
AcDbEntity
  8
0
  6
Continuous
 62
     7
370
    15
100
AcDbLine
 10
-43.8101125644
 20
409.2517890607
 30
0.0
 11
-43.8101125644
 21
404.2517789279
 31
0.0
  0
LINE
  5
158
330
1F
100
AcDbEntity
  8
0
  6
Continuous
 62
     7
370
    15
100
AcDbLine
 10
-45.8101464199
 20
404.2517789279
 30
0.0
 11
-45.8101464199
 21
409.2517890607
 31
0.0
  0
LINE
  5
159
330
1F
100
AcDbEntity
  8
0
  6
Continuous
 62
     7
370
    15
100
AcDbLine
 10
224.1630720212
 20
404.2517789279
 30
0.0
 11
222.1630828692
 21
404.2517789279
 31
0.0
  0
LINE
  5
15A
330
1F
100
AcDbEntity
  8
0
  6
Continuous
 62
     7
370
    15
100
AcDbLine
 10
222.1630828692
 20
381.9883861219
 30
0.0
 11
222.1630828692
 21
404.2517789279
 31
0.0
  0
LINE
  5
15B
330
1F
100
AcDbEntity
  8
0
  6
Continuous
 62
     7
370
    15
100
AcDbLine
 10
224.1630720212
 20
381.9883861219
 30
0.0
 11
224.1630720212
 21
404.2517789279
 31
0.0
  0
LINE
  5
15C
330
1F
100
AcDbEntity
  8
0
  6
Continuous
 62
     7
370
    15
100
AcDbLine
 10
222.1630828692
 20
409.2517890607
 30
0.0
 11
224.1630720212
 21
409.2517890607
 31
0.0
  0
LINE
  5
15D
330
1F
100
AcDbEntity
  8
0
  6
Continuous
 62
     7
370
    15
100
AcDbLine
 10
222.1630828692
 20
404.2517789279
 30
0.0
 11
222.1630828692
 21
409.2517890607
 31
0.0
  0
LINE
  5
15E
330
1F
100
AcDbEntity
  8
0
  6
Continuous
 62
     7
370
    15
100
AcDbLine
 10
224.1630720212
 20
409.2517890607
 30
0.0
 11
224.1630720212
 21
404.2517789279
 31
0.0
  0
LINE
  5
15F
330
1F
100
AcDbEntity
  8
0
  6
Continuous
 62
     7
370
    15
100
AcDbLine
 10
-43.0735183643
 20
474.251779226
 30
0.0
 11
-43.0735183643
 21
465.2517833387
 31
0.0
  0
ARC
  5
160
330
1F
100
AcDbEntity
  8
0
  6
Continuous
 62
     7
370
    15
100
AcDbCircle
 10
-33.0735208568
 20
474.2517823979
 30
0.0
 40
10.00000000000001
100
AcDbArc
 50
90.0
 51
180.0
  0
LINE
  5
161
330
1F
100
AcDbEntity
  8
0
  6
Continuous
 62
     7
370
    15
100
AcDbLine
 10
211.4264833047
 20
484.2517845904
 30
0.0
 11
-33.073527901
 21
484.2517845904
 31
0.0
  0
ARC
  5
162
330
1F
100
AcDbEntity
  8
0
  6
Continuous
 62
     7
370
    15
100
AcDbCircle
 10
211.4264791432
 20
474.2517823979
 30
0.0
 40
10.0
100
AcDbArc
 50
0.0
 51
90.0
  0
LINE
  5
163
330
1F
100
AcDbEntity
  8
0
  6
Continuous
 62
     7
370
    15
100
AcDbLine
 10
221.4264737679
 20
465.2517833387
 30
0.0
 11
221.4264737679
 21
474.251779226
 31
0.0
  0
LINE
  5
164
330
1F
100
AcDbEntity
  8
0
  6
Continuous
 62
     7
370
    15
100
AcDbLine
 10
-48.3234954761
 20
392.7727141057
 30
0.0
 11
-47.1235347675
 21
392.7727141057
 31
0.0
  0
LINE
  5
165
330
1F
100
AcDbEntity
  8
0
  6
Continuous
 62
     7
370
    15
100
AcDbLine
 10
-47.1235347675
 20
378.7517943059
 30
0.0
 11
-48.3234954761
 21
378.7517943059
 31
0.0
  0
LINE
  5
166
330
1F
100
AcDbEntity
  8
0
  6
Continuous
 62
     7
370
    15
100
AcDbLine
 10
-48.3234954761
 20
378.7517943059
 30
0.0
 11
-48.3234954761
 21
392.7727141057
 31
0.0
  0
LINE
  5
167
330
1F
100
AcDbEntity
  8
0
  6
Continuous
 62
     7
370
    15
100
AcDbLine
 10
-47.1235347675
 20
392.7727141057
 30
0.0
 11
-47.1235347675
 21
378.7517943059
 31
0.0
  0
LINE
  5
168
330
1F
100
AcDbEntity
  8
0
  6
Continuous
 62
     7
370
    15
100
AcDbLine
 10
226.676480682
 20
378.7517943059
 30
0.0
 11
225.4764752699
 21
378.7517943059
 31
0.0
  0
LINE
  5
169
330
1F
100
AcDbEntity
  8
0
  6
Continuous
 62
     7
370
    15
100
AcDbLine
 10
225.4764752699
 20
392.7727141057
 30
0.0
 11
226.676480682
 21
392.7727141057
 31
0.0
  0
LINE
  5
16A
330
1F
100
AcDbEntity
  8
0
  6
Continuous
 62
     7
370
    15
100
AcDbLine
 10
225.4764752699
 20
378.7517943059
 30
0.0
 11
225.4764752699
 21
392.7727141057
 31
0.0
  0
LINE
  5
16B
330
1F
100
AcDbEntity
  8
0
  6
Continuous
 62
     7
370
    15
100
AcDbLine
 10
226.676480682
 20
392.7727141057
 30
0.0
 11
226.676480682
 21
378.7517943059
 31
0.0
  0
LINE
  5
16C
330
1F
100
AcDbEntity
  8
0
  6
Continuous
 62
     7
370
    15
100
AcDbLine
 10
-47.1235347675
 20
472.5726195251
 30
0.0
 11
-48.3234954761
 21
472.5726195251
 31
0.0
  0
LINE
  5
16D
330
1F
100
AcDbEntity
  8
0
  6
Continuous
 62
     7
370
    15
100
AcDbLine
 10
-48.3234954761
 20
472.5726195251
 30
0.0
 11
-48.3234954761
 21
392.7727141057
 31
0.0
  0
LINE
  5
16E
330
1F
100
AcDbEntity
  8
0
  6
Continuous
 62
     7
370
    15
100
AcDbLine
 10
-47.1235347675
 20
472.5726195251
 30
0.0
 11
-47.1235347675
 21
392.7727141057
 31
0.0
  0
LINE
  5
16F
330
1F
100
AcDbEntity
  8
0
  6
Continuous
 62
     7
370
    15
100
AcDbLine
 10
225.4764752699
 20
472.5726195251
 30
0.0
 11
226.676480682
 21
472.5726195251
 31
0.0
  0
LINE
  5
170
330
1F
100
AcDbEntity
  8
0
  6
Continuous
 62
     7
370
    15
100
AcDbLine
 10
225.4764752699
 20
392.7727141057
 30
0.0
 11
225.4764752699
 21
472.5726195251
 31
0.0
  0
LINE
  5
171
330
1F
100
AcDbEntity
  8
0
  6
Continuous
 62
     7
370
    15
100
AcDbLine
 10
226.676480682
 20
392.7727141057
 30
0.0
 11
226.676480682
 21
472.5726195251
 31
0.0
  0
ARC
  5
172
330
1F
100
AcDbEntity
  8
0
  6
Continuous
 62
     7
370
    15
100
AcDbCircle
 10
-32.1235372752
 20
472.0494428593
 30
0.0
 40
14.99999749231232
100
AcDbArc
 50
89.9999312263
 51
179.9999549372
  0
ARC
  5
173
330
1F
100
AcDbEntity
  8
0
  6
Continuous
 62
     7
370
    15
100
AcDbCircle
 10
-32.1235330355
 20
472.572603488
 30
0.0
 40
15.00000173195475
100
AcDbArc
 50
89.9999474206
 51
179.9999387429
  0
LINE
  5
174
330
1F
100
AcDbEntity
  8
0
  6
Continuous
 62
     7
370
    15
100
AcDbLine
 10
-32.1235192703
 20
487.0494403516
 30
0.0
 11
-32.1235192703
 21
487.57260522
 31
0.0
  0
ARC
  5
175
330
1F
100
AcDbEntity
  8
0
  6
Continuous
 62
     7
370
    15
100
AcDbCircle
 10
-32.1235640055
 20
472.5726717109
 30
0.0
 40
16.19993147066371
100
AcDbArc
 50
89.9998417808
 51
180.0001845703
  0
LINE
  5
176
330
1F
100
AcDbEntity
  8
0
  6
Continuous
 62
     7
370
    15
100
AcDbLine
 10
-32.1235192703
 20
487.57260522
 30
0.0
 11
-32.1235192703
 21
488.7726031815
 31
0.0
  0
LINE
  5
177
330
1F
100
AcDbEntity
  8
0
  6
Continuous
 62
     7
370
    15
100
AcDbLine
 10
210.4764746739
 20
487.57260522
 30
0.0
 11
210.4764746739
 21
488.7726031815
 31
0.0
  0
ARC
  5
178
330
1F
100
AcDbEntity
  8
0
  6
Continuous
 62
     7
370
    15
100
AcDbCircle
 10
210.4764782044
 20
472.5726007038
 30
0.0
 40
16.20000247768336
100
AcDbArc
 50
0.0000665666
 51
90.0000124865
  0
ARC
  5
179
330
1F
100
AcDbEntity
  8
0
  6
Continuous
 62
     7
370
    15
100
AcDbCircle
 10
210.4764853416
 20
472.5726152917
 30
0.0
 40
14.99998992831863
100
AcDbArc
 50
0.0000161705
 51
90.0000407477
  0
ARC
  5
17A
330
1F
100
AcDbEntity
  8
0
  6
Continuous
 62
     7
370
    15
100
AcDbCircle
 10
210.4764895813
 20
472.049454663
 30
0.0
 40
14.9999856886724
100
AcDbArc
 50
359.9999999762
 51
90.000056942
  0
LINE
  5
17B
330
1F
100
AcDbEntity
  8
0
  6
Continuous
 62
     7
370
    15
100
AcDbLine
 10
210.4764746739
 20
487.57260522
 30
0.0
 11
210.4764746739
 21
487.0494403516
 31
0.0
  0
LINE
  5
17C
330
1F
100
AcDbEntity
  8
0
  6
Continuous
 62
     7
370
    15
100
AcDbLine
 10
-32.1235192703
 20
488.7726031815
 30
0.0
 11
210.4764746739
 21
488.7726031815
 31
0.0
  0
LINE
  5
17D
330
1F
100
AcDbEntity
  8
0
  6
Continuous
 62
     7
370
    15
100
AcDbLine
 10
-32.1235192703
 20
487.57260522
 30
0.0
 11
210.4764746739
 21
487.57260522
 31
0.0
  0
LINE
  5
17E
330
1F
100
AcDbEntity
  8
0
  6
Continuous
 62
     7
370
    15
100
AcDbLine
 10
210.4764746739
 20
487.0494403516
 30
0.0
 11
-32.1235192703
 21
487.0494403516
 31
0.0
  0
LINE
  5
17F
330
1F
100
AcDbEntity
  8
0
  6
Continuous
 62
     7
370
    15
100
AcDbLine
 10
92.6764773442
 20
487.480672506
 30
0.0
 11
92.6764773442
 21
487.3446547066
 31
0.0
  0
LWPOLYLINE
  5
180
330
1F
100
AcDbEntity
  8
0
  6
Continuous
 62
     7
370
    15
100
AcDbPolyline
 90
        9
 70
   128
 43
0.0
 10
89.176492603
 20
487.4859102641
 10
89.8592936112
 20
487.485805956
 10
90.5158685757
 20
487.4855079328
 10
91.1209749295
 20
487.4850236451
 10
91.651366861
 20
487.4843754445
 10
92.0866297795
 20
487.483585683
 10
92.410044582
 20
487.4826767122
 10
92.6092135026
 20
487.4816932355
 10
92.6764773442
 20
487.480672506
  0
LWPOLYLINE
  5
181
330
1F
100
AcDbEntity
  8
0
  6
Continuous
 62
     7
370
    15
100
AcDbPolyline
 90
        9
 70
   128
 43
0.0
 10
85.6764780594
 20
487.480672506
 10
85.7437419011
 20
487.4816932355
 10
85.9429108216
 20
487.4826767122
 10
86.2663256241
 20
487.483585683
 10
86.7016183449
 20
487.4843754445
 10
87.2319804741
 20
487.4850236451
 10
87.8370868279
 20
487.4855079328
 10
88.4936617924
 20
487.485805956
 10
89.176492603
 20
487.4859102641
  0
LINE
  5
182
330
1F
100
AcDbEntity
  8
0
  6
Continuous
 62
     7
370
    15
100
AcDbLine
 10
85.6764780594
 20
487.3446547066
 30
0.0
 11
85.6764780594
 21
487.480672506
 31
0.0
  0
LWPOLYLINE
  5
183
330
1F
100
AcDbEntity
  8
0
  6
Continuous
 62
     7
370
    15
100
AcDbPolyline
 90
        9
 70
   128
 43
0.0
 10
89.176492603
 20
487.339424399
 10
88.4936617924
 20
487.3395212566
 10
87.8370868279
 20
487.3398192798
 10
87.2319804741
 20
487.3403035675
 10
86.7016183449
 20
487.3409517681
 10
86.2663256241
 20
487.3417489802
 10
85.9429108216
 20
487.3426505004
 10
85.7437419011
 20
487.3436339771
 10
85.6764780594
 20
487.3446547066
  0
LWPOLYLINE
  5
184
330
1F
100
AcDbEntity
  8
0
  6
Continuous
 62
     7
370
    15
100
AcDbPolyline
 90
        9
 70
   128
 43
0.0
 10
92.6764773442
 20
487.3446547066
 10
92.6092135026
 20
487.3436339771
 10
92.410044582
 20
487.3426505004
 10
92.0866297795
 20
487.3417489802
 10
91.651366861
 20
487.3409517681
 10
91.1209749295
 20
487.3403035675
 10
90.5158685757
 20
487.3398192798
 10
89.8592936112
 20
487.3395212566
 10
89.176492603
 20
487.339424399
  0
LINE
  5
185
330
1F
100
AcDbEntity
  8
0
  6
Continuous
 62
     7
370
    15
100
AcDbLine
 10
-48.3234954761
 20
378.2570310508
 30
0.0
 11
-47.1235347675
 21
378.2570310508
 31
0.0
  0
LINE
  5
186
330
1F
100
AcDbEntity
  8
0
  6
Continuous
 62
     7
370
    15
100
AcDbLine
 10
-48.3234954761
 20
378.7517943059
 30
0.0
 11
-48.3234954761
 21
378.2570310508
 31
0.0
  0
LINE
  5
187
330
1F
100
AcDbEntity
  8
0
  6
Continuous
 62
     7
370
    15
100
AcDbLine
 10
-47.1235347675
 20
378.7517943059
 30
0.0
 11
-47.1235347675
 21
378.2570310508
 31
0.0
  0
LINE
  5
188
330
1F
100
AcDbEntity
  8
0
  6
Continuous
 62
     7
370
    15
100
AcDbLine
 10
225.4764752699
 20
378.2570310508
 30
0.0
 11
226.676480682
 21
378.2570310508
 31
0.0
  0
LINE
  5
189
330
1F
100
AcDbEntity
  8
0
  6
Continuous
 62
     7
370
    15
100
AcDbLine
 10
225.4764752699
 20
378.2570310508
 30
0.0
 11
225.4764752699
 21
378.7517943059
 31
0.0
  0
LINE
  5
18A
330
1F
100
AcDbEntity
  8
0
  6
Continuous
 62
     7
370
    15
100
AcDbLine
 10
226.676480682
 20
378.2570310508
 30
0.0
 11
226.676480682
 21
378.7517943059
 31
0.0
  0
LINE
  5
18B
330
1F
100
AcDbEntity
  8
0
  6
Continuous
 62
     8
370
    15
100
AcDbLine
 10
89.176492603
 20
487.4859102641
 30
0.0
 11
89.176492603
 21
487.339424399
 31
0.0
  0
LINE
  5
18C
330
1F
100
AcDbEntity
  8
0
  6
Continuous
 62
     7
370
    15
100
AcDbLine
 10
763.3264199729
 20
250.7881961525
 30
0.0
 11
762.0130316253
 21
250.7881961525
 31
0.0
  0
LINE
  5
18D
330
1F
100
AcDbEntity
  8
0
  6
Continuous
 62
     7
370
    15
100
AcDbLine
 10
762.0130316253
 20
239.7882036627
 30
0.0
 11
763.3264199729
 21
239.7882036627
 31
0.0
  0
LINE
  5
18E
330
1F
100
AcDbEntity
  8
0
  6
Continuous
 62
     7
370
    15
100
AcDbLine
 10
490.7264099355
 20
239.7882036627
 30
0.0
 11
492.0398131843
 21
239.7882036627
 31
0.0
  0
LINE
  5
18F
330
1F
100
AcDbEntity
  8
0
  6
Continuous
 62
     7
370
    15
100
AcDbLine
 10
492.0398131843
 20
250.7881961525
 30
0.0
 11
490.7264099355
 21
250.7881961525
 31
0.0
  0
LINE
  5
190
330
1F
100
AcDbEntity
  8
0
  6
Continuous
 62
     7
370
    15
100
AcDbLine
 10
763.3264199729
 20
-15.2115009963
 30
0.0
 11
762.0130316253
 21
-15.2115009963
 31
0.0
  0
LINE
  5
191
330
1F
100
AcDbEntity
  8
0
  6
Continuous
 62
     7
370
    15
100
AcDbLine
 10
762.0130316253
 20
-26.2115009367
 30
0.0
 11
763.3264199729
 21
-26.2115009367
 31
0.0
  0
LINE
  5
192
330
1F
100
AcDbEntity
  8
0
  6
Continuous
 62
     7
370
    15
100
AcDbLine
 10
490.7264099355
 20
-26.2115009367
 30
0.0
 11
492.0398131843
 21
-26.2115009367
 31
0.0
  0
LINE
  5
193
330
1F
100
AcDbEntity
  8
0
  6
Continuous
 62
     7
370
    15
100
AcDbLine
 10
492.0398131843
 20
-15.2115009963
 30
0.0
 11
490.7264099355
 21
-15.2115009963
 31
0.0
  0
CIRCLE
  5
194
330
1F
100
AcDbEntity
  8
0
  6
Continuous
 62
     7
370
    15
100
AcDbCircle
 10
729.0264060622
 20
278.5384995685
 30
0.0
 40
5.0
  0
CIRCLE
  5
195
330
1F
100
AcDbEntity
  8
0
  6
Continuous
 62
     7
370
    15
100
AcDbCircle
 10
729.0264060622
 20
278.5384995685
 30
0.0
 40
10.0
  0
CIRCLE
  5
196
330
1F
100
AcDbEntity
  8
0
  6
Continuous
 62
     7
370
    15
100
AcDbCircle
 10
525.0264060622
 20
278.5384995685
 30
0.0
 40
4.999999999999886
  0
CIRCLE
  5
197
330
1F
100
AcDbEntity
  8
0
  6
Continuous
 62
     7
370
    15
100
AcDbCircle
 10
525.0264060622
 20
278.5384995685
 30
0.0
 40
10.0
  0
CIRCLE
  5
198
330
1F
100
AcDbEntity
  8
0
  6
Continuous
 62
     7
370
    15
100
AcDbCircle
 10
729.0264060622
 20
-1.4615004315
 30
0.0
 40
4.999999999999886
  0
CIRCLE
  5
199
330
1F
100
AcDbEntity
  8
0
  6
Continuous
 62
     7
370
    15
100
AcDbCircle
 10
729.0264060622
 20
-1.4615004315
 30
0.0
 40
10.0
  0
CIRCLE
  5
19A
330
1F
100
AcDbEntity
  8
0
  6
Continuous
 62
     7
370
    15
100
AcDbCircle
 10
525.0264060622
 20
-1.4615004315
 30
0.0
 40
4.999999999999886
  0
CIRCLE
  5
19B
330
1F
100
AcDbEntity
  8
0
  6
Continuous
 62
     7
370
    15
100
AcDbCircle
 10
525.0264060622
 20
-1.4615004315
 30
0.0
 40
10.0
  0
LINE
  5
19C
330
1F
100
AcDbEntity
  8
0
  6
Continuous
 62
     7
370
    15
100
AcDbLine
 10
494.7764114375
 20
-29.724896723
 30
0.0
 11
494.7764114375
 21
-28.4615017712
 31
0.0
  0
LINE
  5
19D
330
1F
100
AcDbEntity
  8
0
  6
Continuous
 62
     7
370
    15
100
AcDbLine
 10
494.7764114375
 20
279.5384965599
 30
0.0
 11
494.7764114375
 21
-28.4615017712
 31
0.0
  0
LINE
  5
19E
330
1F
100
AcDbEntity
  8
0
  6
Continuous
 62
     7
370
    15
100
AcDbLine
 10
494.7764114375
 20
279.5384965599
 30
0.0
 11
494.7764114375
 21
306.8018994988
 31
0.0
  0
LINE
  5
19F
330
1F
100
AcDbEntity
  8
0
  6
Continuous
 62
     7
370
    15
100
AcDbLine
 10
759.2764035697
 20
306.8018994988
 30
0.0
 11
494.7764114375
 21
306.8018994988
 31
0.0
  0
LINE
  5
1A0
330
1F
100
AcDbEntity
  8
0
  6
Continuous
 62
     7
370
    15
100
AcDbLine
 10
759.2764035697
 20
306.8018994988
 30
0.0
 11
759.2764035697
 21
279.5384965599
 31
0.0
  0
LINE
  5
1A1
330
1F
100
AcDbEntity
  8
0
  6
Continuous
 62
     7
370
    15
100
AcDbLine
 10
759.2764035697
 20
-28.4615017712
 30
0.0
 11
759.2764035697
 21
279.5384965599
 31
0.0
  0
LINE
  5
1A2
330
1F
100
AcDbEntity
  8
0
  6
Continuous
 62
     7
370
    15
100
AcDbLine
 10
759.2764035697
 20
-28.4615017712
 30
0.0
 11
759.2764035697
 21
-29.724896723
 31
0.0
  0
LINE
  5
1A3
330
1F
100
AcDbEntity
  8
0
  6
Continuous
 62
     7
370
    15
100
AcDbLine
 10
494.7764114375
 20
-29.724896723
 30
0.0
 11
759.2764035697
 21
-29.724896723
 31
0.0
  0
CIRCLE
  5
1A4
330
1F
100
AcDbEntity
  8
0
  6
Continuous
 62
     7
370
    15
100
AcDbCircle
 10
729.0264060622
 20
278.5384995685
 30
0.0
 40
3.0
  0
CIRCLE
  5
1A5
330
1F
100
AcDbEntity
  8
0
  6
Continuous
 62
     7
370
    15
100
AcDbCircle
 10
525.0264060622
 20
278.5384995685
 30
0.0
 40
2.999999999999886
  0
CIRCLE
  5
1A6
330
1F
100
AcDbEntity
  8
0
  6
Continuous
 62
     7
370
    15
100
AcDbCircle
 10
729.0264060622
 20
-1.4615004315
 30
0.0
 40
2.999999999999886
  0
CIRCLE
  5
1A7
330
1F
100
AcDbEntity
  8
0
  6
Continuous
 62
     7
370
    15
100
AcDbCircle
 10
525.0264060622
 20
-1.4615004315
 30
0.0
 40
2.999999999999886
  0
LINE
  5
1A8
330
1F
100
AcDbEntity
  8
0
  6
Continuous
 62
     7
370
    15
100
AcDbLine
 10
492.0398131843
 20
-28.4615017712
 30
0.0
 11
492.0398131843
 21
279.5384965599
 31
0.0
  0
LINE
  5
1A9
330
1F
100
AcDbEntity
  8
0
  6
Continuous
 62
     7
370
    15
100
AcDbLine
 10
492.0398131843
 20
279.5384965599
 30
0.0
 11
494.7764114375
 21
279.5384965599
 31
0.0
  0
LINE
  5
1AA
330
1F
100
AcDbEntity
  8
0
  6
Continuous
 62
     7
370
    15
100
AcDbLine
 10
494.7764114375
 20
-28.4615017712
 30
0.0
 11
492.0398131843
 21
-28.4615017712
 31
0.0
  0
LINE
  5
1AB
330
1F
100
AcDbEntity
  8
0
  6
Continuous
 62
     7
370
    15
100
AcDbLine
 10
759.2764035697
 20
279.5384965599
 30
0.0
 11
762.0130316253
 21
279.5384965599
 31
0.0
  0
LINE
  5
1AC
330
1F
100
AcDbEntity
  8
0
  6
Continuous
 62
     7
370
    15
100
AcDbLine
 10
762.0130316253
 20
279.5384965599
 30
0.0
 11
762.0130316253
 21
-28.4615017712
 31
0.0
  0
LINE
  5
1AD
330
1F
100
AcDbEntity
  8
0
  6
Continuous
 62
     7
370
    15
100
AcDbLine
 10
762.0130316253
 20
-28.4615017712
 30
0.0
 11
759.2764035697
 21
-28.4615017712
 31
0.0
  0
LINE
  5
1AE
330
1F
100
AcDbEntity
  8
0
  6
Continuous
 62
     7
370
    15
100
AcDbLine
 10
494.7764114375
 20
306.8018994988
 30
0.0
 11
494.7764114375
 21
309.538497752
 31
0.0
  0
LINE
  5
1AF
330
1F
100
AcDbEntity
  8
0
  6
Continuous
 62
     7
370
    15
100
AcDbLine
 10
494.7764114375
 20
309.538497752
 30
0.0
 11
759.2764035697
 21
309.538497752
 31
0.0
  0
LINE
  5
1B0
330
1F
100
AcDbEntity
  8
0
  6
Continuous
 62
     7
370
    15
100
AcDbLine
 10
759.2764035697
 20
309.538497752
 30
0.0
 11
759.2764035697
 21
306.8018994988
 31
0.0
  0
LINE
  5
1B1
330
1F
100
AcDbEntity
  8
0
  6
Continuous
 62
     7
370
    15
100
AcDbLine
 10
759.2764035697
 20
-29.724896723
 30
0.0
 11
759.2764035697
 21
-32.4615024268
 31
0.0
  0
LINE
  5
1B2
330
1F
100
AcDbEntity
  8
0
  6
Continuous
 62
     7
370
    15
100
AcDbLine
 10
759.2764035697
 20
-32.4615024268
 30
0.0
 11
494.7764114375
 21
-32.4615024268
 31
0.0
  0
LINE
  5
1B3
330
1F
100
AcDbEntity
  8
0
  6
Continuous
 62
     7
370
    15
100
AcDbLine
 10
494.7764114375
 20
-32.4615024268
 30
0.0
 11
494.7764114375
 21
-29.724896723
 31
0.0
  0
LINE
  5
1B4
330
1F
100
AcDbEntity
  8
0
  6
Continuous
 62
     7
370
    15
100
AcDbLine
 10
489.5264045234
 20
315.2746699513
 30
0.0
 11
490.7264099355
 21
315.2746699513
 31
0.0
  0
LINE
  5
1B5
330
1F
100
AcDbEntity
  8
0
  6
Continuous
 62
     7
370
    15
100
AcDbLine
 10
490.7264099355
 20
315.2746699513
 30
0.0
 11
490.7264099355
 21
310.2672092379
 31
0.0
  0
LINE
  5
1B6
330
1F
100
AcDbEntity
  8
0
  6
Continuous
 62
     7
370
    15
100
AcDbLine
 10
490.7264099355
 20
310.2672092379
 30
0.0
 11
489.5264045234
 21
310.2672092379
 31
0.0
  0
LINE
  5
1B7
330
1F
100
AcDbEntity
  8
0
  6
Continuous
 62
     7
370
    15
100
AcDbLine
 10
489.5264045234
 20
310.2672092379
 30
0.0
 11
489.5264045234
 21
315.2746699513
 31
0.0
  0
LINE
  5
1B8
330
1F
100
AcDbEntity
  8
0
  6
Continuous
 62
     7
370
    15
100
AcDbLine
 10
764.5263806815
 20
310.2672092379
 30
0.0
 11
763.3264199729
 21
310.2672092379
 31
0.0
  0
LINE
  5
1B9
330
1F
100
AcDbEntity
  8
0
  6
Continuous
 62
     7
370
    15
100
AcDbLine
 10
763.3264199729
 20
315.2746699513
 30
0.0
 11
764.5263806815
 21
315.2746699513
 31
0.0
  0
LINE
  5
1BA
330
1F
100
AcDbEntity
  8
0
  6
Continuous
 62
     7
370
    15
100
AcDbLine
 10
764.5263806815
 20
315.2746699513
 30
0.0
 11
764.5263806815
 21
310.2672092379
 31
0.0
  0
LINE
  5
1BB
330
1F
100
AcDbEntity
  8
0
  6
Continuous
 62
     7
370
    15
100
AcDbLine
 10
763.3264199729
 20
310.2672092379
 30
0.0
 11
763.3264199729
 21
315.2746699513
 31
0.0
  0
LINE
  5
1BC
330
1F
100
AcDbEntity
  8
0
  6
Continuous
 62
     7
370
    15
100
AcDbLine
 10
489.5264045234
 20
-20.7324259221
 30
0.0
 11
490.7264099355
 21
-20.7324259221
 31
0.0
  0
LINE
  5
1BD
330
1F
100
AcDbEntity
  8
0
  6
Continuous
 62
     7
370
    15
100
AcDbLine
 10
490.7264099355
 20
310.2672092379
 30
0.0
 11
490.7264099355
 21
-20.7324259221
 31
0.0
  0
LINE
  5
1BE
330
1F
100
AcDbEntity
  8
0
  6
Continuous
 62
     7
370
    15
100
AcDbLine
 10
489.5264045234
 20
310.2672092379
 30
0.0
 11
489.5264045234
 21
-20.7324259221
 31
0.0
  0
LINE
  5
1BF
330
1F
100
AcDbEntity
  8
0
  6
Continuous
 62
     7
370
    15
100
AcDbLine
 10
763.3264199729
 20
-20.7324259221
 30
0.0
 11
764.5263806815
 21
-20.7324259221
 31
0.0
  0
LINE
  5
1C0
330
1F
100
AcDbEntity
  8
0
  6
Continuous
 62
     7
370
    15
100
AcDbLine
 10
764.5263806815
 20
-20.7324259221
 30
0.0
 11
764.5263806815
 21
310.2672092379
 31
0.0
  0
LINE
  5
1C1
330
1F
100
AcDbEntity
  8
0
  6
Continuous
 62
     7
370
    15
100
AcDbLine
 10
763.3264199729
 20
-20.7324259221
 30
0.0
 11
763.3264199729
 21
310.2672092379
 31
0.0
  0
LINE
  5
1C2
330
1F
100
AcDbEntity
  8
0
  6
Continuous
 62
     7
370
    15
100
AcDbLine
 10
490.7264099355
 20
-34.7114883601
 30
0.0
 11
489.5264045234
 21
-34.7114883601
 31
0.0
  0
LINE
  5
1C3
330
1F
100
AcDbEntity
  8
0
  6
Continuous
 62
     7
370
    15
100
AcDbLine
 10
490.7264099355
 20
-20.7324259221
 30
0.0
 11
490.7264099355
 21
-34.7114883601
 31
0.0
  0
LINE
  5
1C4
330
1F
100
AcDbEntity
  8
0
  6
Continuous
 62
     7
370
    15
100
AcDbLine
 10
489.5264045234
 20
-34.7114883601
 30
0.0
 11
489.5264045234
 21
-20.7324259221
 31
0.0
  0
LINE
  5
1C5
330
1F
100
AcDbEntity
  8
0
  6
Continuous
 62
     7
370
    15
100
AcDbLine
 10
764.5263806815
 20
-34.7114883601
 30
0.0
 11
763.3264199729
 21
-34.7114883601
 31
0.0
  0
LINE
  5
1C6
330
1F
100
AcDbEntity
  8
0
  6
Continuous
 62
     7
370
    15
100
AcDbLine
 10
764.5263806815
 20
-20.7324259221
 30
0.0
 11
764.5263806815
 21
-34.7114883601
 31
0.0
  0
LINE
  5
1C7
330
1F
100
AcDbEntity
  8
0
  6
Continuous
 62
     7
370
    15
100
AcDbLine
 10
763.3264199729
 20
-34.7114883601
 30
0.0
 11
763.3264199729
 21
-20.7324259221
 31
0.0
  0
LINE
  5
1C8
330
1F
100
AcDbEntity
  8
0
  6
Continuous
 62
     7
370
    15
100
AcDbLine
 10
490.7264099355
 20
315.4074094952
 30
0.0
 11
489.5264045234
 21
315.4074094952
 31
0.0
  0
LINE
  5
1C9
330
1F
100
AcDbEntity
  8
0
  6
Continuous
 62
     7
370
    15
100
AcDbLine
 10
490.7264099355
 20
315.4074094952
 30
0.0
 11
490.7264099355
 21
315.2746699513
 31
0.0
  0
LINE
  5
1CA
330
1F
100
AcDbEntity
  8
0
  6
Continuous
 62
     7
370
    15
100
AcDbLine
 10
489.5264045234
 20
315.4074094952
 30
0.0
 11
489.5264045234
 21
315.2746699513
 31
0.0
  0
LINE
  5
1CB
330
1F
100
AcDbEntity
  8
0
  6
Continuous
 62
     7
370
    15
100
AcDbLine
 10
763.3264199729
 20
315.4074094952
 30
0.0
 11
764.5263806815
 21
315.4074094952
 31
0.0
  0
LINE
  5
1CC
330
1F
100
AcDbEntity
  8
0
  6
Continuous
 62
     7
370
    15
100
AcDbLine
 10
764.5263806815
 20
315.2746699513
 30
0.0
 11
764.5263806815
 21
315.4074094952
 31
0.0
  0
LINE
  5
1CD
330
1F
100
AcDbEntity
  8
0
  6
Continuous
 62
     7
370
    15
100
AcDbLine
 10
763.3264199729
 20
315.2746699513
 30
0.0
 11
763.3264199729
 21
315.4074094952
 31
0.0
  0
LWPOLYLINE
  5
1CE
330
1F
100
AcDbEntity
  8
0
  6
Continuous
 62
     7
370
    15
100
AcDbPolyline
 90
       12
 70
   128
 43
0.0
 10
505.7264105315
 20
315.4316238821
 10
503.4209028716
 20
315.4313705624
 10
501.1623338695
 20
315.4306404055
 10
498.9966885085
 20
315.4294334114
 10
496.9680295224
 20
315.4277793825
 10
495.11766293
 20
315.4257081211
 10
493.4832588668
 20
315.4232643307
 10
492.0980916257
 20
315.4204927147
 10
490.9903691049
 20
315.417467779
 10
490.18262186
 20
315.414234227
 10
489.6913007731
 20
315.4108516634
 10
489.5264045234
 20
315.4074094952
  0
LINE
  5
1CF
330
1F
100
AcDbEntity
  8
0
  6
Continuous
 62
     7
370
    15
100
AcDbLine
 10
505.7264105315
 20
315.4298208416
 30
0.0
 11
505.7264105315
 21
315.4316238821
 31
0.0
  0
LWPOLYLINE
  5
1D0
330
1F
100
AcDbEntity
  8
0
  6
Continuous
 62
     7
370
    15
100
AcDbPolyline
 90
       11
 70
   128
 43
0.0
 10
505.7264105315
 20
315.4298208416
 10
503.379894876
 20
315.4295526207
 10
501.0911510224
 20
315.4287330568
 10
498.9165500636
 20
315.4273770512
 10
496.9096318717
 20
315.4255442083
 10
495.1198086972
 20
315.4232643307
 10
493.591158175
 20
315.4205821217
 10
492.361305737
 20
315.4175869883
 10
491.4605603452
 20
315.4143385351
 10
490.9110800261
 20
315.4109112681
 10
490.7264099355
 20
315.4074094952
  0
LWPOLYLINE
  5
1D1
330
1F
100
AcDbEntity
  8
0
  6
Continuous
 62
     7
370
    15
100
AcDbPolyline
 90
       11
 70
   128
 43
0.0
 10
490.7264099355
 20
-34.5922045648
 10
490.9110800261
 20
-34.5886953413
 10
491.4605603452
 20
-34.5852755248
 10
492.361305737
 20
-34.5820270717
 10
493.591158175
 20
-34.5790244877
 10
495.1198086972
 20
-34.5763497292
 10
496.9096318717
 20
-34.574062401
 10
498.9165500636
 20
-34.5722295582
 10
501.0911510224
 20
-34.5708810031
 10
503.379894876
 20
-34.5700614392
 10
505.7264105315
 20
-34.5697857677
  0
LWPOLYLINE
  5
1D2
330
1F
100
AcDbEntity
  8
0
  6
Continuous
 62
     7
370
    15
100
AcDbPolyline
 90
       12
 70
   128
 43
0.0
 10
764.5263806815
 20
315.4074094952
 10
764.3615142341
 20
315.4108516634
 10
763.8701931472
 20
315.414234227
 10
763.0624310012
 20
315.417467779
 10
761.9547382827
 20
315.4204927147
 10
760.5695561404
 20
315.4232643307
 10
758.935137176
 20
315.4257081211
 10
757.084800386
 20
315.4277793825
 10
755.0561264987
 20
315.4294334114
 10
752.8904811378
 20
315.4306404055
 10
750.6319121356
 20
315.4313705624
 10
748.3264044757
 20
315.4316238821
  0
LWPOLYLINE
  5
1D3
330
1F
100
AcDbEntity
  8
0
  6
Continuous
 62
     7
370
    15
100
AcDbPolyline
 90
       11
 70
   128
 43
0.0
 10
763.3264199729
 20
315.4074094952
 10
763.1417051787
 20
315.4109112681
 10
762.5922695632
 20
315.4143385351
 10
761.6915241714
 20
315.4175869883
 10
760.4616717334
 20
315.4205821217
 10
758.9330212111
 20
315.4232643307
 10
757.1431831355
 20
315.4255442083
 10
755.1362649436
 20
315.4273770512
 10
752.9616490836
 20
315.4287330568
 10
750.6729201312
 20
315.4295526207
 10
748.3264044757
 20
315.4298208416
  0
LWPOLYLINE
  5
1D4
330
1F
100
AcDbEntity
  8
0
  6
Continuous
 62
     7
370
    15
100
AcDbPolyline
 90
       11
 70
   128
 43
0.0
 10
748.3264044757
 20
-34.5697857677
 10
750.6729201312
 20
-34.5700614392
 10
752.9616490836
 20
-34.5708810031
 10
755.1362649436
 20
-34.5722295582
 10
757.1431831355
 20
-34.574062401
 10
758.9330212111
 20
-34.5763497292
 10
760.4616717334
 20
-34.5790244877
 10
761.6915241714
 20
-34.5820270717
 10
762.5922695632
 20
-34.5852755248
 10
763.1417051787
 20
-34.5886953413
 10
763.3264199729
 20
-34.5922045648
  0
LINE
  5
1D5
330
1F
100
AcDbEntity
  8
0
  6
Continuous
 62
     7
370
    15
100
AcDbLine
 10
748.3264044757
 20
315.4298208416
 30
0.0
 11
748.3264044757
 21
315.4316238821
 31
0.0
  0
LINE
  5
1D6
330
1F
100
AcDbEntity
  8
0
  6
Continuous
 62
     7
370
    15
100
AcDbLine
 10
505.7264105315
 20
315.4316238821
 30
0.0
 11
748.3264044757
 21
315.4316238821
 31
0.0
  0
LINE
  5
1D7
330
1F
100
AcDbEntity
  8
0
  6
Continuous
 62
     7
370
    15
100
AcDbLine
 10
505.7264105315
 20
315.4298208416
 30
0.0
 11
748.3264044757
 21
315.4298208416
 31
0.0
  0
LINE
  5
1D8
330
1F
100
AcDbEntity
  8
0
  6
Continuous
 62
     7
370
    15
100
AcDbLine
 10
748.3264044757
 20
-34.5697857677
 30
0.0
 11
505.7264105315
 21
-34.5697857677
 31
0.0
  0
LINE
  5
1D9
330
1F
100
AcDbEntity
  8
0
  6
Continuous
 62
     8
370
    15
100
AcDbLine
 10
505.7264105315
 20
-34.5697857677
 30
0.0
 11
505.7264105315
 21
-32.4615024268
 31
0.0
  0
LINE
  5
1DA
330
1F
100
AcDbEntity
  8
0
  6
Continuous
 62
     8
370
    15
100
AcDbLine
 10
505.7264105315
 20
309.538497752
 30
0.0
 11
505.7264105315
 21
315.4298208416
 31
0.0
  0
LINE
  5
1DB
330
1F
100
AcDbEntity
  8
0
  6
Continuous
 62
     8
370
    15
100
AcDbLine
 10
748.3264044757
 20
315.4298208416
 30
0.0
 11
748.3264044757
 21
309.538497752
 31
0.0
  0
LINE
  5
1DC
330
1F
100
AcDbEntity
  8
0
  6
Continuous
 62
     8
370
    15
100
AcDbLine
 10
748.3264044757
 20
-32.4615024268
 30
0.0
 11
748.3264044757
 21
-34.5697857677
 31
0.0
  0
ENDSEC
  0
SECTION
  2
OBJECTS
  0
DICTIONARY
  5
C
330
0
100
AcDbDictionary
281
     1
  3
ACAD_GROUP
350
D
  3
ACAD_LAYOUT
350
1A
  3
ACAD_MLINESTYLE
350
17
  3
ACAD_PLOTSETTINGS
350
19
  3
ACAD_PLOTSTYLENAME
350
E
  3
ACAD_SCALELIST
350
47
  0
DICTIONARY
  5
D
102
{ACAD_REACTORS
330
C
102
}
330
C
100
AcDbDictionary
281
     1
  0
DICTIONARY
  5
1A
102
{ACAD_REACTORS
330
C
102
}
330
C
100
AcDbDictionary
281
     1
  3
Layout1
350
1E
  3
Layout2
350
26
  3
Model
350
22
  0
DICTIONARY
  5
17
102
{ACAD_REACTORS
330
C
102
}
330
C
100
AcDbDictionary
281
     1
  3
Standard
350
18
  0
DICTIONARY
  5
19
102
{ACAD_REACTORS
330
C
102
}
330
C
100
AcDbDictionary
281
     1
  0
ACDBDICTIONARYWDFLT
  5
E
102
{ACAD_REACTORS
330
C
102
}
330
C
100
AcDbDictionary
281
     1
  3
Normal
350
F
100
AcDbDictionaryWithDefault
340
F
  0
DICTIONARY
  5
47
102
{ACAD_REACTORS
330
C
102
}
330
C
100
AcDbDictionary
281
     1
  3
A0
350
48
  3
A1
350
49
  3
A2
350
4A
  3
A3
350
4B
  3
A4
350
4C
  3
A5
350
4D
  3
A6
350
4E
  3
A7
350
4F
  3
A8
350
50
  3
A9
350
51
  3
B0
350
52
  3
B1
350
53
  3
B2
350
54
  3
B3
350
55
  3
B4
350
56
  3
B5
350
57
  3
B6
350
58
  3
B7
350
59
  3
B8
350
5A
  3
B9
350
5B
  3
C0
350
5C
  3
C1
350
5D
  3
C2
350
5E
  3
C3
350
5F
  3
C4
350
60
  3
C5
350
61
  3
C6
350
62
  3
C7
350
63
  3
C8
350
64
  3
C9
350
65
  3
D0
350
66
  3
D1
350
67
  3
D2
350
68
  0
LAYOUT
  5
1E
102
{ACAD_REACTORS
330
1A
102
}
330
1A
100
AcDbPlotSettings
  1

  2
none_device
  4

  6

 40
0.0
 41
0.0
 42
0.0
 43
0.0
 44
0.0
 45
0.0
 46
0.0
 47
0.0
 48
0.0
 49
0.0
140
0.0
141
0.0
142
1.0
143
1.0
 70
   688
 72
     1
 73
     0
 74
     5
  7

 75
    16
147
1.0
148
0.0
149
0.0
100
AcDbLayout
  1
Layout1
 70
     1
 71
     1
 10
0.0
 20
0.0
 11
420.0
 21
297.0
 12
0.0
 22
0.0
 32
0.0
 14
1.0000000000E+20
 24
1.0000000000E+20
 34
1.0000000000E+20
 15
-1.0000000000E+20
 25
-1.0000000000E+20
 35
-1.0000000000E+20
146
0.0
 13
0.0
 23
0.0
 33
0.0
 16
1.0
 26
0.0
 36
0.0
 17
0.0
 27
1.0
 37
0.0
 76
     0
330
1B
  0
LAYOUT
  5
26
102
{ACAD_REACTORS
330
1A
102
}
330
1A
100
AcDbPlotSettings
  1

  2
none_device
  4

  6

 40
0.0
 41
0.0
 42
0.0
 43
0.0
 44
0.0
 45
0.0
 46
0.0
 47
0.0
 48
0.0
 49
0.0
140
0.0
141
0.0
142
1.0
143
1.0
 70
   688
 72
     1
 73
     0
 74
     5
  7

 75
    16
147
1.0
148
0.0
149
0.0
100
AcDbLayout
  1
Layout2
 70
     1
 71
     2
 10
0.0
 20
0.0
 11
0.0
 21
0.0
 12
0.0
 22
0.0
 32
0.0
 14
0.0
 24
0.0
 34
0.0
 15
0.0
 25
0.0
 35
0.0
146
0.0
 13
0.0
 23
0.0
 33
0.0
 16
1.0
 26
0.0
 36
0.0
 17
0.0
 27
1.0
 37
0.0
 76
     0
330
23
  0
LAYOUT
  5
22
102
{ACAD_REACTORS
330
1A
102
}
330
1A
100
AcDbPlotSettings
  1

  2
none_device
  4
Letter_(8.50_x_11.00_Inches)
  6

 40
6.35
 41
6.35
 42
6.35000508
 43
6.35000508
 44
215.9
 45
279.4
 46
0.0
 47
0.0
 48
0.0
 49
0.0
140
0.0
141
0.0
142
1.0
143
1.0
 70
  1712
 72
     1
 73
     0
 74
     0
  7

 75
     0
147
1.0
148
0.0
149
0.0
100
AcDbLayout
  1
Model
 70
     1
 71
     0
 10
0.0
 20
0.0
 11
279.4
 21
215.9
 12
0.0
 22
0.0
 32
0.0
 14
0.0
 24
0.0
 34
0.0
 15
279.4
 25
215.9
 35
0.0
146
0.0
 13
0.0
 23
0.0
 33
0.0
 16
1.0
 26
0.0
 36
0.0
 17
0.0
 27
1.0
 37
0.0
 76
     0
330
1F
331
29
  0
MLINESTYLE
  5
18
102
{ACAD_REACTORS
330
17
102
}
330
17
100
AcDbMlineStyle
  2
Standard
 70
     0
  3

 62
   256
 51
90.0
 52
90.0
 71
     2
 49
0.5
 62
   256
  6
BYLAYER
 49
-0.5
 62
   256
  6
BYLAYER
  0
ACDBPLACEHOLDER
  5
F
102
{ACAD_REACTORS
330
E
102
}
330
E
  0
SCALE
  5
48
102
{ACAD_REACTORS
330
47
102
}
330
47
100
AcDbScale
 70
     0
300
1:1
140
1.0
141
1.0
290
     1
  0
SCALE
  5
49
102
{ACAD_REACTORS
330
47
102
}
330
47
100
AcDbScale
 70
     0
300
1:2
140
1.0
141
2.0
290
     0
  0
SCALE
  5
4A
102
{ACAD_REACTORS
330
47
102
}
330
47
100
AcDbScale
 70
     0
300
1:4
140
1.0
141
4.0
290
     0
  0
SCALE
  5
4B
102
{ACAD_REACTORS
330
47
102
}
330
47
100
AcDbScale
 70
     0
300
1:5
140
1.0
141
5.0
290
     0
  0
SCALE
  5
4C
102
{ACAD_REACTORS
330
47
102
}
330
47
100
AcDbScale
 70
     0
300
1:8
140
1.0
141
8.0
290
     0
  0
SCALE
  5
4D
102
{ACAD_REACTORS
330
47
102
}
330
47
100
AcDbScale
 70
     0
300
1:10
140
1.0
141
10.0
290
     0
  0
SCALE
  5
4E
102
{ACAD_REACTORS
330
47
102
}
330
47
100
AcDbScale
 70
     0
300
1:16
140
1.0
141
16.0
290
     0
  0
SCALE
  5
4F
102
{ACAD_REACTORS
330
47
102
}
330
47
100
AcDbScale
 70
     0
300
1:20
140
1.0
141
20.0
290
     0
  0
SCALE
  5
50
102
{ACAD_REACTORS
330
47
102
}
330
47
100
AcDbScale
 70
     0
300
1:30
140
1.0
141
30.0
290
     0
  0
SCALE
  5
51
102
{ACAD_REACTORS
330
47
102
}
330
47
100
AcDbScale
 70
     0
300
1:40
140
1.0
141
40.0
290
     0
  0
SCALE
  5
52
102
{ACAD_REACTORS
330
47
102
}
330
47
100
AcDbScale
 70
     0
300
1:50
140
1.0
141
50.0
290
     0
  0
SCALE
  5
53
102
{ACAD_REACTORS
330
47
102
}
330
47
100
AcDbScale
 70
     0
300
1:100
140
1.0
141
100.0
290
     0
  0
SCALE
  5
54
102
{ACAD_REACTORS
330
47
102
}
330
47
100
AcDbScale
 70
     0
300
2:1
140
2.0
141
1.0
290
     0
  0
SCALE
  5
55
102
{ACAD_REACTORS
330
47
102
}
330
47
100
AcDbScale
 70
     0
300
4:1
140
4.0
141
1.0
290
     0
  0
SCALE
  5
56
102
{ACAD_REACTORS
330
47
102
}
330
47
100
AcDbScale
 70
     0
300
8:1
140
8.0
141
1.0
290
     0
  0
SCALE
  5
57
102
{ACAD_REACTORS
330
47
102
}
330
47
100
AcDbScale
 70
     0
300
10:1
140
10.0
141
1.0
290
     0
  0
SCALE
  5
58
102
{ACAD_REACTORS
330
47
102
}
330
47
100
AcDbScale
 70
     0
300
100:1
140
100.0
141
1.0
290
     0
  0
SCALE
  5
59
102
{ACAD_REACTORS
330
47
102
}
330
47
100
AcDbScale
 70
     0
300
1/128" = 1'-0"
140
0.0078125
141
12.0
290
     0
  0
SCALE
  5
5A
102
{ACAD_REACTORS
330
47
102
}
330
47
100
AcDbScale
 70
     0
300
1/64" = 1'-0"
140
0.015625
141
12.0
290
     0
  0
SCALE
  5
5B
102
{ACAD_REACTORS
330
47
102
}
330
47
100
AcDbScale
 70
     0
300
1/32" = 1'-0"
140
0.03125
141
12.0
290
     0
  0
SCALE
  5
5C
102
{ACAD_REACTORS
330
47
102
}
330
47
100
AcDbScale
 70
     0
300
1/16" = 1'-0"
140
0.0625
141
12.0
290
     0
  0
SCALE
  5
5D
102
{ACAD_REACTORS
330
47
102
}
330
47
100
AcDbScale
 70
     0
300
3/32" = 1'-0"
140
0.09375
141
12.0
290
     0
  0
SCALE
  5
5E
102
{ACAD_REACTORS
330
47
102
}
330
47
100
AcDbScale
 70
     0
300
1/8" = 1'-0"
140
0.125
141
12.0
290
     0
  0
SCALE
  5
5F
102
{ACAD_REACTORS
330
47
102
}
330
47
100
AcDbScale
 70
     0
300
3/16" = 1'-0"
140
0.1875
141
12.0
290
     0
  0
SCALE
  5
60
102
{ACAD_REACTORS
330
47
102
}
330
47
100
AcDbScale
 70
     0
300
1/4" = 1'-0"
140
0.25
141
12.0
290
     0
  0
SCALE
  5
61
102
{ACAD_REACTORS
330
47
102
}
330
47
100
AcDbScale
 70
     0
300
3/8" = 1'-0"
140
0.375
141
12.0
290
     0
  0
SCALE
  5
62
102
{ACAD_REACTORS
330
47
102
}
330
47
100
AcDbScale
 70
     0
300
1/2" = 1'-0"
140
0.5
141
12.0
290
     0
  0
SCALE
  5
63
102
{ACAD_REACTORS
330
47
102
}
330
47
100
AcDbScale
 70
     0
300
3/4" = 1'-0"
140
0.75
141
12.0
290
     0
  0
SCALE
  5
64
102
{ACAD_REACTORS
330
47
102
}
330
47
100
AcDbScale
 70
     0
300
1" = 1'-0"
140
1.0
141
12.0
290
     0
  0
SCALE
  5
65
102
{ACAD_REACTORS
330
47
102
}
330
47
100
AcDbScale
 70
     0
300
1-1/2" = 1'-0"
140
1.5
141
12.0
290
     0
  0
SCALE
  5
66
102
{ACAD_REACTORS
330
47
102
}
330
47
100
AcDbScale
 70
     0
300
3" = 1'-0"
140
3.0
141
12.0
290
     0
  0
SCALE
  5
67
102
{ACAD_REACTORS
330
47
102
}
330
47
100
AcDbScale
 70
     0
300
6" = 1'-0"
140
6.0
141
12.0
290
     0
  0
SCALE
  5
68
102
{ACAD_REACTORS
330
47
102
}
330
47
100
AcDbScale
 70
     0
300
1'-0" = 1'-0"
140
12.0
141
12.0
290
     0
  0
ENDSEC
  0
EOF
