  0
SECTION
  2
HEADER
  9
$ACADVER
  1
AC1009
  9
$DWGCODEPAGE
  3
ansi_1252
  9
$INSBASE
 10
0.0
 20
0.0
 30
0.0
  9
$EXTMIN
 10
0.0
 20
0.0
 30
0.0
  9
$EXTMAX
 10
279.4
 20
215.9
 30
0.0
  9
$LIMMIN
 10
0.0
 20
0.0
  9
$LIMMAX
 10
279.4
 20
215.9
  9
$ORTHOMODE
 70
     0
  9
$REGENMODE
 70
     1
  9
$FILLMODE
 70
     1
  9
$QTEXTMODE
 70
     0
  9
$MIRRTEXT
 70
     1
  9
$DRAGMODE
 70
     2
  9
$LTSCALE
 40
1.0
  9
$OSMODE
 70
    37
  9
$ATTMODE
 70
     1
  9
$TEXTSIZE
 40
3.5
  9
$TRACEWID
 40
1.0
  9
$TEXTSTYLE
  7
STANDARD
  9
$CLAYER
  8
0
  9
$CELTYPE
  6
BYLAYER
  9
$CECOLOR
 62
   256
  9
$DIMSCALE
 40
1.0
  9
$DIMASZ
 40
3.302
  9
$DIMEXO
 40
1.0
  9
$DIMDLI
 40
3.75
  9
$DIMRND
 40
0.0
  9
$DIMDLE
 40
0.0
  9
$DIMEXE
 40
1.0
  9
$DIMTP
 40
0.0
  9
$DIMTM
 40
0.0
  9
$DIMTXT
 40
3.5
  9
$DIMCEN
 40
2.5
  9
$DIMTSZ
 40
0.0
  9
$DIMTOL
 70
     0
  9
$DIMLIM
 70
     0
  9
$DIMTIH
 70
     1
  9
$DIMTOH
 70
     1
  9
$DIMSE1
 70
     0
  9
$DIMSE2
 70
     0
  9
$DIMTAD
 70
     1
  9
$DIMZIN
 70
     1
  9
$DIMBLK
  1

  9
$DIMASO
 70
     1
  9
$DIMSHO
 70
     1
  9
$DIMPOST
  1

  9
$DIMAPOST
  1

  9
$DIMALT
 70
     0
  9
$DIMALTD
 70
     3
  9
$DIMALTF
 40
0.0393700787
  9
$DIMLFAC
 40
2.0
  9
$DIMTOFL
 70
     1
  9
$DIMTVP
 40
0.0
  9
$DIMTIX
 70
     0
  9
$DIMSOXD
 70
     0
  9
$DIMSAH
 70
     0
  9
$DIMBLK1
  1

  9
$DIMBLK2
  1

  9
$DIMSTYLE
  2
ISO-25
  9
$DIMCLRD
 70
     0
  9
$DIMCLRE
 70
     0
  9
$DIMCLRT
 70
     0
  9
$DIMTFAC
 40
1.0
  9
$DIMGAP
 40
1.524
  9
$LUNITS
 70
     2
  9
$LUPREC
 70
     2
  9
$SKETCHINC
 40
1.0
  9
$FILLETRAD
 40
0.0
  9
$AUNITS
 70
     0
  9
$AUPREC
 70
     2
  9
$MENU
  1
.
  9
$ELEVATION
 40
0.0
  9
$PELEVATION
 40
0.0
  9
$THICKNESS
 40
0.0
  9
$LIMCHECK
 70
     0
  9
$CHAMFERA
 40
0.0
  9
$CHAMFERB
 40
0.0
  9
$SKPOLY
 70
     0
  9
$TDCREATE
 40
2460361.719063056
  9
$TDUPDATE
 40
2460361.719063484
  9
$TDINDWG
 40
0.0000000116
  9
$TDUSRTIMER
 40
0.0000000116
  9
$USRTIMER
 70
     1
  9
$ANGBASE
 50
0.0
  9
$ANGDIR
 70
     0
  9
$PDMODE
 70
     0
  9
$PDSIZE
 40
-1.0
  9
$PLINEWID
 40
0.0
  9
$COORDS
 70
     1
  9
$SPLFRAME
 70
     0
  9
$SPLINETYPE
 70
     6
  9
$SPLINESEGS
 70
     8
  9
$ATTDIA
 70
     0
  9
$ATTREQ
 70
     1
  9
$HANDLING
 70
     1
  9
$HANDSEED
  5
B9
  9
$SURFTAB1
 70
     6
  9
$SURFTAB2
 70
     6
  9
$SURFTYPE
 70
     6
  9
$SURFU
 70
     6
  9
$SURFV
 70
     6
  9
$UCSNAME
  2

  9
$UCSORG
 10
0.0
 20
0.0
 30
0.0
  9
$UCSXDIR
 10
1.0
 20
0.0
 30
0.0
  9
$UCSYDIR
 10
0.0
 20
1.0
 30
0.0
  9
$PUCSNAME
  2

  9
$PUCSORG
 10
0.0
 20
0.0
 30
0.0
  9
$PUCSXDIR
 10
1.0
 20
0.0
 30
0.0
  9
$PUCSYDIR
 10
0.0
 20
1.0
 30
0.0
  9
$USERI1
 70
     0
  9
$USERI2
 70
     0
  9
$USERI3
 70
     0
  9
$USERI4
 70
     0
  9
$USERI5
 70
     0
  9
$USERR1
 40
0.0
  9
$USERR2
 40
0.0
  9
$USERR3
 40
0.0
  9
$USERR4
 40
0.0
  9
$USERR5
 40
0.0
  9
$WORLDVIEW
 70
     1
  9
$SHADEDGE
 70
     3
  9
$SHADEDIF
 70
    70
  9
$TILEMODE
 70
     1
  9
$MAXACTVP
 70
    64
  9
$PLIMCHECK
 70
     0
  9
$PEXTMIN
 10
1.0000000000E+20
 20
1.0000000000E+20
 30
1.0000000000E+20
  9
$PEXTMAX
 10
-1.0000000000E+20
 20
-1.0000000000E+20
 30
-1.0000000000E+20
  9
$PLIMMIN
 10
0.0
 20
0.0
  9
$PLIMMAX
 10
420.0
 20
297.0
  9
$UNITMODE
 70
     0
  9
$VISRETAIN
 70
     1
  9
$PLINEGEN
 70
     0
  9
$PSLTSCALE
 70
     1
  0
ENDSEC
  0
SECTION
  2
TABLES
  0
TABLE
  2
VPORT
 70
     1
  0
VPORT
  2
*ACTIVE
 70
     0
 10
0.0
 20
0.0
 11
1.0
 21
1.0
 12
139.7
 22
107.95
 13
0.0
 23
0.0
 14
10.0
 24
10.0
 15
10.0
 25
10.0
 16
0.0
 26
0.0
 36
1.0
 17
0.0
 27
0.0
 37
0.0
 40
215.9
 41
1.2941176471
 42
50.0
 43
0.0
 44
0.0
 50
0.0
 51
0.0
 71
     0
 72
  2000
 73
     1
 74
     3
 75
     0
 76
     0
 77
     0
 78
     0
  0
ENDTAB
  0
TABLE
  2
LTYPE
 70
     6
  0
LTYPE
  2
CONTINUOUS
 70
     0
  3
Solid line
 72
    65
 73
     0
 40
0.0
  0
LTYPE
  2
HIDDEN
 70
     0
  3
Hidden __ __ __ __ __ __ __ __ __ __ __ __ __ __
 72
    65
 73
     2
 40
1.905
 49
1.27
 49
-0.635
  0
LTYPE
  2
PHANTOM
 70
     0
  3
Phantom ______  __  __  ______  __  __  ______
 72
    65
 73
     6
 40
12.7
 49
6.35
 49
-1.27
 49
1.27
 49
-1.27
 49
1.27
 49
-1.27
  0
LTYPE
  2
CENTER
 70
     0
  3
Center ____ _ ____ _ ____ _ ____ _ ____ _ ____
 72
    65
 73
     4
 40
10.16
 49
6.35
 49
-1.27
 49
1.27
 49
-1.27
  0
LTYPE
  2
CENTERX2
 70
     0
  3
Center (2x) ________  __  ________  __  _____
 72
    65
 73
     4
 40
20.32
 49
12.7
 49
-2.54
 49
2.54
 49
-2.54
  0
LTYPE
  2
DOT2
 70
     0
  3
Dot (.5x) ........................................
 72
    65
 73
     2
 40
0.635
 49
0.0
 49
-0.635
  0
ENDTAB
  0
TABLE
  2
LAYER
 70
     1
  0
LAYER
  2
0
 70
     0
 62
     7
  6
CONTINUOUS
  0
ENDTAB
  0
TABLE
  2
STYLE
 70
     1
  0
STYLE
  2
STANDARD
 70
     0
 40
0.0
 41
1.0
 50
0.0
 71
     0
 42
3.5
  3
txt
  4

  0
ENDTAB
  0
TABLE
  2
VIEW
 70
     0
  0
ENDTAB
  0
TABLE
  2
UCS
 70
     0
  0
ENDTAB
  0
TABLE
  2
APPID
 70
     1
  0
APPID
  2
ACAD
 70
     0
  0
ENDTAB
  0
TABLE
  2
DIMSTYLE
 70
     1
  0
DIMSTYLE
  2
ISO-25
 70
     0
  3

  4

  5

  6

  7

 40
1.0
 41
2.5
 42
0.625
 43
3.75
 44
1.25
 45
0.0
 46
0.0
 47
0.0
 48
0.0
140
2.5
141
2.5
142
0.0
143
0.0393700787
144
1.0
145
0.0
146
1.0
147
0.625
 71
     0
 72
     0
 73
     0
 74
     0
 75
     0
 76
     0
 77
     1
 78
     8
170
     0
171
     3
172
     1
173
     0
174
     0
175
     0
176
     0
177
     0
178
     0
  0
ENDTAB
  0
ENDSEC
  0
SECTION
  2
BLOCKS
  0
BLOCK
  8
0
  2
$MODEL_SPACE
 70
     0
 10
0.0
 20
0.0
 30
0.0
  3
$MODEL_SPACE
  1

  0
ENDBLK
  5
21
  8
0
  0
BLOCK
 67
     1
  8
0
  2
$PAPER_SPACE
 70
     0
 10
0.0
 20
0.0
 30
0.0
  3
$PAPER_SPACE
  1

  0
ENDBLK
  5
1D
 67
     1
  8
0
  0
ENDSEC
  0
SECTION
  2
ENTITIES
  0
CIRCLE
  5
63
  8
0
  6
CONTINUOUS
 62
     7
 10
144.9984781955
 20
119.8163834586
 30
0.0
 40
29.58578643762689
  0
CIRCLE
  5
64
  8
0
  6
CONTINUOUS
 62
     7
 10
144.9984781955
 20
119.8163834586
 30
0.0
 40
30.29289321881345
  0
CIRCLE
  5
65
  8
0
  6
CONTINUOUS
 62
     7
 10
144.9984781955
 20
119.8163834586
 30
0.0
 40
34.70710678118657
  0
CIRCLE
  5
66
  8
0
  6
CONTINUOUS
 62
     7
 10
144.9984781955
 20
119.8163834586
 30
0.0
 40
35.0
  0
LINE
  5
67
  8
0
  6
CONTINUOUS
 62
     7
 10
179.9984781955
 20
188.4286384034
 30
0.0
 11
179.9984781955
 21
192.4286384034
 31
0.0
  0
LINE
  5
68
  8
0
  6
CONTINUOUS
 62
     7
 10
109.9984781955
 20
192.4286384034
 30
0.0
 11
109.9984781955
 21
188.4286384034
 31
0.0
  0
ARC
  5
69
  8
0
  6
CONTINUOUS
 62
     7
 10
178.9984781955
 20
232.8428519657
 30
0.0
 40
1.000000000000008
 50
315.0
 51
0.0
  0
ARC
  5
6A
  8
0
  6
CONTINUOUS
 62
     7
 10
110.9984781955
 20
232.8428519657
 30
0.0
 40
1.0
 50
180.0
 51
225.0
  0
LINE
  5
6B
  8
0
  6
CONTINUOUS
 62
     7
 10
179.9984781955
 20
232.8428519657
 30
0.0
 11
179.9984781955
 21
247.014424841
 31
0.0
  0
LINE
  5
6C
  8
0
  6
CONTINUOUS
 62
     7
 10
109.9984781955
 20
247.014424841
 30
0.0
 11
109.9984781955
 21
232.8428519657
 31
0.0
  0
ARC
  5
6D
  8
0
  6
CONTINUOUS
 62
     7
 10
110.9984781955
 20
247.014424841
 30
0.0
 40
1.0
 50
135.0
 51
180.0
  0
ARC
  5
6E
  8
0
  6
CONTINUOUS
 62
     7
 10
178.9984781955
 20
247.014424841
 30
0.0
 40
1.000000000000008
 50
0.0
 51
45.0
  0
LINE
  5
6F
  8
0
  6
CONTINUOUS
 62
     7
 10
110.2913714143
 20
232.1357451846
 30
0.0
 11
114.7055849767
 21
227.7215316222
 31
0.0
  0
LINE
  5
70
  8
0
  6
CONTINUOUS
 62
     7
 10
175.2913714143
 20
227.7215316222
 30
0.0
 11
179.7055849767
 21
232.1357451846
 31
0.0
  0
LINE
  5
71
  8
0
  6
CONTINUOUS
 62
     7
 10
179.7055849767
 20
247.7215316222
 30
0.0
 11
175.2913714143
 21
252.1357451846
 31
0.0
  0
LINE
  5
72
  8
0
  6
CONTINUOUS
 62
     7
 10
114.7055849767
 20
252.1357451846
 30
0.0
 11
110.2913714143
 21
247.7215316222
 31
0.0
  0
ARC
  5
73
  8
0
  6
CONTINUOUS
 62
     7
 10
115.4126917579
 20
228.4286384034
 30
0.0
 40
1.000000000000008
 50
225.0
 51
270.0
  0
ARC
  5
74
  8
0
  6
CONTINUOUS
 62
     7
 10
174.5842646331
 20
228.4286384034
 30
0.0
 40
1.000000000000008
 50
270.0
 51
315.0
  0
ARC
  5
75
  8
0
  6
CONTINUOUS
 62
     7
 10
115.4126917579
 20
251.4286384034
 30
0.0
 40
1.0
 50
90.0
 51
135.0
  0
ARC
  5
76
  8
0
  6
CONTINUOUS
 62
     7
 10
174.5842646331
 20
251.4286384034
 30
0.0
 40
1.0
 50
45.0
 51
90.0
  0
LINE
  5
77
  8
0
  6
CONTINUOUS
 62
     7
 10
109.9984781955
 20
192.4286384034
 30
0.0
 11
179.9984781955
 21
192.4286384034
 31
0.0
  0
LINE
  5
78
  8
0
  6
CONTINUOUS
 62
     7
 10
109.9984781955
 20
188.4286384034
 30
0.0
 11
179.9984781955
 21
188.4286384034
 31
0.0
  0
CIRCLE
  5
79
  8
0
  6
CONTINUOUS
 62
     7
 10
144.9984781955
 20
199.4286384034
 30
0.0
 40
2.445499999999997
  0
CIRCLE
  5
7A
  8
0
  6
CONTINUOUS
 62
     7
 10
144.9984781955
 20
199.4286384034
 30
0.0
 40
2.696088053559279
  0
LINE
  5
7B
  8
0
  6
CONTINUOUS
 62
     7
 10
144.2163920575
 20
197.8832124838
 30
0.0
 11
145.9458132325
 21
197.9786189801
 31
0.0
  0
LINE
  5
7C
  8
0
  6
CONTINUOUS
 62
     7
 10
146.7278993705
 20
199.5240448997
 30
0.0
 11
145.9458132325
 21
197.9786189801
 31
0.0
  0
LINE
  5
7D
  8
0
  6
CONTINUOUS
 62
     7
 10
145.7805643335
 20
200.9740643229
 30
0.0
 11
146.7278993705
 21
199.5240448997
 31
0.0
  0
LINE
  5
7E
  8
0
  6
CONTINUOUS
 62
     7
 10
145.7805643335
 20
200.9740643229
 30
0.0
 11
144.0511431585
 21
200.8786578266
 31
0.0
  0
LINE
  5
7F
  8
0
  6
CONTINUOUS
 62
     7
 10
143.2690570205
 20
199.3332319071
 30
0.0
 11
144.0511431585
 21
200.8786578266
 31
0.0
  0
LINE
  5
80
  8
0
  6
CONTINUOUS
 62
     7
 10
143.2690570205
 20
199.3332319071
 30
0.0
 11
144.2163920575
 21
197.8832124838
 31
0.0
  0
LINE
  5
81
  8
0
  6
CONTINUOUS
 62
     7
 10
152.4984781955
 20
192.4286384034
 30
0.0
 11
152.4984781955
 21
227.4286384034
 31
0.0
  0
LINE
  5
82
  8
0
  6
CONTINUOUS
 62
     7
 10
137.4984781955
 20
227.4286384034
 30
0.0
 11
137.4984781955
 21
192.4286384034
 31
0.0
  0
CIRCLE
  5
83
  8
0
  6
CONTINUOUS
 62
     7
 10
144.9984781955
 20
199.4286384034
 30
0.0
 40
3.025000000000006
  0
LINE
  5
84
  8
0
  6
CONTINUOUS
 62
     7
 10
132.4984781955
 20
192.4286384034
 30
0.0
 11
132.4984781955
 21
227.4286384034
 31
0.0
  0
LINE
  5
85
  8
0
  6
CONTINUOUS
 62
     7
 10
157.4984781955
 20
227.4286384034
 30
0.0
 11
157.4984781955
 21
192.4286384034
 31
0.0
  0
LINE
  5
86
  8
0
  6
CONTINUOUS
 62
     7
 10
174.5842646331
 20
227.4286384034
 30
0.0
 11
115.4126917587
 21
227.4286384034
 31
0.0
  0
LINE
  5
87
  8
0
  6
CONTINUOUS
 62
     7
 10
174.5842646331
 20
252.4286384034
 30
0.0
 11
115.4126917579
 21
252.4286384034
 31
0.0
  0
LINE
  5
88
  8
0
  6
CONTINUOUS
 62
     7
 10
109.9984781955
 20
232.8428519657
 30
0.0
 11
179.9984781955
 21
232.8428519657
 31
0.0
  0
LINE
  5
89
  8
0
  6
CONTINUOUS
 62
     7
 10
179.7055849767
 20
232.1357451846
 30
0.0
 11
110.2913714143
 21
232.1357451846
 31
0.0
  0
LINE
  5
8A
  8
0
  6
CONTINUOUS
 62
     7
 10
179.9984781955
 20
247.014424841
 30
0.0
 11
109.9984781955
 21
247.014424841
 31
0.0
  0
LINE
  5
8B
  8
0
  6
CONTINUOUS
 62
     7
 10
110.2913714143
 20
247.7215316222
 30
0.0
 11
179.7055849767
 21
247.7215316222
 31
0.0
  0
LINE
  5
8C
  8
0
  6
CONTINUOUS
 62
     7
 10
114.7055849767
 20
227.7215316222
 30
0.0
 11
175.2913714143
 21
227.7215316222
 31
0.0
  0
LINE
  5
8D
  8
0
  6
CONTINUOUS
 62
     7
 10
175.2913714143
 20
252.1357451846
 30
0.0
 11
114.7055849767
 21
252.1357451846
 31
0.0
  0
LINE
  5
8E
  8
0
  6
CONTINUOUS
 62
     7
 10
235.6976690988
 20
84.8163834586
 30
0.0
 11
239.6976690988
 21
84.8163834586
 31
0.0
  0
LINE
  5
8F
  8
0
  6
CONTINUOUS
 62
     7
 10
239.6976690988
 20
154.8163834586
 30
0.0
 11
235.6976690988
 21
154.8163834586
 31
0.0
  0
ARC
  5
90
  8
0
  6
CONTINUOUS
 62
     7
 10
280.1118826612
 20
85.8163834586
 30
0.0
 40
1.0
 50
225.0
 51
270.0
  0
ARC
  5
91
  8
0
  6
CONTINUOUS
 62
     7
 10
280.1118826612
 20
153.8163834586
 30
0.0
 40
1.000000000000028
 50
90.0
 51
135.0
  0
LINE
  5
92
  8
0
  6
CONTINUOUS
 62
     7
 10
280.1118826612
 20
84.8163834586
 30
0.0
 11
294.2834555365
 21
84.8163834586
 31
0.0
  0
LINE
  5
93
  8
0
  6
CONTINUOUS
 62
     7
 10
294.2834555365
 20
154.8163834586
 30
0.0
 11
280.1118826612
 21
154.8163834586
 31
0.0
  0
ARC
  5
94
  8
0
  6
CONTINUOUS
 62
     7
 10
294.2834555365
 20
153.8163834586
 30
0.0
 40
1.000000000000028
 50
45.0
 51
90.0
  0
ARC
  5
95
  8
0
  6
CONTINUOUS
 62
     7
 10
294.2834555365
 20
85.8163834586
 30
0.0
 40
1.0
 50
270.0
 51
315.0
  0
LINE
  5
96
  8
0
  6
CONTINUOUS
 62
     7
 10
279.40477588
 20
154.5234902398
 30
0.0
 11
274.9905623176
 21
150.1092766775
 31
0.0
  0
LINE
  5
97
  8
0
  6
CONTINUOUS
 62
     7
 10
274.9905623176
 20
89.5234902398
 30
0.0
 11
279.40477588
 21
85.1092766775
 31
0.0
  0
LINE
  5
98
  8
0
  6
CONTINUOUS
 62
     7
 10
294.9905623176
 20
85.1092766775
 30
0.0
 11
299.40477588
 21
89.5234902398
 31
0.0
  0
LINE
  5
99
  8
0
  6
CONTINUOUS
 62
     7
 10
299.40477588
 20
150.1092766775
 30
0.0
 11
294.9905623176
 21
154.5234902398
 31
0.0
  0
ARC
  5
9A
  8
0
  6
CONTINUOUS
 62
     7
 10
275.6976690988
 20
149.4021698963
 30
0.0
 40
1.000000000000028
 50
135.0
 51
180.0
  0
ARC
  5
9B
  8
0
  6
CONTINUOUS
 62
     7
 10
275.6976690988
 20
90.230597021
 30
0.0
 40
1.000000000000008
 50
180.0
 51
225.0
  0
ARC
  5
9C
  8
0
  6
CONTINUOUS
 62
     7
 10
298.6976690988
 20
149.4021698963
 30
0.0
 40
1.000000000000028
 50
0.0
 51
45.0
  0
ARC
  5
9D
  8
0
  6
CONTINUOUS
 62
     7
 10
298.6976690988
 20
90.230597021
 30
0.0
 40
1.0
 50
315.0
 51
0.0
  0
LINE
  5
9E
  8
0
  6
CONTINUOUS
 62
     7
 10
239.6976690988
 20
119.8163834586
 30
0.0
 11
239.6976690988
 21
84.8163834586
 31
0.0
  0
LINE
  5
9F
  8
0
  6
CONTINUOUS
 62
     7
 10
239.6976690988
 20
154.8163834586
 30
0.0
 11
239.6976690988
 21
119.8163834586
 31
0.0
  0
LINE
  5
A0
  8
0
  6
CONTINUOUS
 62
     7
 10
235.6976690988
 20
119.8163834586
 30
0.0
 11
235.6976690988
 21
84.8163834586
 31
0.0
  0
LINE
  5
A1
  8
0
  6
CONTINUOUS
 62
     7
 10
235.6976690988
 20
154.8163834586
 30
0.0
 11
235.6976690988
 21
119.8163834586
 31
0.0
  0
LINE
  5
A2
  8
0
  6
CONTINUOUS
 62
     7
 10
239.6976690988
 20
112.3163834586
 30
0.0
 11
274.6976690988
 21
112.3163834586
 31
0.0
  0
LINE
  5
A3
  8
0
  6
CONTINUOUS
 62
     7
 10
274.6976690988
 20
127.3163834586
 30
0.0
 11
239.6976690988
 21
127.3163834586
 31
0.0
  0
LINE
  5
A4
  8
0
  6
CONTINUOUS
 62
     7
 10
274.6976690988
 20
107.3163834586
 30
0.0
 11
239.6976690988
 21
107.3163834586
 31
0.0
  0
LINE
  5
A5
  8
0
  6
CONTINUOUS
 62
     7
 10
239.6976690988
 20
132.3163834586
 30
0.0
 11
274.6976690988
 21
132.3163834586
 31
0.0
  0
LINE
  5
A6
  8
0
  6
CONTINUOUS
 62
     7
 10
274.6976690988
 20
90.230597021
 30
0.0
 11
274.6976690988
 21
149.4021698963
 31
0.0
  0
LINE
  5
A7
  8
0
  6
CONTINUOUS
 62
     7
 10
299.6976690988
 20
149.4021698963
 30
0.0
 11
299.6976690988
 21
90.230597021
 31
0.0
  0
LINE
  5
A8
  8
0
  6
CONTINUOUS
 62
     7
 10
244.1700690988
 20
132.3173834586
 30
0.0
 11
244.1700690988
 21
132.3163834586
 31
0.0
  0
LINE
  5
A9
  8
0
  6
CONTINUOUS
 62
     7
 10
246.6976690988
 20
132.3173834586
 30
0.0
 11
246.6976690988
 21
132.3163834586
 31
0.0
  0
LINE
  5
AA
  8
0
  6
CONTINUOUS
 62
     7
 10
246.6976690988
 20
132.3173834586
 30
0.0
 11
244.1700690988
 21
132.3173834586
 31
0.0
  0
LINE
  5
AB
  8
0
  6
CONTINUOUS
 62
     7
 10
249.2252690988
 20
132.3173834586
 30
0.0
 11
249.2252690988
 21
132.3163834586
 31
0.0
  0
LINE
  5
AC
  8
0
  6
CONTINUOUS
 62
     7
 10
249.2252690988
 20
132.3173834586
 30
0.0
 11
246.6976690988
 21
132.3173834586
 31
0.0
  0
LINE
  5
AD
  8
0
  6
CONTINUOUS
 62
     7
 10
280.1118826612
 20
119.8163834586
 30
0.0
 11
280.1118826612
 21
84.8163834586
 31
0.0
  0
LINE
  5
AE
  8
0
  6
CONTINUOUS
 62
     7
 10
280.1118826612
 20
154.8163834586
 30
0.0
 11
280.1118826612
 21
119.8163834586
 31
0.0
  0
LINE
  5
AF
  8
0
  6
CONTINUOUS
 62
     7
 10
279.40477588
 20
85.1092766775
 30
0.0
 11
279.40477588
 21
154.5234902398
 31
0.0
  0
LINE
  5
B0
  8
0
  6
CONTINUOUS
 62
     7
 10
294.2834555365
 20
84.8163834586
 30
0.0
 11
294.2834555365
 21
154.8163834586
 31
0.0
  0
LINE
  5
B1
  8
0
  6
CONTINUOUS
 62
     7
 10
294.9905623176
 20
119.8163834586
 30
0.0
 11
294.9905623176
 21
85.1092766775
 31
0.0
  0
LINE
  5
B2
  8
0
  6
CONTINUOUS
 62
     7
 10
294.9905623176
 20
154.5234902398
 30
0.0
 11
294.9905623176
 21
119.8163834586
 31
0.0
  0
LINE
  5
B3
  8
0
  6
CONTINUOUS
 62
     7
 10
274.9905623176
 20
150.1092766775
 30
0.0
 11
274.9905623176
 21
89.5234902398
 31
0.0
  0
LINE
  5
B4
  8
0
  6
CONTINUOUS
 62
     7
 10
299.40477588
 20
89.5234902398
 30
0.0
 11
299.40477588
 21
150.1092766775
 31
0.0
  0
CIRCLE
  5
B5
  8
0
  6
CONTINUOUS
 62
     7
 10
401.4634735004
 20
119.8163834586
 30
0.0
 40
3.0
  0
CIRCLE
  5
B6
  8
0
  6
CONTINUOUS
 62
     7
 10
401.4634735004
 20
119.8163834586
 30
0.0
 40
34.99999999999994
  0
CIRCLE
  5
B7
  8
0
  6
CONTINUOUS
 62
     7
 10
420.4634735004
 20
119.8163834586
 30
0.0
 40
2.590000000000032
  0
CIRCLE
  5
B8
  8
0
  6
CONTINUOUS
 62
     7
 10
382.4634735004
 20
119.8163834586
 30
0.0
 40
2.590000000000032
  0
ENDSEC
  0
EOF
