  0
SECTION
  2
HEADER
  9
$ACADVER
  1
AC1015
  9
$ACADMAINTVER
 70
     6
  9
$DWGCODEPAGE
  3
ANSI_1252
  9
$INSBASE
 10
0.0
 20
0.0
 30
0.0
  9
$EXTMIN
 10
0.0
 20
0.0
 30
0.0
  9
$EXTMAX
 10
279.4
 20
215.9
 30
0.0
  9
$LIMMIN
 10
0.0
 20
0.0
  9
$LIMMAX
 10
279.4
 20
215.9
  9
$ORTHOMODE
 70
     0
  9
$REGENMODE
 70
     1
  9
$FILLMODE
 70
     1
  9
$QTEXTMODE
 70
     0
  9
$MIRRTEXT
 70
     1
  9
$LTSCALE
 40
1.0
  9
$ATTMODE
 70
     1
  9
$TEXTSIZE
 40
3.5
  9
$TRACEWID
 40
1.0
  9
$TEXTSTYLE
  7
Standard
  9
$CLAYER
  8
0
  9
$CELTYPE
  6
ByLayer
  9
$CECOLOR
 62
   256
  9
$CELTSCALE
 40
1.0
  9
$DISPSILH
 70
     0
  9
$DIMSCALE
 40
1.0
  9
$DIMASZ
 40
3.302
  9
$DIMEXO
 40
1.0
  9
$DIMDLI
 40
3.75
  9
$DIMRND
 40
0.0
  9
$DIMDLE
 40
0.0
  9
$DIMEXE
 40
1.0
  9
$DIMTP
 40
0.0
  9
$DIMTM
 40
0.0
  9
$DIMTXT
 40
3.5
  9
$DIMCEN
 40
2.5
  9
$DIMTSZ
 40
0.0
  9
$DIMTOL
 70
     0
  9
$DIMLIM
 70
     0
  9
$DIMTIH
 70
     1
  9
$DIMTOH
 70
     1
  9
$DIMSE1
 70
     0
  9
$DIMSE2
 70
     0
  9
$DIMTAD
 70
     1
  9
$DIMZIN
 70
     0
  9
$DIMBLK
  1

  9
$DIMASO
 70
     1
  9
$DIMSHO
 70
     1
  9
$DIMPOST
  1

  9
$DIMAPOST
  1

  9
$DIMALT
 70
     0
  9
$DIMALTD
 70
     3
  9
$DIMALTF
 40
0.0393700787
  9
$DIMLFAC
 40
1.0
  9
$DIMTOFL
 70
     1
  9
$DIMTVP
 40
0.0
  9
$DIMTIX
 70
     0
  9
$DIMSOXD
 70
     0
  9
$DIMSAH
 70
     0
  9
$DIMBLK1
  1

  9
$DIMBLK2
  1

  9
$DIMSTYLE
  2
ISO-25
  9
$DIMCLRD
 70
     0
  9
$DIMCLRE
 70
     0
  9
$DIMCLRT
 70
     0
  9
$DIMTFAC
 40
1.0
  9
$DIMGAP
 40
1.524
  9
$DIMJUST
 70
     0
  9
$DIMSD1
 70
     0
  9
$DIMSD2
 70
     0
  9
$DIMTOLJ
 70
     0
  9
$DIMTZIN
 70
     0
  9
$DIMALTZ
 70
     0
  9
$DIMALTTZ
 70
     0
  9
$DIMUPT
 70
     0
  9
$DIMDEC
 70
     2
  9
$DIMTDEC
 70
     2
  9
$DIMALTU
 70
     2
  9
$DIMALTTD
 70
     3
  9
$DIMTXSTY
  7
Standard
  9
$DIMAUNIT
 70
     0
  9
$DIMADEC
 70
     2
  9
$DIMALTRND
 40
0.0
  9
$DIMAZIN
 70
     0
  9
$DIMDSEP
 70
    44
  9
$DIMATFIT
 70
     3
  9
$DIMFRAC
 70
     0
  9
$DIMLDRBLK
  1

  9
$DIMLUNIT
 70
     2
  9
$DIMLWD
 70
    -2
  9
$DIMLWE
 70
    -2
  9
$DIMTMOVE
 70
     0
  9
$LUNITS
 70
     2
  9
$LUPREC
 70
     2
  9
$SKETCHINC
 40
1.0
  9
$FILLETRAD
 40
10.0
  9
$AUNITS
 70
     0
  9
$AUPREC
 70
     2
  9
$MENU
  1
.
  9
$ELEVATION
 40
0.0
  9
$PELEVATION
 40
0.0
  9
$THICKNESS
 40
0.0
  9
$LIMCHECK
 70
     0
  9
$CHAMFERA
 40
0.0
  9
$CHAMFERB
 40
0.0
  9
$CHAMFERC
 40
0.0
  9
$CHAMFERD
 40
0.0
  9
$SKPOLY
 70
     0
  9
$TDCREATE
 40
2457926.513850313
  9
$TDUCREATE
 40
2457926.472183646
  9
$TDUPDATE
 40
2457926.513850648
  9
$TDUUPDATE
 40
2457926.472183981
  9
$TDINDWG
 40
0.0000000116
  9
$TDUSRTIMER
 40
0.0000000116
  9
$USRTIMER
 70
     1
  9
$ANGBASE
 50
0.0
  9
$ANGDIR
 70
     0
  9
$PDMODE
 70
     0
  9
$PDSIZE
 40
-1.0
  9
$PLINEWID
 40
0.0
  9
$SPLFRAME
 70
     0
  9
$SPLINETYPE
 70
     6
  9
$SPLINESEGS
 70
     8
  9
$HANDSEED
  5
2C4
  9
$SURFTAB1
 70
     6
  9
$SURFTAB2
 70
     6
  9
$SURFTYPE
 70
     6
  9
$SURFU
 70
     6
  9
$SURFV
 70
     6
  9
$UCSBASE
  2

  9
$UCSNAME
  2

  9
$UCSORG
 10
0.0
 20
0.0
 30
0.0
  9
$UCSXDIR
 10
1.0
 20
0.0
 30
0.0
  9
$UCSYDIR
 10
0.0
 20
1.0
 30
0.0
  9
$UCSORTHOREF
  2

  9
$UCSORTHOVIEW
 70
     0
  9
$UCSORGTOP
 10
0.0
 20
0.0
 30
0.0
  9
$UCSORGBOTTOM
 10
0.0
 20
0.0
 30
0.0
  9
$UCSORGLEFT
 10
0.0
 20
0.0
 30
0.0
  9
$UCSORGRIGHT
 10
0.0
 20
0.0
 30
0.0
  9
$UCSORGFRONT
 10
0.0
 20
0.0
 30
0.0
  9
$UCSORGBACK
 10
0.0
 20
0.0
 30
0.0
  9
$PUCSBASE
  2

  9
$PUCSNAME
  2

  9
$PUCSORG
 10
0.0
 20
0.0
 30
0.0
  9
$PUCSXDIR
 10
1.0
 20
0.0
 30
0.0
  9
$PUCSYDIR
 10
0.0
 20
1.0
 30
0.0
  9
$PUCSORTHOREF
  2

  9
$PUCSORTHOVIEW
 70
     0
  9
$PUCSORGTOP
 10
0.0
 20
0.0
 30
0.0
  9
$PUCSORGBOTTOM
 10
0.0
 20
0.0
 30
0.0
  9
$PUCSORGLEFT
 10
0.0
 20
0.0
 30
0.0
  9
$PUCSORGRIGHT
 10
0.0
 20
0.0
 30
0.0
  9
$PUCSORGFRONT
 10
0.0
 20
0.0
 30
0.0
  9
$PUCSORGBACK
 10
0.0
 20
0.0
 30
0.0
  9
$USERI1
 70
     0
  9
$USERI2
 70
     0
  9
$USERI3
 70
     0
  9
$USERI4
 70
     0
  9
$USERI5
 70
     0
  9
$USERR1
 40
0.0
  9
$USERR2
 40
0.0
  9
$USERR3
 40
0.0
  9
$USERR4
 40
0.0
  9
$USERR5
 40
0.0
  9
$WORLDVIEW
 70
     1
  9
$SHADEDGE
 70
     3
  9
$SHADEDIF
 70
    70
  9
$TILEMODE
 70
     1
  9
$MAXACTVP
 70
    64
  9
$PINSBASE
 10
0.0
 20
0.0
 30
0.0
  9
$PLIMCHECK
 70
     0
  9
$PEXTMIN
 10
1.0000000000E+20
 20
1.0000000000E+20
 30
1.0000000000E+20
  9
$PEXTMAX
 10
-1.0000000000E+20
 20
-1.0000000000E+20
 30
-1.0000000000E+20
  9
$PLIMMIN
 10
0.0
 20
0.0
  9
$PLIMMAX
 10
420.0
 20
297.0
  9
$UNITMODE
 70
     0
  9
$VISRETAIN
 70
     1
  9
$PLINEGEN
 70
     0
  9
$PSLTSCALE
 70
     1
  9
$TREEDEPTH
 70
  3020
  9
$CMLSTYLE
  2
Standard
  9
$CMLJUST
 70
     0
  9
$CMLSCALE
 40
20.0
  9
$PROXYGRAPHICS
 70
     1
  9
$MEASUREMENT
 70
     1
  9
$CELWEIGHT
370
    -1
  9
$ENDCAPS
280
     0
  9
$JOINSTYLE
280
     0
  9
$LWDISPLAY
290
     1
  9
$INSUNITS
 70
     4
  9
$HYPERLINKBASE
  1

  9
$STYLESHEET
  1

  9
$XEDIT
290
     1
  9
$CEPSNTYPE
380
     0
  9
$PSTYLEMODE
290
     1
  9
$FINGERPRINTGUID
  2
{20BE16B3-0295-4C84-8113-62CFB54B52D0}
  9
$VERSIONGUID
  2
{FAEB1C32-E019-11D5-929B-00C0DF256EC4}
  9
$EXTNAMES
290
     1
  9
$PSVPSCALE
 40
0.0
  9
$OLESTARTUP
290
     0
  0
ENDSEC
  0
SECTION
  2
CLASSES
  0
CLASS
  1
ACDBDICTIONARYWDFLT
  2
AcDbDictionaryWithDefault
  3
ObjectDBX Classes
 90
        0
280
     0
281
     0
  0
CLASS
  1
VISUALSTYLE
  2
AcDbVisualStyle
  3
ObjectDBX Classes
 90
     4095
280
     0
281
     0
  0
CLASS
  1
MATERIAL
  2
AcDbMaterial
  3
ObjectDBX Classes
 90
     1153
280
     0
281
     0
  0
CLASS
  1
SCALE
  2
AcDbScale
  3
ObjectDBX Classes
 90
     1153
280
     0
281
     0
  0
CLASS
  1
TABLESTYLE
  2
AcDbTableStyle
  3
ObjectDBX Classes
 90
     4095
280
     0
281
     0
  0
CLASS
  1
MLEADERSTYLE
  2
AcDbMLeaderStyle
  3
ACDB_MLEADERSTYLE_CLASS
 90
     4095
280
     0
281
     0
  0
CLASS
  1
SUN
  2
AcDbSun
  3
SCENEOE
 90
     1153
280
     0
281
     0
  0
CLASS
  1
ACDBPLACEHOLDER
  2
AcDbPlaceHolder
  3
ObjectDBX Classes
 90
        0
280
     0
281
     0
  0
CLASS
  1
LAYOUT
  2
AcDbLayout
  3
ObjectDBX Classes
 90
        0
280
     0
281
     0
  0
ENDSEC
  0
SECTION
  2
TABLES
  0
TABLE
  2
VPORT
  5
8
330
0
100
AcDbSymbolTable
 70
     1
  0
VPORT
  5
29
330
8
100
AcDbSymbolTableRecord
100
AcDbViewportTableRecord
  2
*Active
 70
     0
 10
0.0
 20
0.0
 11
1.0
 21
1.0
 12
139.7
 22
107.95
 13
0.0
 23
0.0
 14
10.0
 24
10.0
 15
10.0
 25
10.0
 16
0.0
 26
0.0
 36
1.0
 17
0.0
 27
0.0
 37
0.0
 40
215.9
 41
1.2941176471
 42
50.0
 43
0.0
 44
0.0
 50
0.0
 51
0.0
 71
     0
 72
  2000
 73
     1
 74
     3
 75
     0
 76
     0
 77
     0
 78
     0
281
     0
 65
     1
110
0.0
120
0.0
130
0.0
111
1.0
121
0.0
131
0.0
112
0.0
122
1.0
132
0.0
 79
     0
146
0.0
  0
ENDTAB
  0
TABLE
  2
LTYPE
  5
5
330
0
100
AcDbSymbolTable
 70
     6
  0
LTYPE
  5
14
330
5
100
AcDbSymbolTableRecord
100
AcDbLinetypeTableRecord
  2
ByBlock
 70
     0
  3

 72
    65
 73
     0
 40
0.0
  0
LTYPE
  5
15
330
5
100
AcDbSymbolTableRecord
100
AcDbLinetypeTableRecord
  2
ByLayer
 70
     0
  3

 72
    65
 73
     0
 40
0.0
  0
LTYPE
  5
16
330
5
100
AcDbSymbolTableRecord
100
AcDbLinetypeTableRecord
  2
Continuous
 70
     0
  3
Solid line
 72
    65
 73
     0
 40
0.0
  0
LTYPE
  5
6E
330
5
100
AcDbSymbolTableRecord
100
AcDbLinetypeTableRecord
  2
HIDDEN
 70
     0
  3
Hidden __ __ __ __ __ __ __ __ __ __ __ __ __ __
 72
    65
 73
     2
 40
1.905
 49
1.27
 74
     0
 49
-0.635
 74
     0
  0
LTYPE
  5
6F
330
5
100
AcDbSymbolTableRecord
100
AcDbLinetypeTableRecord
  2
PHANTOM
 70
     0
  3
Phantom ______  __  __  ______  __  __  ______
 72
    65
 73
     6
 40
12.7
 49
6.35
 74
     0
 49
-1.27
 74
     0
 49
1.27
 74
     0
 49
-1.27
 74
     0
 49
1.27
 74
     0
 49
-1.27
 74
     0
  0
LTYPE
  5
70
330
5
100
AcDbSymbolTableRecord
100
AcDbLinetypeTableRecord
  2
CENTER
 70
     0
  3
Center ____ _ ____ _ ____ _ ____ _ ____ _ ____
 72
    65
 73
     4
 40
10.16
 49
6.35
 74
     0
 49
-1.27
 74
     0
 49
1.27
 74
     0
 49
-1.27
 74
     0
  0
LTYPE
  5
71
330
5
100
AcDbSymbolTableRecord
100
AcDbLinetypeTableRecord
  2
CENTERX2
 70
     0
  3
Center (2x) ________  __  ________  __  _____
 72
    65
 73
     4
 40
20.32
 49
12.7
 74
     0
 49
-2.54
 74
     0
 49
2.54
 74
     0
 49
-2.54
 74
     0
  0
LTYPE
  5
72
330
5
100
AcDbSymbolTableRecord
100
AcDbLinetypeTableRecord
  2
DOT2
 70
     0
  3
Dot (.5x) ........................................
 72
    65
 73
     2
 40
0.635
 49
0.0
 74
     0
 49
-0.635
 74
     0
  0
ENDTAB
  0
TABLE
  2
LAYER
  5
2
330
0
100
AcDbSymbolTable
 70
     1
  0
LAYER
  5
10
330
2
100
AcDbSymbolTableRecord
100
AcDbLayerTableRecord
  2
0
 70
     0
 62
     7
  6
Continuous
370
    -3
390
F
  0
ENDTAB
  0
TABLE
  2
STYLE
  5
3
330
0
100
AcDbSymbolTable
 70
     1
  0
STYLE
  5
11
330
3
100
AcDbSymbolTableRecord
100
AcDbTextStyleTableRecord
  2
Standard
 70
     0
 40
0.0
 41
1.0
 50
0.0
 71
     0
 42
3.5
  3
txt
  4

  0
ENDTAB
  0
TABLE
  2
VIEW
  5
6
330
0
100
AcDbSymbolTable
 70
     0
  0
ENDTAB
  0
TABLE
  2
UCS
  5
7
330
0
100
AcDbSymbolTable
 70
     0
  0
ENDTAB
  0
TABLE
  2
APPID
  5
9
330
0
100
AcDbSymbolTable
 70
     1
  0
APPID
  5
12
330
9
100
AcDbSymbolTableRecord
100
AcDbRegAppTableRecord
  2
ACAD
 70
     0
  0
ENDTAB
  0
TABLE
  2
DIMSTYLE
  5
A
330
0
100
AcDbSymbolTable
 70
     1
100
AcDbDimStyleTable
  0
DIMSTYLE
105
27
330
A
100
AcDbSymbolTableRecord
100
AcDbDimStyleTableRecord
  2
ISO-25
 70
     0
 41
2.5
 42
0.625
 43
3.75
 44
1.25
 73
     0
 74
     0
 77
     1
 78
     8
140
2.5
141
2.5
143
0.0393700787
147
0.625
171
     3
172
     1
178
     0
271
     2
272
     2
274
     3
278
    44
283
     0
284
     8
340
11
  0
ENDTAB
  0
TABLE
  2
BLOCK_RECORD
  5
1
330
0
100
AcDbSymbolTable
 70
     1
  0
BLOCK_RECORD
  5
1F
330
1
100
AcDbSymbolTableRecord
100
AcDbBlockTableRecord
  2
*Model_Space
340
22
  0
BLOCK_RECORD
  5
1B
330
1
100
AcDbSymbolTableRecord
100
AcDbBlockTableRecord
  2
*Paper_Space
340
1E
  0
BLOCK_RECORD
  5
23
330
1
100
AcDbSymbolTableRecord
100
AcDbBlockTableRecord
  2
*Paper_Space0
340
26
  0
ENDTAB
  0
ENDSEC
  0
SECTION
  2
BLOCKS
  0
BLOCK
  5
20
330
1F
100
AcDbEntity
  8
0
100
AcDbBlockBegin
  2
*Model_Space
 70
     0
 10
0.0
 20
0.0
 30
0.0
  3
*Model_Space
  1

  0
ENDBLK
  5
21
330
1F
100
AcDbEntity
  8
0
100
AcDbBlockEnd
  0
BLOCK
  5
1C
330
1B
100
AcDbEntity
 67
     1
  8
0
100
AcDbBlockBegin
  2
*Paper_Space
 70
     0
 10
0.0
 20
0.0
 30
0.0
  3
*Paper_Space
  1

  0
ENDBLK
  5
1D
330
1B
100
AcDbEntity
 67
     1
  8
0
100
AcDbBlockEnd
  0
BLOCK
  5
24
330
23
100
AcDbEntity
  8
0
100
AcDbBlockBegin
  2
*Paper_Space0
 70
     0
 10
0.0
 20
0.0
 30
0.0
  3
*Paper_Space0
  1

  0
ENDBLK
  5
25
330
23
100
AcDbEntity
  8
0
100
AcDbBlockEnd
  0
ENDSEC
  0
SECTION
  2
ENTITIES
  0
ARC
  5
73
330
1F
100
AcDbEntity
  8
0
  6
Continuous
 62
     7
370
    15
100
AcDbCircle
 10
42.1285580609
 20
90.0047258827
 30
0.0
 40
0.5
100
AcDbArc
 50
90.0
 51
180.0
  0
ARC
  5
74
330
1F
100
AcDbEntity
  8
0
  6
Continuous
 62
     7
370
    15
100
AcDbCircle
 10
78.1285580609
 20
90.0047258827
 30
0.0
 40
0.5
100
AcDbArc
 50
0.0
 51
90.0
  0
LINE
  5
75
330
1F
100
AcDbEntity
  8
0
  6
Continuous
 62
     7
370
    15
100
AcDbLine
 10
78.6285580609
 20
86.0047258827
 30
0.0
 11
78.6285580609
 21
90.0047258827
 31
0.0
  0
ARC
  5
76
330
1F
100
AcDbEntity
  8
0
  6
Continuous
 62
     7
370
    15
100
AcDbCircle
 10
78.1285580609
 20
86.0047258827
 30
0.0
 40
0.5
100
AcDbArc
 50
270.0
 51
0.0
  0
ARC
  5
77
330
1F
100
AcDbEntity
  8
0
  6
Continuous
 62
     7
370
    15
100
AcDbCircle
 10
42.1285580609
 20
86.0047258827
 30
0.0
 40
0.5
100
AcDbArc
 50
180.0
 51
270.0
  0
LINE
  5
78
330
1F
100
AcDbEntity
  8
0
  6
Continuous
 62
     7
370
    15
100
AcDbLine
 10
41.6285580609
 20
90.0047258827
 30
0.0
 11
41.6285580609
 21
86.0047258827
 31
0.0
  0
LINE
  5
79
330
1F
100
AcDbEntity
  8
0
  6
Continuous
 62
     7
370
    15
100
AcDbLine
 10
77.6285580609
 20
91.0047258827
 30
0.0
 11
77.6285580609
 21
130.3962458089
 31
0.0
  0
LINE
  5
7A
330
1F
100
AcDbEntity
  8
0
  6
Continuous
 62
     7
370
    15
100
AcDbLine
 10
42.6285580609
 20
130.3962458089
 30
0.0
 11
42.6285580609
 21
91.0047258827
 31
0.0
  0
SPLINE
  5
7B
330
1F
100
AcDbEntity
  8
0
  6
Continuous
 62
     7
370
    15
100
AcDbSpline
210
0.0
220
0.0
230
1.0
 70
     8
 71
     3
 72
    21
 73
    17
 74
     0
 42
0.000000001
 43
0.00000001
 40
0.0
 40
0.0
 40
0.0
 40
0.0
 40
0.0112466476410295
 40
0.0711210675068307
 40
0.1600961412043646
 40
0.2599848404486184
 40
0.3565114894642401
 40
0.4585097972628391
 40
0.5683835501798824
 40
0.6617171415172969
 40
0.743595138726915
 40
0.8161813726355345
 40
0.8798163008594478
 40
0.9340327665254785
 40
0.9778204218659914
 40
1.0
 40
1.0
 40
1.0
 40
1.0
 10
77.62719661188129
 20
130.3962770895372
 30
0.0
 10
77.62766969876078
 20
130.4014045256691
 30
0.0
 10
77.63066138525849
 20
130.4338291861472
 30
0.0
 10
77.61903232973089
 20
130.5071296352541
 30
0.0
 10
77.58585057297987
 20
130.6164999748732
 30
0.0
 10
77.5137162557488
 20
130.7277831163261
 30
0.0
 10
77.41091837859548
 20
130.8198059342346
 30
0.0
 10
77.28255785116859
 20
130.8827878805295
 30
0.0
 10
77.14263855847095
 20
130.9059689307533
 30
0.0
 10
77.01168603588515
 20
130.8907325564047
 30
0.0
 10
76.9045521045264
 20
130.8508202351503
 30
0.0
 10
76.81996845170111
 20
130.7966904190463
 30
0.0
 10
76.75620017029892
 20
130.7366338693865
 30
0.0
 10
76.71134689185187
 20
130.6775783521701
 30
0.0
 10
76.68351659409171
 20
130.6299202011664
 30
0.0
 10
76.67178200094688
 20
130.602113606708
 30
0.0
 10
76.66783658271697
 20
130.5927644419492
 30
0.0
  0
SPLINE
  5
7C
330
1F
100
AcDbEntity
  8
0
  6
Continuous
 62
     7
370
    15
100
AcDbSpline
210
0.0
220
0.0
230
1.0
 70
     8
 71
     3
 72
    21
 73
    17
 74
     0
 42
0.000000001
 43
0.00000001
 40
0.0
 40
0.0
 40
0.0
 40
0.0
 40
0.0266383637875811
 40
0.0721373203593467
 40
0.1428262584128767
 40
0.2320104301710664
 40
0.3267940768840376
 40
0.4242212885421512
 40
0.5264291131707167
 40
0.6348468739535607
 40
0.7272012185014596
 40
0.8083727388205475
 40
0.88031472416831
 40
0.9432943915974064
 40
0.9967975390355445
 40
1.0
 40
1.0
 40
1.0
 40
1.0
 10
43.58915163155722
 20
130.5928213580092
 30
0.0
 10
43.58437692887058
 20
130.6040373886284
 30
0.0
 10
43.57144692085379
 20
130.6344106653203
 30
0.0
 10
43.53753270478844
 20
130.6905577344909
 30
0.0
 10
43.47749282066996
 20
130.7634676241911
 30
0.0
 10
43.38430023500566
 20
130.8354381122763
 30
0.0
 10
43.26469250864387
 20
130.8867899459567
 30
0.0
 10
43.12972842169134
 20
130.9059085421301
 30
0.0
 10
42.98823341334461
 20
130.8868467689939
 30
0.0
 10
42.85998308188127
 20
130.8289153912827
 30
0.0
 10
42.76032507617557
 20
130.7448584188902
 30
0.0
 10
42.69358556860522
 20
130.6534699364621
 30
0.0
 10
42.65262466098978
 20
130.5626449787554
 30
0.0
 10
42.63334603764774
 20
130.4784503416345
 30
0.0
 10
42.62715966837958
 20
130.4235736012114
 30
0.0
 10
42.62872132376193
 20
130.3976788067587
 30
0.0
 10
42.62880951857268
 20
130.3962163928855
 30
0.0
  0
ARC
  5
7D
330
1F
100
AcDbEntity
  8
0
  6
Continuous
 62
     7
370
    15
100
AcDbCircle
 10
42.1285580609
 20
91.0047258827
 30
0.0
 40
0.5000000000000071
100
AcDbArc
 50
270.0
 51
0.0
  0
ARC
  5
7E
330
1F
100
AcDbEntity
  8
0
  6
Continuous
 62
     7
370
    15
100
AcDbCircle
 10
78.1285580609
 20
91.0047258827
 30
0.0
 40
0.5
100
AcDbArc
 50
180.0
 51
270.0
  0
CIRCLE
  5
7F
330
1F
100
AcDbEntity
  8
0
  6
Continuous
 62
     7
370
    15
100
AcDbCircle
 10
60.1285580609
 20
95.5047258827
 30
0.0
 40
3.309499999999998
  0
LINE
  5
80
330
1F
100
AcDbEntity
  8
0
  6
Continuous
 62
     7
370
    15
100
AcDbLine
 10
59.8510636067
 20
93.2120570971
 30
0.0
 11
58.0043014233
 21
94.598708736
 31
0.0
  0
LINE
  5
81
330
1F
100
AcDbEntity
  8
0
  6
Continuous
 62
     7
370
    15
100
AcDbLine
 10
61.9753202451
 20
94.1180742432
 30
0.0
 11
59.8510636067
 21
93.2120570971
 31
0.0
  0
LINE
  5
82
330
1F
100
AcDbEntity
  8
0
  6
Continuous
 62
     7
370
    15
100
AcDbLine
 10
62.2528146985
 20
96.4107430293
 30
0.0
 11
60.406052515
 21
97.7973946682
 31
0.0
  0
LINE
  5
83
330
1F
100
AcDbEntity
  8
0
  6
Continuous
 62
     7
370
    15
100
AcDbLine
 10
60.406052515
 20
97.7973946682
 30
0.0
 11
58.2817958769
 21
96.8913775214
 31
0.0
  0
LINE
  5
84
330
1F
100
AcDbEntity
  8
0
  6
Continuous
 62
     7
370
    15
100
AcDbLine
 10
58.2817958773
 20
96.8913775214
 30
0.0
 11
58.0043014233
 21
94.598708736
 31
0.0
  0
LINE
  5
85
330
1F
100
AcDbEntity
  8
0
  6
Continuous
 62
     7
370
    15
100
AcDbLine
 10
61.9753202443
 20
94.1180742433
 30
0.0
 11
62.2528146985
 21
96.4107430293
 31
0.0
  0
CIRCLE
  5
86
330
1F
100
AcDbEntity
  8
0
  6
Continuous
 62
     7
370
    15
100
AcDbCircle
 10
60.1285580609
 20
95.5047258827
 30
0.0
 40
3.621548783873463
  0
LINE
  5
87
330
1F
100
AcDbEntity
  8
0
  6
Continuous
 62
     7
370
    15
100
AcDbLine
 10
55.6285580609
 20
115.0047258827
 30
0.0
 11
55.1285580609
 21
115.0047258827
 31
0.0
  0
ARC
  5
88
330
1F
100
AcDbEntity
  8
0
  6
Continuous
 62
     7
370
    15
100
AcDbCircle
 10
55.6285580609
 20
115.0047258827
 30
0.0
 40
0.5
100
AcDbArc
 50
90.0
 51
180.0
  0
LINE
  5
89
330
1F
100
AcDbEntity
  8
0
  6
Continuous
 62
     7
370
    15
100
AcDbLine
 10
55.6285580609
 20
115.5047258827
 30
0.0
 11
55.6285580609
 21
115.0047258827
 31
0.0
  0
LINE
  5
8A
330
1F
100
AcDbEntity
  8
0
  6
Continuous
 62
     7
370
    15
100
AcDbLine
 10
55.6285580609
 20
115.0047258827
 30
0.0
 11
55.6285580609
 21
86.0047258827
 31
0.0
  0
LINE
  5
8B
330
1F
100
AcDbEntity
  8
0
  6
Continuous
 62
     7
370
    15
100
AcDbLine
 10
55.1285580609
 20
86.0047258827
 30
0.0
 11
55.6285580609
 21
86.0047258827
 31
0.0
  0
LINE
  5
8C
330
1F
100
AcDbEntity
  8
0
  6
Continuous
 62
     7
370
    15
100
AcDbLine
 10
55.1285580609
 20
86.0047258827
 30
0.0
 11
55.1285580609
 21
115.0047258827
 31
0.0
  0
LINE
  5
8D
330
1F
100
AcDbEntity
  8
0
  6
Continuous
 62
     7
370
    15
100
AcDbLine
 10
55.6285580609
 20
115.5047258827
 30
0.0
 11
64.6285580609
 21
115.5047258827
 31
0.0
  0
LINE
  5
8E
330
1F
100
AcDbEntity
  8
0
  6
Continuous
 62
     7
370
    15
100
AcDbLine
 10
64.6285580609
 20
115.0047258827
 30
0.0
 11
64.6285580609
 21
115.5047258827
 31
0.0
  0
LINE
  5
8F
330
1F
100
AcDbEntity
  8
0
  6
Continuous
 62
     7
370
    15
100
AcDbLine
 10
64.6285580609
 20
115.0047258827
 30
0.0
 11
55.6285580609
 21
115.0047258827
 31
0.0
  0
ARC
  5
90
330
1F
100
AcDbEntity
  8
0
  6
Continuous
 62
     7
370
    15
100
AcDbCircle
 10
64.6285580609
 20
115.0047258827
 30
0.0
 40
0.5
100
AcDbArc
 50
0.0
 51
90.0
  0
LINE
  5
91
330
1F
100
AcDbEntity
  8
0
  6
Continuous
 62
     7
370
    15
100
AcDbLine
 10
64.6285580609
 20
115.0047258827
 30
0.0
 11
65.1285580609
 21
115.0047258827
 31
0.0
  0
LINE
  5
92
330
1F
100
AcDbEntity
  8
0
  6
Continuous
 62
     7
370
    15
100
AcDbLine
 10
65.1285580609
 20
115.0047258827
 30
0.0
 11
65.1285580609
 21
86.0047258827
 31
0.0
  0
LINE
  5
93
330
1F
100
AcDbEntity
  8
0
  6
Continuous
 62
     7
370
    15
100
AcDbLine
 10
64.6285580609
 20
86.0047258827
 30
0.0
 11
65.1285580609
 21
86.0047258827
 31
0.0
  0
LINE
  5
94
330
1F
100
AcDbEntity
  8
0
  6
Continuous
 62
     7
370
    15
100
AcDbLine
 10
64.6285580609
 20
86.0047258827
 30
0.0
 11
64.6285580609
 21
115.0047258827
 31
0.0
  0
ARC
  5
95
330
1F
100
AcDbEntity
  8
0
  6
Continuous
 62
     7
370
    15
100
AcDbCircle
 10
64.6285580609
 20
86.0047258827
 30
0.0
 40
0.5
100
AcDbArc
 50
270.0
 51
0.0
  0
LINE
  5
96
330
1F
100
AcDbEntity
  8
0
  6
Continuous
 62
     7
370
    15
100
AcDbLine
 10
64.6285580609
 20
85.5047258827
 30
0.0
 11
64.6285580609
 21
86.0047258827
 31
0.0
  0
CIRCLE
  5
97
330
1F
100
AcDbEntity
  8
0
  6
Continuous
 62
     7
370
    15
100
AcDbCircle
 10
60.1285580609
 20
95.5047258827
 30
0.0
 40
4.025000000000006
  0
LINE
  5
98
330
1F
100
AcDbEntity
  8
0
  6
Continuous
 62
     7
370
    15
100
AcDbLine
 10
55.6285580609
 20
86.0047258827
 30
0.0
 11
64.6285580609
 21
86.0047258827
 31
0.0
  0
LINE
  5
99
330
1F
100
AcDbEntity
  8
0
  6
Continuous
 62
     7
370
    15
100
AcDbLine
 10
55.6285580609
 20
86.0047258827
 30
0.0
 11
55.6285580609
 21
85.5047258827
 31
0.0
  0
LINE
  5
9A
330
1F
100
AcDbEntity
  8
0
  6
Continuous
 62
     7
370
    15
100
AcDbLine
 10
64.6285580609
 20
85.5047258827
 30
0.0
 11
55.6285580609
 21
85.5047258827
 31
0.0
  0
ARC
  5
9B
330
1F
100
AcDbEntity
  8
0
  6
Continuous
 62
     7
370
    15
100
AcDbCircle
 10
55.6285580609
 20
86.0047258827
 30
0.0
 40
0.5
100
AcDbArc
 50
180.0
 51
270.0
  0
LINE
  5
9C
330
1F
100
AcDbEntity
  8
0
  6
Continuous
 62
     7
370
    15
100
AcDbLine
 10
54.773294903
 20
90.0047258827
 30
0.0
 11
55.1285580609
 21
90.0047258827
 31
0.0
  0
SPLINE
  5
9D
330
1F
100
AcDbEntity
  8
0
  6
Continuous
 62
     7
370
    15
100
AcDbSpline
210
0.0
220
0.0
230
1.0
 70
     8
 71
     3
 72
    12
 73
     8
 74
     0
 42
0.000000001
 43
0.00000001
 40
0.0
 40
0.0
 40
0.0
 40
0.0
 40
0.1031110194051173
 40
0.3053082623012527
 40
0.5246483496456207
 40
0.7591219966435608
 40
1.0
 40
1.0
 40
1.0
 40
1.0
 10
54.77329490298484
 20
90.00472588266403
 30
0.0
 10
54.77286815853449
 20
90.03403608404356
 30
0.0
 10
54.77160458256232
 20
90.12082260504312
 30
0.0
 10
54.75689997435563
 20
90.26175499742256
 30
0.0
 10
54.72499480958645
 20
90.39656853194239
 30
0.0
 10
54.68059612033196
 20
90.48760988550757
 30
0.0
 10
54.64605918470823
 20
90.49896953454407
 30
0.0
 10
54.6285580608794
 20
90.50472588266383
 30
0.0
  0
ARC
  5
9E
330
1F
100
AcDbEntity
  8
0
  6
Continuous
 62
     7
370
    15
100
AcDbCircle
 10
54.6285580609
 20
91.0047258827
 30
0.0
 40
0.5
100
AcDbArc
 50
270.0
 51
0.0
  0
SPLINE
  5
9F
330
1F
100
AcDbEntity
  8
0
  6
Continuous
 62
     7
370
    15
100
AcDbSpline
210
0.0
220
0.0
230
1.0
 70
     8
 71
     3
 72
    12
 73
     8
 74
     0
 42
0.000000001
 43
0.00000001
 40
0.0
 40
0.0
 40
0.0
 40
0.0
 40
0.1833067835326325
 40
0.4061255648979166
 40
0.6128406149177716
 40
0.8086812095542422
 40
1.0
 40
1.0
 40
1.0
 40
1.0
 10
65.6285580608794
 20
90.50472588266383
 30
0.0
 10
65.61523660704133
 20
90.5013511911354
 30
0.0
 10
65.58572224395564
 20
90.4938743892575
 30
0.0
 10
65.54480786229014
 20
90.42806115656452
 30
0.0
 10
65.51087965528637
 20
90.3159063086203
 30
0.0
 10
65.48820569087178
 20
90.1699141647503
 30
0.0
 10
65.48527128540404
 20
90.0593582329608
 30
0.0
 10
65.48382121877414
 20
90.00472588266383
 30
0.0
  0
LINE
  5
A0
330
1F
100
AcDbEntity
  8
0
  6
Continuous
 62
     7
370
    15
100
AcDbLine
 10
65.4838212188
 20
90.0047258827
 30
0.0
 11
65.1285580609
 21
90.0047258827
 31
0.0
  0
ARC
  5
A1
330
1F
100
AcDbEntity
  8
0
  6
Continuous
 62
     7
370
    15
100
AcDbCircle
 10
65.6285580609
 20
91.0047258827
 30
0.0
 40
0.5
100
AcDbArc
 50
180.0
 51
270.0
  0
LINE
  5
A2
330
1F
100
AcDbEntity
  8
0
  6
Continuous
 62
     7
370
    15
100
AcDbLine
 10
65.4838212188
 20
90.0047258827
 30
0.0
 11
65.4838212188
 21
86.0047258827
 31
0.0
  0
LINE
  5
A3
330
1F
100
AcDbEntity
  8
0
  6
Continuous
 62
     7
370
    15
100
AcDbLine
 10
65.4838212188
 20
86.0047258827
 30
0.0
 11
65.1285580609
 21
86.0047258827
 31
0.0
  0
LINE
  5
A4
330
1F
100
AcDbEntity
  8
0
  6
Continuous
 62
     7
370
    15
100
AcDbLine
 10
54.773294903
 20
86.0047258827
 30
0.0
 11
54.773294903
 21
90.0047258827
 31
0.0
  0
LINE
  5
A5
330
1F
100
AcDbEntity
  8
0
  6
Continuous
 62
     7
370
    15
100
AcDbLine
 10
54.773294903
 20
86.0047258827
 30
0.0
 11
55.1285580609
 21
86.0047258827
 31
0.0
  0
LWPOLYLINE
  5
A6
330
1F
100
AcDbEntity
  8
0
  6
Continuous
 62
     7
370
    15
100
AcDbPolyline
 90
        9
 70
   128
 43
0.0
 10
65.4838212188
 20
86.0047258827
 10
65.4810401409
 20
85.9071807217
 10
65.4728037827
 20
85.8133841665
 10
65.4594286627
 20
85.7269407662
 10
65.4414287792
 20
85.6511724921
 10
65.4194958578
 20
85.5889910765
 10
65.3944727682
 20
85.5427861164
 10
65.3673211338
 20
85.5143332425
 10
65.3390843767
 20
85.5047258827
  0
LINE
  5
A7
330
1F
100
AcDbEntity
  8
0
  6
Continuous
 62
     7
370
    15
100
AcDbLine
 10
64.6285580609
 20
85.5047258827
 30
0.0
 11
65.3390843767
 21
85.5047258827
 31
0.0
  0
LWPOLYLINE
  5
A8
330
1F
100
AcDbEntity
  8
0
  6
Continuous
 62
     7
370
    15
100
AcDbPolyline
 90
        9
 70
   128
 43
0.0
 10
54.9180317451
 20
85.5047258827
 10
54.889794988
 20
85.5143332425
 10
54.8626433536
 20
85.5427861164
 10
54.837620264
 20
85.5889910765
 10
54.8156873425
 20
85.6511724921
 10
54.7976874591
 20
85.7269407662
 10
54.7843123391
 20
85.8133841665
 10
54.7760759808
 20
85.9071807217
 10
54.773294903
 20
86.0047258827
  0
LINE
  5
A9
330
1F
100
AcDbEntity
  8
0
  6
Continuous
 62
     7
370
    15
100
AcDbLine
 10
54.9180317451
 20
85.5047258827
 30
0.0
 11
55.6285580609
 21
85.5047258827
 31
0.0
  0
LINE
  5
AA
330
1F
100
AcDbEntity
  8
0
  6
Continuous
 62
     7
370
    15
100
AcDbLine
 10
42.1285580609
 20
90.5047258827
 30
0.0
 11
54.6285580609
 21
90.5047258827
 31
0.0
  0
LINE
  5
AB
330
1F
100
AcDbEntity
  8
0
  6
Continuous
 62
     7
370
    15
100
AcDbLine
 10
78.1285580609
 20
90.5047258827
 30
0.0
 11
65.6285580609
 21
90.5047258827
 31
0.0
  0
LINE
  5
AC
330
1F
100
AcDbEntity
  8
0
  6
Continuous
 62
     7
370
    15
100
AcDbLine
 10
78.1285580609
 20
85.5047258827
 30
0.0
 11
65.3390843767
 21
85.5047258827
 31
0.0
  0
LINE
  5
AD
330
1F
100
AcDbEntity
  8
0
  6
Continuous
 62
     7
370
    15
100
AcDbLine
 10
54.9180317451
 20
85.5047258827
 30
0.0
 11
42.1285580609
 21
85.5047258827
 31
0.0
  0
LINE
  5
AE
330
1F
100
AcDbEntity
  8
0
  6
Continuous
 62
     7
370
    15
100
AcDbLine
 10
66.3050286491
 20
118.7995620104
 30
0.0
 11
66.3050286491
 21
115.5047258827
 31
0.0
  0
LINE
  5
AF
330
1F
100
AcDbEntity
  8
0
  6
Continuous
 62
     7
370
    15
100
AcDbLine
 10
53.9520874726
 20
115.5047258827
 30
0.0
 11
53.9520874726
 21
118.7995620104
 31
0.0
  0
SPLINE
  5
B0
330
1F
100
AcDbEntity
  8
0
  6
Continuous
 62
     7
370
    15
100
AcDbSpline
210
0.0
220
0.0
230
1.0
 70
     8
 71
     3
 72
    11
 73
     7
 74
     0
 42
0.000000001
 43
0.00000001
 40
0.0
 40
0.0
 40
0.0
 40
0.0
 40
0.306142663151276
 40
0.6208716915837602
 40
0.809484288040805
 40
1.0
 40
1.0
 40
1.0
 40
1.0
 10
54.78133583865717
 20
115.0047258826638
 30
0.0
 10
54.78373590447637
 20
115.0582679274714
 30
0.0
 10
54.78860335061973
 20
115.1668537076707
 30
0.0
 10
54.82341197835127
 20
115.3044841747609
 30
0.0
 10
54.86576865756716
 20
115.4174524939569
 30
0.0
 10
54.89626447131348
 20
115.4755375629591
 30
0.0
 10
54.91158891831119
 20
115.5047258826638
 30
0.0
  0
LINE
  5
B1
330
1F
100
AcDbEntity
  8
0
  6
Continuous
 62
     7
370
    15
100
AcDbLine
 10
54.7813358387
 20
91.0047258827
 30
0.0
 11
54.7813358387
 21
115.0047258827
 31
0.0
  0
LINE
  5
B2
330
1F
100
AcDbEntity
  8
0
  6
Continuous
 62
     7
370
    15
100
AcDbLine
 10
65.4757802831
 20
115.0047258827
 30
0.0
 11
65.4757802831
 21
91.0047258827
 31
0.0
  0
SPLINE
  5
B3
330
1F
100
AcDbEntity
  8
0
  6
Continuous
 62
     7
370
    15
100
AcDbSpline
210
0.0
220
0.0
230
1.0
 70
     8
 71
     3
 72
     9
 73
     5
 74
     0
 42
0.000000001
 43
0.00000001
 40
0.0
 40
0.0
 40
0.0
 40
0.0
 40
0.3796440135734708
 40
1.0
 40
1.0
 40
1.0
 40
1.0
 10
65.3455272034476
 20
115.5047258826638
 30
0.0
 10
65.37496284055018
 20
115.4456327695427
 30
0.0
 10
65.4524976785831
 20
115.2899787594481
 30
0.0
 10
65.46686649920866
 20
115.1139354213337
 30
0.0
 10
65.47578028310163
 20
115.0047258826638
 30
0.0
  0
LINE
  5
B4
330
1F
100
AcDbEntity
  8
0
  6
Continuous
 62
     7
370
    15
100
AcDbLine
 10
54.9115889183
 20
115.5047258827
 30
0.0
 11
53.9520874726
 21
115.5047258827
 31
0.0
  0
LINE
  5
B5
330
1F
100
AcDbEntity
  8
0
  6
Continuous
 62
     7
370
    15
100
AcDbLine
 10
66.3050286491
 20
115.5047258827
 30
0.0
 11
65.3455272034
 21
115.5047258827
 31
0.0
  0
LWPOLYLINE
  5
B6
330
1F
100
AcDbEntity
  8
0
  6
Continuous
 62
     7
370
    15
100
AcDbPolyline
 90
        9
 70
   128
 43
0.0
 10
66.3050286491
 20
118.7995620104
 10
66.2698489759
 20
118.898963886
 10
66.2283845352
 20
118.9939442624
 10
66.1824797087
 20
119.0802783132
 10
66.1341763909
 20
119.1541258095
 10
66.0856231639
 20
119.2122019376
 10
66.038979726
 20
119.2519234107
 10
65.996320826
 20
119.271523376
 10
65.9595439764
 20
119.2701300068
  0
SPLINE
  5
B7
330
1F
100
AcDbEntity
  8
0
  6
Continuous
 62
     7
370
    15
100
AcDbSpline
210
0.0
220
0.0
230
1.0
 70
     8
 71
     3
 72
    25
 73
    21
 74
     0
 42
0.000000001
 43
0.00000001
 40
0.0
 40
0.0
 40
0.0
 40
0.0
 40
0.0412644302609571
 40
0.0825319650664704
 40
0.1244734481399469
 40
0.1664177335865447
 40
0.2222494758676803
 40
0.2781562186583857
 40
0.3340090338235993
 40
0.4209705838601366
 40
0.5079503042972354
 40
0.5798403691689132
 40
0.6517313307402304
 40
0.7249642196537843
 40
0.7981637790499365
 40
0.8600863984753814
 40
0.8916006542753264
 40
0.9230960183622441
 40
0.9610580485412847
 40
1.0
 40
1.0
 40
1.0
 40
1.0
 10
65.95954397637236
 20
119.2701300067782
 30
0.0
 10
66.24250680421535
 20
119.3767057729487
 30
0.0
 10
66.80845374871356
 20
119.5898653235566
 30
0.0
 10
67.61984831489785
 20
119.958526589419
 30
0.0
 10
68.40217234700575
 20
120.3597847552017
 30
0.0
 10
69.23371781675424
 20
120.8420889663801
 30
0.0
 10
70.09513026215748
 20
121.4108473220405
 30
0.0
 10
70.96786412728183
 20
122.0713373201894
 30
0.0
 10
71.92475098955065
 20
122.8941121807164
 30
0.0
 10
72.91820976042939
 20
123.8945043019006
 30
0.0
 10
73.83884948151861
 20
125.0062311112794
 30
0.0
 10
74.58573684088246
 20
126.0699196638496
 30
0.0
 10
75.19099528007789
 20
127.070795602494
 30
0.0
 10
75.70322676787941
 20
128.0641594927381
 30
0.0
 10
76.09850785565413
 20
128.9627455130742
 30
0.0
 10
76.34271973607794
 20
129.6093501155533
 30
0.0
 10
76.48414940487342
 20
130.0197199526118
 30
0.0
 10
76.5727346681567
 20
130.2917115858972
 30
0.0
 10
76.63786787043657
 20
130.5036392469413
 30
0.0
 10
76.64568148973852
 20
130.5299232185329
 30
0.0
 10
76.64963808050396
 20
130.5432326613481
 30
0.0
  0
SPLINE
  5
B8
330
1F
100
AcDbEntity
  8
0
  6
Continuous
 62
     7
370
    15
100
AcDbSpline
210
0.0
220
0.0
230
1.0
 70
     8
 71
     3
 72
    23
 73
    19
 74
     0
 42
0.000000001
 43
0.00000001
 40
0.0
 40
0.0
 40
0.0
 40
0.0
 40
0.0384133253671091
 40
0.076879703468734
 40
0.1250647037931303
 40
0.1733268127526653
 40
0.2356238268474465
 40
0.2980781513549074
 40
0.3606061482642242
 40
0.423003856434188
 40
0.5035348266731846
 40
0.584323679937672
 40
0.665037651104465
 40
0.7454661646993009
 40
0.8090214224829024
 40
0.8728261495943161
 40
0.936552315908762
 40
1.0
 40
1.0
 40
1.0
 40
1.0
 10
43.60747804125484
 20
130.5432326613481
 30
0.0
 10
43.61281341805875
 20
130.5251829905632
 30
0.0
 10
43.62349154036809
 20
130.4890587205504
 30
0.0
 10
43.70123198815511
 20
130.2375647259485
 30
0.0
 10
43.8323071254785
 20
129.841627548771
 30
0.0
 10
44.04387485752275
 20
129.2582681733219
 30
0.0
 10
44.33658197680547
 20
128.5493501960943
 30
0.0
 10
44.7261220124376
 20
127.7256233297353
 30
0.0
 10
45.18712161592931
 20
126.8681166520545
 30
0.0
 10
45.77035027934775
 20
125.9184863045801
 30
0.0
 10
46.50469883374649
 20
124.8949609758544
 30
0.0
 10
47.42367567229513
 20
123.8082858611441
 30
0.0
 10
48.47140691323829
 20
122.7607035504414
 30
0.0
 10
49.56853002094633
 20
121.8402141529188
 30
0.0
 10
50.68893837135108
 20
121.0483148227646
 30
0.0
 10
51.80677225758614
 20
120.3789521925573
 30
0.0
 10
53.00251252457721
 20
119.7708317114112
 30
0.0
 10
53.86651626328329
 20
119.4367867471268
 30
0.0
 10
54.29757214538641
 20
119.2701300067782
 30
0.0
  0
LWPOLYLINE
  5
B9
330
1F
100
AcDbEntity
  8
0
  6
Continuous
 62
     7
370
    15
100
AcDbPolyline
 90
        9
 70
   128
 43
0.0
 10
53.9520874726
 20
118.7995620104
 10
53.9872671458
 20
118.898963886
 10
54.0287315865
 20
118.9939442624
 10
54.0746364131
 20
119.0802783132
 10
54.1229397309
 20
119.1541258095
 10
54.1714929579
 20
119.2122019376
 10
54.2181363958
 20
119.2519234107
 10
54.2607952958
 20
119.271523376
 10
54.2975721454
 20
119.2701300068
  0
LINE
  5
BA
330
1F
100
AcDbEntity
  8
0
  6
Continuous
 62
     7
370
    15
100
AcDbLine
 10
55.1285580609
 20
115.0047258827
 30
0.0
 11
54.7813358387
 21
115.0047258827
 31
0.0
  0
SPLINE
  5
BB
330
1F
100
AcDbEntity
  8
0
  6
Continuous
 62
     7
370
    15
100
AcDbSpline
210
0.0
220
0.0
230
1.0
 70
    24
 71
     3
 72
    11
 73
     7
 74
     0
 42
0.000000001
 43
0.00000001
 40
0.0
 40
0.0
 40
0.0
 40
0.0
 40
0.2440955486902936
 40
0.6150436422341996
 40
0.9954186510554908
 40
1.0
 40
1.0
 40
1.0
 40
1.0
 10
54.91158891831119
 20
115.5047258826638
 30
0.0
 10
54.9896536695119
 20
115.5047258826638
 30
0.0
 10
55.18635217207046
 20
115.5047258826638
 30
0.0
 10
55.41870027666708
 20
115.5047258826638
 30
0.0
 10
55.55643699133614
 20
115.5047258826639
 30
0.0
 10
55.62770984572554
 20
115.5047258826638
 30
0.0
 10
55.6285580608794
 20
115.5047258826638
 30
0.0
  0
LINE
  5
BC
330
1F
100
AcDbEntity
  8
0
  6
Continuous
 62
     7
370
    15
100
AcDbLine
 10
65.4757802831
 20
115.0047258827
 30
0.0
 11
65.1285580609
 21
115.0047258827
 31
0.0
  0
SPLINE
  5
BD
330
1F
100
AcDbEntity
  8
0
  6
Continuous
 62
     7
370
    15
100
AcDbSpline
210
0.0
220
0.0
230
1.0
 70
    24
 71
     3
 72
    11
 73
     7
 74
     0
 42
0.000000001
 43
0.00000001
 40
0.0
 40
0.0
 40
0.0
 40
0.0
 40
0.0045813489432637
 40
0.3849563577650364
 40
0.7559044513094011
 40
1.0
 40
1.0
 40
1.0
 40
1.0
 10
64.6285580608794
 20
115.5047258826638
 30
0.0
 10
64.62940627603327
 20
115.5047258826638
 30
0.0
 10
64.70067913044323
 20
115.504725882664
 30
0.0
 10
64.8384158450825
 20
115.5047258826638
 30
0.0
 10
65.07076394968973
 20
115.5047258826639
 30
0.0
 10
65.26746245224729
 20
115.5047258826638
 30
0.0
 10
65.3455272034476
 20
115.5047258826638
 30
0.0
  0
LWPOLYLINE
  5
BE
330
1F
100
AcDbEntity
  8
0
  6
Continuous
 62
     7
370
    15
100
AcDbPolyline
 90
        9
 70
   128
 43
0.0
 10
54.6285580609
 20
90.5047258827
 10
54.6583635267
 20
90.5143332425
 10
54.6870235853
 20
90.5427861164
 10
54.7134368465
 20
90.5889910765
 10
54.7365882636
 20
90.6511724921
 10
54.7555881405
 20
90.7269407662
 10
54.7697063228
 20
90.8133841665
 10
54.7784002565
 20
90.9071807217
 10
54.7813358387
 20
91.0047258827
  0
LINE
  5
BF
330
1F
100
AcDbEntity
  8
0
  6
Continuous
 62
     7
370
    15
100
AcDbLine
 10
55.1285580609
 20
91.0047258827
 30
0.0
 11
54.7813358387
 21
91.0047258827
 31
0.0
  0
LINE
  5
C0
330
1F
100
AcDbEntity
  8
0
  6
Continuous
 62
     7
370
    15
100
AcDbLine
 10
65.4757802831
 20
91.0047258827
 30
0.0
 11
65.1285580609
 21
91.0047258827
 31
0.0
  0
LWPOLYLINE
  5
C1
330
1F
100
AcDbEntity
  8
0
  6
Continuous
 62
     7
370
    15
100
AcDbPolyline
 90
        9
 70
   128
 43
0.0
 10
65.4757802831
 20
91.0047258827
 10
65.4787158653
 20
90.9071807217
 10
65.487409799
 20
90.8133841665
 10
65.5015279812
 20
90.7269407662
 10
65.5205278582
 20
90.6511724921
 10
65.5436792753
 20
90.5889910765
 10
65.5700925365
 20
90.5427861164
 10
65.598752595
 20
90.5143332425
 10
65.6285580609
 20
90.5047258827
  0
ARC
  5
C2
330
1F
100
AcDbEntity
  8
0
  6
Continuous
 62
     7
370
    15
100
AcDbCircle
 10
54.1285580609
 20
118.7995620104
 30
0.0
 40
0.5000000000000103
100
AcDbArc
 50
0.0
 51
70.2432150754
  0
LINE
  5
C3
330
1F
100
AcDbEntity
  8
0
  6
Continuous
 62
     7
370
    15
100
AcDbLine
 10
54.6285580609
 20
118.7995620104
 30
0.0
 11
53.9520874726
 21
118.7995620104
 31
0.0
  0
LINE
  5
C4
330
1F
100
AcDbEntity
  8
0
  6
Continuous
 62
     7
370
    15
100
AcDbLine
 10
66.3050286491
 20
118.7995620104
 30
0.0
 11
65.6285580609
 21
118.7995620104
 31
0.0
  0
ARC
  5
C5
330
1F
100
AcDbEntity
  8
0
  6
Continuous
 62
     7
370
    15
100
AcDbCircle
 10
66.1285580609
 20
118.7995620104
 30
0.0
 40
0.5
100
AcDbArc
 50
109.7567849246
 51
180.0
  0
LINE
  5
C6
330
1F
100
AcDbEntity
  8
0
  6
Continuous
 62
     7
370
    15
100
AcDbLine
 10
65.6285580609
 20
115.5047258827
 30
0.0
 11
65.6285580609
 21
118.7995620104
 31
0.0
  0
LINE
  5
C7
330
1F
100
AcDbEntity
  8
0
  6
Continuous
 62
     7
370
    15
100
AcDbLine
 10
54.6285580609
 20
118.7995620104
 30
0.0
 11
54.6285580609
 21
115.5047258827
 31
0.0
  0
LINE
  5
C8
330
1F
100
AcDbEntity
  8
0
  6
Continuous
 62
     8
370
    15
100
AcDbLine
 10
54.773294903
 20
90.0047258827
 30
0.0
 11
41.6285580609
 21
90.0047258827
 31
0.0
  0
LINE
  5
C9
330
1F
100
AcDbEntity
  8
0
  6
Continuous
 62
     8
370
    15
100
AcDbLine
 10
78.6285580609
 20
90.0047258827
 30
0.0
 11
65.4838212188
 21
90.0047258827
 31
0.0
  0
LINE
  5
CA
330
1F
100
AcDbEntity
  8
0
  6
Continuous
 62
     8
370
    15
100
AcDbLine
 10
65.4838212188
 20
86.0047258827
 30
0.0
 11
78.6285580609
 21
86.0047258827
 31
0.0
  0
LINE
  5
CB
330
1F
100
AcDbEntity
  8
0
  6
Continuous
 62
     8
370
    15
100
AcDbLine
 10
41.6285580609
 20
86.0047258827
 30
0.0
 11
54.773294903
 21
86.0047258827
 31
0.0
  0
SPLINE
  5
CC
330
1F
100
AcDbEntity
  8
0
  6
Continuous
 62
     8
370
    15
100
AcDbSpline
210
0.0
220
0.0
230
1.0
 70
     8
 71
     3
 72
    27
 73
    23
 74
     0
 42
0.000000001
 43
0.00000001
 40
0.0
 40
0.0
 40
0.0
 40
0.0
 40
0.0359685415486286
 40
0.0747371493642822
 40
0.1053439356394646
 40
0.1361954080008297
 40
0.1675605326132789
 40
0.1990293531082993
 40
0.2703911663243072
 40
0.3422172139697618
 40
0.4151478077656412
 40
0.4884075869183648
 40
0.5723767773606313
 40
0.6569368369442808
 40
0.70026349577163
 40
0.7436948923713443
 40
0.7874750666906354
 40
0.8313873899703774
 40
0.873152602527076
 40
0.9150589734392809
 40
0.9574393611672742
 40
1.0
 40
1.0
 40
1.0
 40
1.0
 10
77.62751954518549
 20
130.3962458088545
 30
0.0
 10
77.62366680315799
 20
130.3836670431237
 30
0.0
 10
77.61566139220794
 20
130.3575302843682
 30
0.0
 10
77.54839528196207
 20
130.1447518844654
 30
0.0
 10
77.45512709899437
 20
129.8662709969485
 30
0.0
 10
77.3438900050061
 20
129.5523391951209
 30
0.0
 10
77.20939141032174
 20
129.1964546095389
 30
0.0
 10
76.9863446311699
 20
128.6450202230197
 30
0.0
 10
76.63448281279076
 20
127.865206145417
 30
0.0
 10
76.09850048063684
 20
126.8531187034972
 30
0.0
 10
75.45563472169921
 20
125.8148977564734
 30
0.0
 10
74.66668140593849
 20
124.7224487574727
 30
0.0
 10
73.71040102987999
 20
123.5970120150464
 30
0.0
 10
72.74908161539533
 20
122.6486275624282
 30
0.0
 10
71.89437681847012
 20
121.9155296601345
 30
0.0
 10
71.20252897617056
 20
121.3770842584136
 30
0.0
 10
70.46639826270523
 20
120.8596486192471
 30
0.0
 10
69.69864118471186
 20
120.3753437853446
 30
0.0
 10
68.90308120032347
 20
119.926689488985
 30
0.0
 10
68.07938400920283
 20
119.5152904109737
 30
0.0
 10
67.21638262956562
 20
119.1331753988086
 30
0.0
 10
66.6092427744051
 20
118.9109236846804
 30
0.0
 10
66.30502864911469
 20
118.7995620103757
 30
0.0
  0
SPLINE
  5
CD
330
1F
100
AcDbEntity
  8
0
  6
Continuous
 62
     8
370
    15
100
AcDbSpline
210
0.0
220
0.0
230
1.0
 70
     8
 71
     3
 72
    24
 73
    20
 74
     0
 42
0.000000001
 43
0.00000001
 40
0.0
 40
0.0
 40
0.0
 40
0.0
 40
0.0627671613560093
 40
0.1261211080250381
 40
0.1911179844352712
 40
0.2565938860459072
 40
0.3356462124957024
 40
0.4153203860808456
 40
0.4967092143703849
 40
0.5786012530189447
 40
0.6400006153418643
 40
0.7015985324417218
 40
0.763888909957146
 40
0.8265139914190134
 40
0.8740312061299033
 40
0.9221117559759759
 40
0.9597294931839574
 40
0.9982861082943176
 40
1.0
 40
1.0
 40
1.0
 40
1.0
 10
53.9520874726441
 20
118.7995620103757
 30
0.0
 10
53.50560924722581
 20
118.9667155813643
 30
0.0
 10
52.60847884842664
 20
119.3025853758233
 30
0.0
 10
51.34890102636842
 20
119.9198130552318
 30
0.0
 10
50.15370997497242
 20
120.6122625484264
 30
0.0
 10
48.96174957454029
 20
121.4305234083368
 30
0.0
 10
47.80251046959
 20
122.3719358564294
 30
0.0
 10
46.6966927286504
 20
123.4401132300807
 30
0.0
 10
45.7133629724128
 20
124.5649762399371
 30
0.0
 10
44.92753831416642
 20
125.6300796284908
 30
0.0
 10
44.3074438165411
 20
126.6055539248459
 30
0.0
 10
43.82052712408709
 20
127.4794530278227
 30
0.0
 10
43.40531350790879
 20
128.3334130570511
 30
0.0
 10
43.09242493259541
 20
129.0743876461969
 30
0.0
 10
42.86774885460762
 20
129.6734792685676
 30
0.0
 10
42.72684768936143
 20
130.0885349152303
 30
0.0
 10
42.65100260925205
 20
130.3265995425111
 30
0.0
 10
42.62117324083628
 20
130.4232982501094
 30
0.0
 10
42.62925271824112
 20
130.3973501465684
 30
0.0
 10
42.62959657657331
 20
130.3962458088545
 30
0.0
  0
LINE
  5
CE
330
1F
100
AcDbEntity
  8
0
  6
Continuous
 62
     8
370
    15
100
AcDbLine
 10
42.6285580609
 20
91.0047258827
 30
0.0
 11
54.7813358387
 21
91.0047258827
 31
0.0
  0
LINE
  5
CF
330
1F
100
AcDbEntity
  8
0
  6
Continuous
 62
     8
370
    15
100
AcDbLine
 10
65.4757802831
 20
91.0047258827
 30
0.0
 11
77.6285580609
 21
91.0047258827
 31
0.0
  0
LINE
  5
D0
330
1F
100
AcDbEntity
  8
0
  6
Continuous
 62
     7
370
    15
100
AcDbLine
 10
102.7105313235
 20
115.0047258827
 30
0.0
 11
102.7105313235
 21
111.0047258827
 31
0.0
  0
SPLINE
  5
D1
330
1F
100
AcDbEntity
  8
0
  6
Continuous
 62
     7
370
    15
100
AcDbSpline
210
0.0
220
0.0
230
1.0
 70
     8
 71
     3
 72
    67
 73
    63
 74
     0
 42
0.000000001
 43
0.00000001
 40
0.0
 40
0.0
 40
0.0
 40
0.0
 40
0.0012870057473766
 40
0.0176821677798382
 40
0.0342021662261537
 40
0.0508967995933524
 40
0.0682336886865858
 40
0.0859629612239128
 40
0.1041117768658864
 40
0.1226954871736155
 40
0.141720074121591
 40
0.1611802726344329
 40
0.1810576063960136
 40
0.2013599846882974
 40
0.2223052771838677
 40
0.2434954032259967
 40
0.2650531959918368
 40
0.2869210675253838
 40
0.3090273654847573
 40
0.3312866819274516
 40
0.3536399593111185
 40
0.3723576481121447
 40
0.3897803555539333
 40
0.4061457335476907
 40
0.4210014128792644
 40
0.4342933592933155
 40
0.4465167938727994
 40
0.4578827774588577
 40
0.4685703817771929
 40
0.4787309600226595
 40
0.48849758996451
 40
0.4989795791918652
 40
0.5090328072744171
 40
0.5188679536277172
 40
0.529019199020362
 40
0.5396017967533444
 40
0.550741748276205
 40
0.562574820354495
 40
0.5752516598616237
 40
0.5889515248733946
 40
0.604195438778089
 40
0.6210996907888063
 40
0.639096563627255
 40
0.6583893780245184
 40
0.6791753239269743
 40
0.7013986511619673
 40
0.7236653463195798
 40
0.7458422699301288
 40
0.767803984296794
 40
0.7894430674899353
 40
0.810671062415794
 40
0.8314931317592142
 40
0.852090747085585
 40
0.8721895516329797
 40
0.8918175567688664
 40
0.9109605047662337
 40
0.9296198091819214
 40
0.9478103004346318
 40
0.965557682355466
 40
0.9828933814836794
 40
0.999710879418435
 40
1.0
 40
1.0
 40
1.0
 40
1.0
 10
136.4588009576417
 20
119.1641479888833
 30
0.0
 10
136.4522166583787
 20
119.1704185745592
 30
0.0
 10
136.3617549922067
 20
119.2565701307779
 30
0.0
 10
136.1603355711366
 20
119.4480458575129
 30
0.0
 10
135.852088932447
 20
119.7407501255441
 30
0.0
 10
135.5093991830027
 20
120.0656234470019
 30
0.0
 10
135.1345745239539
 20
120.420135060935
 30
0.0
 10
134.724625836699
 20
120.8066884188043
 30
0.0
 10
134.2816001910909
 20
121.2228820053232
 30
0.0
 10
133.8052840475088
 20
121.6683974796231
 30
0.0
 10
133.2958077425027
 20
122.1424992003141
 30
0.0
 10
132.7536590572452
 20
122.6441415752779
 30
0.0
 10
132.1789843387676
 20
123.1721338488087
 30
0.0
 10
131.5709566964444
 20
123.7275086633027
 30
0.0
 10
130.9308651378864
 20
124.3080010593474
 30
0.0
 10
130.2583148432785
 20
124.9101129333856
 30
0.0
 10
129.5561569188794
 20
125.5279214658357
 30
0.0
 10
128.8236783298655
 20
126.158213513578
 30
0.0
 10
128.0626091860363
 20
126.7957175053007
 30
0.0
 10
127.274541671487
 20
127.4345663757484
 30
0.0
 10
126.5068389765707
 20
128.0356069803736
 30
0.0
 10
125.77685111428
 20
128.5789269221811
 30
0.0
 10
125.1008310908718
 20
129.049097204084
 30
0.0
 10
124.4540253276847
 20
129.4631208431837
 30
0.0
 10
123.8439621808797
 20
129.81949067124
 30
0.0
 10
123.2730537663268
 20
130.1170596996672
 30
0.0
 10
122.7349318721778
 20
130.3597494966555
 30
0.0
 10
122.2200938742872
 20
130.5540185436989
 30
0.0
 10
121.7236920104665
 20
130.7033800280656
 30
0.0
 10
121.2419155078184
 20
130.8105228187198
 30
0.0
 10
120.75597306264
 20
130.879566544899
 30
0.0
 10
120.267119657368
 20
130.906938192436
 30
0.0
 10
119.776745191041
 20
130.8891575738078
 30
0.0
 10
119.2953289434486
 20
130.8303527282744
 30
0.0
 10
118.812265575395
 20
130.7319693439286
 30
0.0
 10
118.31849172223
 20
130.5922983435036
 30
0.0
 10
117.8112577720401
 20
130.4099583142844
 30
0.0
 10
117.2872362494565
 20
130.1830417239525
 30
0.0
 10
116.7422473126422
 20
129.9090806239886
 30
0.0
 10
116.166624787345
 20
129.5829966993302
 30
0.0
 10
115.5505325283602
 20
129.2004599892294
 30
0.0
 10
114.8974812845843
 20
128.7587202843479
 30
0.0
 10
114.2132949433842
 20
128.2614591018879
 30
0.0
 10
113.5010403643194
 20
127.7141369286297
 30
0.0
 10
112.7553558076237
 20
127.1202588363327
 30
0.0
 10
111.9943683044285
 20
126.4932008366566
 30
0.0
 10
111.2384205528297
 20
125.8513259911617
 30
0.0
 10
110.5064536627466
 20
125.2140044330369
 30
0.0
 10
109.8021192241597
 20
124.5882484861488
 30
0.0
 10
109.1282935495862
 20
123.9804143189908
 30
0.0
 10
108.4864202127825
 20
123.3955415205851
 30
0.0
 10
107.874747566205
 20
122.8352279382993
 30
0.0
 10
107.2958589320959
 20
122.30072837203
 30
0.0
 10
106.7507339220507
 20
121.7942667330324
 30
0.0
 10
106.2421201656589
 20
121.3190823042776
 30
0.0
 10
105.7701985341417
 20
120.8760868019428
 30
0.0
 10
105.3351170231092
 20
120.4660376546894
 30
0.0
 10
104.9371552765948
 20
120.0897503924288
 30
0.0
 10
104.5746060192372
 20
119.7460982548844
 30
0.0
 10
104.2528146181932
 20
119.4405385724054
 30
0.0
 10
104.0497205792552
 20
119.2474697139923
 30
0.0
 10
103.9624978781239
 20
119.1643967582581
 30
0.0
 10
103.9610237189818
 20
119.1629927343564
 30
0.0
  0
ARC
  5
D2
330
1F
100
AcDbEntity
  8
0
  6
Continuous
 62
     7
370
    15
100
AcDbCircle
 10
103.2105313235
 20
115.0047258827
 30
0.0
 40
0.5
100
AcDbArc
 50
90.0
 51
180.0
  0
LINE
  5
D3
330
1F
100
AcDbEntity
  8
0
  6
Continuous
 62
     7
370
    15
100
AcDbLine
 10
103.8045576029
 20
118.7995620104
 30
0.0
 11
103.8045576029
 21
115.1784745265
 31
0.0
  0
ARC
  5
D4
330
1F
100
AcDbEntity
  8
0
  6
Continuous
 62
     7
370
    15
100
AcDbCircle
 10
136.1165050441
 20
118.7995620104
 30
0.0
 40
0.5
100
AcDbArc
 50
0.0
 51
46.4038473527
  0
ARC
  5
D5
330
1F
100
AcDbEntity
  8
0
  6
Continuous
 62
     7
370
    15
100
AcDbCircle
 10
104.3045576029
 20
118.7995620104
 30
0.0
 40
0.5
100
AcDbArc
 50
133.5961526473
 51
180.0
  0
LINE
  5
D6
330
1F
100
AcDbEntity
  8
0
  6
Continuous
 62
     7
370
    15
100
AcDbLine
 10
136.6165050441
 20
115.5047258827
 30
0.0
 11
136.6165050441
 21
118.7995620104
 31
0.0
  0
LINE
  5
D7
330
1F
100
AcDbEntity
  8
0
  6
Continuous
 62
     7
370
    15
100
AcDbLine
 10
103.0713948225
 20
90.5047258827
 30
0.0
 11
137.3496678245
 21
90.5047258827
 31
0.0
  0
SPLINE
  5
D8
330
1F
100
AcDbEntity
  8
0
  6
Continuous
 62
     7
370
    15
100
AcDbSpline
210
0.0
220
0.0
230
1.0
 70
     8
 71
     3
 72
    12
 73
     8
 74
     0
 42
0.000000001
 43
0.00000001
 40
0.0
 40
0.0
 40
0.0
 40
0.0
 40
0.1031110194051173
 40
0.3053082623012527
 40
0.5246483496456207
 40
0.7591219966435608
 40
1.0
 40
1.0
 40
1.0
 40
1.0
 10
137.9184718166653
 20
90.00472588266403
 30
0.0
 10
137.9167170841301
 20
90.03403608404356
 30
0.0
 10
137.91152138008
 20
90.12082260504312
 30
0.0
 10
137.8511441965955
 20
90.26175499742256
 30
0.0
 10
137.7223539706067
 20
90.39656853194239
 30
0.0
 10
137.5470698589281
 20
90.48760988550757
 30
0.0
 10
137.4160568767588
 20
90.49896953454407
 30
0.0
 10
137.3496678244958
 20
90.50472588266383
 30
0.0
  0
LINE
  5
D9
330
1F
100
AcDbEntity
  8
0
  6
Continuous
 62
     7
370
    15
100
AcDbLine
 10
137.9184718167
 20
90.0047258827
 30
0.0
 11
102.5025908303
 21
90.0047258827
 31
0.0
  0
SPLINE
  5
DA
330
1F
100
AcDbEntity
  8
0
  6
Continuous
 62
     7
370
    15
100
AcDbSpline
210
0.0
220
0.0
230
1.0
 70
     8
 71
     3
 72
    12
 73
     8
 74
     0
 42
0.000000001
 43
0.00000001
 40
0.0
 40
0.0
 40
0.0
 40
0.0
 40
0.1913187904457576
 40
0.3871593850822248
 40
0.593874435102082
 40
0.8166932164673646
 40
0.9999999999999999
 40
0.9999999999999999
 40
0.9999999999999999
 40
0.9999999999999999
 10
102.5025908303219
 20
90.00472588266383
 30
0.0
 10
102.5085665786528
 20
90.0593582329608
 30
0.0
 10
102.5206593116449
 20
90.1699141647503
 30
0.0
 10
102.6132506602482
 20
90.3159063086203
 30
0.0
 10
102.7491114039279
 20
90.42806115656452
 30
0.0
 10
102.9092689767737
 20
90.4938743892575
 30
0.0
 10
103.0209755209626
 20
90.5013511911354
 30
0.0
 10
103.0713948224905
 20
90.50472588266383
 30
0.0
  0
LINE
  5
DB
330
1F
100
AcDbEntity
  8
0
  6
Continuous
 62
     7
370
    15
100
AcDbLine
 10
137.4398788304
 20
85.5047258827
 30
0.0
 11
102.9811838166
 21
85.5047258827
 31
0.0
  0
ARC
  5
DC
330
1F
100
AcDbEntity
  8
0
  6
Continuous
 62
     7
370
    15
100
AcDbCircle
 10
102.9921267024
 20
85.9942515059
 30
0.0
 40
0.4896479169617278
100
AcDbArc
 50
178.7742552574
 51
268.7194199136
  0
LINE
  5
DD
330
1F
100
AcDbEntity
  8
0
  6
Continuous
 62
     7
370
    15
100
AcDbLine
 10
102.5025908303
 20
86.0047258827
 30
0.0
 11
137.9184718167
 21
86.0047258827
 31
0.0
  0
ARC
  5
DE
330
1F
100
AcDbEntity
  8
0
  6
Continuous
 62
     7
370
    15
100
AcDbCircle
 10
137.4289359446
 20
85.9942515059
 30
0.0
 40
0.4896479169616706
100
AcDbArc
 50
271.2805800864
 51
1.2257447426
  0
LINE
  5
DF
330
1F
100
AcDbEntity
  8
0
  6
Continuous
 62
     7
370
    15
100
AcDbLine
 10
102.5025908303
 20
90.0047258827
 30
0.0
 11
102.5025908303
 21
86.0047258827
 31
0.0
  0
LINE
  5
E0
330
1F
100
AcDbEntity
  8
0
  6
Continuous
 62
     7
370
    15
100
AcDbLine
 10
137.9184718167
 20
86.0047258827
 30
0.0
 11
137.9184718167
 21
90.0047258827
 31
0.0
  0
ARC
  5
E1
330
1F
100
AcDbEntity
  8
0
  6
Continuous
 62
     7
370
    15
100
AcDbCircle
 10
103.0591381114
 20
90.993055358
 30
0.0
 40
0.4884832683132733
100
AcDbArc
 50
271.4377801046
 51
1.3690037752
  0
LINE
  5
E2
330
1F
100
AcDbEntity
  8
0
  6
Continuous
 62
     7
370
    15
100
AcDbLine
 10
103.5474819475
 20
91.0047258827
 30
0.0
 11
136.8735806995
 21
91.0047258827
 31
0.0
  0
ARC
  5
E3
330
1F
100
AcDbEntity
  8
0
  6
Continuous
 62
     7
370
    15
100
AcDbCircle
 10
137.3619245356
 20
90.993055358
 30
0.0
 40
0.4884832683132062
100
AcDbArc
 50
178.6309962248
 51
268.5622198954
  0
LINE
  5
E4
330
1F
100
AcDbEntity
  8
0
  6
Continuous
 62
     7
370
    15
100
AcDbLine
 10
103.8367348464
 20
118.7995620104
 30
0.0
 11
103.8367348464
 21
115.0047258827
 31
0.0
  0
SPLINE
  5
E5
330
1F
100
AcDbEntity
  8
0
  6
Continuous
 62
     7
370
    15
100
AcDbSpline
210
0.0
220
0.0
230
1.0
 70
     8
 71
     3
 72
    42
 73
    38
 74
     0
 42
0.000000001
 43
0.00000001
 40
0.0
 40
0.0
 40
0.0
 40
0.0
 40
0.0313827020896063
 40
0.0630587886221476
 40
0.0955563170282495
 40
0.1282933513293592
 40
0.1678184080129478
 40
0.2076543795598551
 40
0.248347654457943
 40
0.2892925274918137
 40
0.3199913492107522
 40
0.3507894455388733
 40
0.3819337623820072
 40
0.4132454265133172
 40
0.4370033687427207
 40
0.4610429706543866
 40
0.4798513127010698
 40
0.4991290805569233
 40
0.5179712373703627
 40
0.5373565805136903
 40
0.560381078959194
 40
0.5799323951210336
 40
0.5994932779051242
 40
0.6351760974456235
 40
0.6710910466451646
 40
0.7075582985285019
 40
0.7441901519144396
 40
0.7861769980227878
 40
0.82845929454073
 40
0.8501237853735144
 40
0.8718406479000935
 40
0.8937319086358344
 40
0.9156892473942002
 40
0.9366088545585824
 40
0.957527258326439
 40
0.9787643628578546
 40
1.0
 40
1.0
 40
1.0
 40
1.0
 10
136.5843278005679
 20
118.7995620103757
 30
0.0
 10
136.4034694676645
 20
118.966715581433
 30
0.0
 10
136.0400620289888
 20
119.30258537603
 30
0.0
 10
135.3692515356983
 20
119.9198130543868
 30
0.0
 10
134.612979701491
 20
120.612262551696
 30
0.0
 10
133.7134391088493
 20
121.4305233949625
 30
0.0
 10
132.6689609278638
 20
122.3719359181819
 30
0.0
 10
131.4673550900291
 20
123.4401129969505
 30
0.0
 10
130.1769935255455
 20
124.5649771325501
 30
0.0
 10
128.9196958467977
 20
125.630076631592
 30
0.0
 10
127.7228137763098
 20
126.605562053919
 30
0.0
 10
126.5985569417501
 20
127.4794221413512
 30
0.0
 10
125.4182393423724
 20
128.3335301036515
 30
0.0
 10
124.2700667782505
 20
129.0739931719779
 30
0.0
 10
123.1554809648824
 20
129.6745674262028
 30
0.0
 10
122.1608074174425
 20
130.0847636341402
 30
0.0
 10
121.1840609784145
 20
130.3374251552321
 30
0.0
 10
120.2594647623267
 20
130.426483600343
 30
0.0
 10
119.3241354217063
 20
130.352796138475
 30
0.0
 10
118.3569865101054
 20
130.1167232969127
 30
0.0
 10
117.4269752393907
 20
129.7456239501983
 30
0.0
 10
116.5414753671146
 20
129.2903059421423
 30
0.0
 10
115.5203158021238
 20
128.6789583287465
 30
0.0
 10
114.337427859397
 20
127.8652800509515
 30
0.0
 10
113.0067492006782
 20
126.8530985152391
 30
0.0
 10
111.7238413293221
 20
125.814903205025
 30
0.0
 10
110.4276424149926
 20
124.722447048168
 30
0.0
 10
109.1315671336322
 20
123.5970125346365
 30
0.0
 10
108.0626452498447
 20
122.6486274314642
 30
0.0
 10
107.2456579630367
 20
121.9155297923427
 30
0.0
 10
106.6495524481974
 20
121.3770837945014
 30
0.0
 10
106.0799090794753
 20
120.8596503593301
 30
0.0
 10
105.548973268397
 20
120.3750689520822
 30
0.0
 10
105.059387109146
 20
119.9264677552078
 30
0.0
 10
104.6115556154661
 20
119.5147604092771
 30
0.0
 10
104.197366437471
 20
119.1329498515594
 30
0.0
 10
103.9569426079711
 20
118.9106887311397
 30
0.0
 10
103.8367348464184
 20
118.7995620103757
 30
0.0
  0
LINE
  5
E6
330
1F
100
AcDbEntity
  8
0
  6
Continuous
 62
     7
370
    15
100
AcDbLine
 10
136.5843278006
 20
115.5047258827
 30
0.0
 11
136.5843278006
 21
118.7995620104
 31
0.0
  0
LINE
  5
E7
330
1F
100
AcDbEntity
  8
0
  6
Continuous
 62
     7
370
    15
100
AcDbLine
 10
136.9148191852
 20
115.5047258827
 30
0.0
 11
136.5843278006
 21
115.5047258827
 31
0.0
  0
SPLINE
  5
E8
330
1F
100
AcDbEntity
  8
0
  6
Continuous
 62
     7
370
    15
100
AcDbSpline
210
0.0
220
0.0
230
1.0
 70
     8
 71
     3
 72
    11
 73
     7
 74
     0
 42
0.000000001
 43
0.00000001
 40
0.0
 40
0.0
 40
0.0
 40
0.0
 40
0.306142663151276
 40
0.6208716915837602
 40
0.809484288040805
 40
1.0
 40
1.0
 40
1.0
 40
1.0
 10
136.8735806994679
 20
115.0047258826638
 30
0.0
 10
136.8743523041844
 20
115.0582679274714
 30
0.0
 10
136.8759171547696
 20
115.1668537076707
 30
0.0
 10
136.8870405461348
 20
115.3044841747609
 30
0.0
 10
136.9004645956129
 20
115.4174524939569
 30
0.0
 10
136.9100183362984
 20
115.4755375629591
 30
0.0
 10
136.9148191851618
 20
115.5047258826638
 30
0.0
  0
LINE
  5
E9
330
1F
100
AcDbEntity
  8
0
  6
Continuous
 62
     7
370
    15
100
AcDbLine
 10
136.8735806995
 20
91.0047258827
 30
0.0
 11
136.8735806995
 21
115.0047258827
 31
0.0
  0
LINE
  5
EA
330
1F
100
AcDbEntity
  8
0
  6
Continuous
 62
     7
370
    15
100
AcDbLine
 10
103.5474819475
 20
105.5047258827
 30
0.0
 11
103.5474819475
 21
91.0047258827
 31
0.0
  0
SPLINE
  5
EB
330
1F
100
AcDbEntity
  8
0
  6
Continuous
 62
     7
370
    15
100
AcDbSpline
210
0.0
220
0.0
230
1.0
 70
     8
 71
     3
 72
    17
 73
    13
 74
     0
 42
0.000000001
 43
0.00000001
 40
0.0
 40
0.0
 40
0.0
 40
0.0
 40
0.1011160328152984
 40
0.2054021640094991
 40
0.3070812382701797
 40
0.4116592151343533
 40
0.5170091205056114
 40
0.6252740709111418
 40
0.7338970875623307
 40
0.845736451231425
 40
0.9222920353413677
 40
1.0
 40
1.0
 40
1.0
 40
1.0
 10
102.7105313234931
 20
111.0047258826638
 30
0.0
 10
102.7147088491117
 20
110.9907455100356
 30
0.0
 10
102.7231948703526
 20
110.9623464647848
 30
0.0
 10
102.789729152608
 20
110.7344666198843
 30
0.0
 10
102.8889950086476
 20
110.3759904916524
 30
0.0
 10
103.0141350252571
 20
109.8865914870193
 30
0.0
 10
103.153729924974
 20
109.2716804848423
 30
0.0
 10
103.2924999889833
 20
108.5465238507402
 30
0.0
 10
103.4158266953981
 20
107.7208741483182
 30
0.0
 10
103.4965772625842
 20
106.9153231071217
 30
0.0
 10
103.5402100519027
 20
106.1671279659974
 30
0.0
 10
103.5450459406175
 20
105.7266234636254
 30
0.0
 10
103.5474819475184
 20
105.5047258826638
 30
0.0
  0
SPLINE
  5
EC
330
1F
100
AcDbEntity
  8
0
  6
Continuous
 62
     7
370
    15
100
AcDbSpline
210
0.0
220
0.0
230
1.0
 70
     8
 71
     3
 72
    10
 73
     6
 74
     0
 42
0.000000001
 43
0.00000001
 40
0.0
 40
0.0
 40
0.0
 40
0.0
 40
0.0181664501550487
 40
0.9819171351060338
 40
1.0
 40
1.0
 40
1.0
 40
1.0
 10
103.8367348464184
 20
115.0047258826638
 30
0.0
 10
103.8363581759618
 20
115.0057872262799
 30
0.0
 10
103.8159987126387
 20
115.0631540466502
 30
0.0
 10
103.7929268467884
 20
115.1247904226222
 30
0.0
 10
103.8050030106916
 20
115.177503682922
 30
0.0
 10
103.8052254227699
 20
115.1784745264669
 30
0.0
  0
LINE
  5
ED
330
1F
100
AcDbEntity
  8
0
  6
Continuous
 62
     7
370
    15
100
AcDbLine
 10
103.2105313235
 20
115.5047258827
 30
0.0
 11
103.8045576029
 21
115.5047258827
 31
0.0
  0
SPLINE
  5
EE
330
1F
100
AcDbEntity
  8
0
  6
Continuous
 62
     7
370
    15
100
AcDbSpline
210
0.0
220
0.0
230
1.0
 70
     8
 71
     3
 72
    17
 73
    13
 74
     0
 42
0.000000001
 43
0.00000001
 40
0.0
 40
0.0
 40
0.0
 40
0.0
 40
0.0753969313878999
 40
0.1520210222322129
 40
0.2595616387857665
 40
0.3704797670381796
 40
0.4758664829107491
 40
0.5841586055545274
 40
0.6867251013345622
 40
0.7920859580121644
 40
0.8945081105937216
 40
1.0
 40
1.0
 40
1.0
 40
1.0
 10
103.0713948224905
 20
105.5047258826638
 30
0.0
 10
103.0689573358327
 20
105.7034849119688
 30
0.0
 10
103.0640426900164
 20
106.1042379699066
 30
0.0
 10
103.019790448489
 20
106.7773937809531
 30
0.0
 10
102.9368322704309
 20
107.5137015563698
 30
0.0
 10
102.8111650289432
 20
108.2594230729936
 30
0.0
 10
102.6673231730885
 20
108.9254500955646
 30
0.0
 10
102.5248406541643
 20
109.4807345972703
 30
0.0
 10
102.3949830939711
 20
109.9302885540219
 30
0.0
 10
102.2935065641232
 20
110.254292296647
 30
0.0
 10
102.2240313977331
 20
110.4648166130143
 30
0.0
 10
102.2150754249158
 20
110.4912924921679
 30
0.0
 10
102.2105313234931
 20
110.5047258826638
 30
0.0
  0
ARC
  5
EF
330
1F
100
AcDbEntity
  8
0
  6
Continuous
 62
     7
370
    15
100
AcDbCircle
 10
102.2105313235
 20
111.0047258827
 30
0.0
 40
0.5
100
AcDbArc
 50
270.0
 51
0.0
  0
LINE
  5
F0
330
1F
100
AcDbEntity
  8
0
  6
Continuous
 62
     7
370
    15
100
AcDbLine
 10
103.0713948225
 20
105.5047258827
 30
0.0
 11
103.5474819475
 21
105.5047258827
 31
0.0
  0
LINE
  5
F1
330
1F
100
AcDbEntity
  8
0
  6
Continuous
 62
     7
370
    15
100
AcDbLine
 10
137.9184718167
 20
90.0047258827
 30
0.0
 11
138.397064803
 21
90.0047258827
 31
0.0
  0
LINE
  5
F2
330
1F
100
AcDbEntity
  8
0
  6
Continuous
 62
     7
370
    15
100
AcDbLine
 10
137.3496678245
 20
90.5047258827
 30
0.0
 11
137.3496678245
 21
91.0047258827
 31
0.0
  0
SPLINE
  5
F3
330
1F
100
AcDbEntity
  8
0
  6
Continuous
 62
     7
370
    15
100
AcDbSpline
210
0.0
220
0.0
230
1.0
 70
     8
 71
     3
 72
    12
 73
     8
 74
     0
 42
0.000000001
 43
0.00000001
 40
0.0
 40
0.0
 40
0.0
 40
0.0
 40
0.1096161191042634
 40
0.3216905929742487
 40
0.5437952086216788
 40
0.772001274410082
 40
0.9999999999999999
 40
0.9999999999999999
 40
0.9999999999999999
 40
0.9999999999999999
 10
138.3970648029664
 20
90.00472588266383
 30
0.0
 10
138.3938269617596
 20
90.06326631237383
 30
0.0
 10
138.3843248642007
 20
90.23506500129164
 30
0.0
 10
138.275572232064
 20
90.51311689069169
 30
0.0
 10
138.0401108964024
 20
90.78365838540115
 30
0.0
 10
137.7164767124366
 20
90.96930532011721
 30
0.0
 10
137.4719004013702
 20
90.99292260641631
 30
0.0
 10
137.3496678244958
 20
91.00472588266383
 30
0.0
  0
SPLINE
  5
F4
330
1F
100
AcDbEntity
  8
0
  6
Continuous
 62
     7
370
    15
100
AcDbSpline
210
0.0
220
0.0
230
1.0
 70
     8
 71
     3
 72
    12
 73
     8
 74
     0
 42
0.000000001
 43
0.00000001
 40
0.0
 40
0.0
 40
0.0
 40
0.0
 40
0.1731326304283476
 40
0.3879763186902682
 40
0.5943641912847555
 40
0.7971178694122729
 40
1.0
 40
1.0
 40
1.0
 40
1.0
 10
103.0713948224905
 20
91.00472588266383
 30
0.0
 10
102.9787615428091
 20
90.99787323638361
 30
0.0
 10
102.7711778033945
 20
90.9825170064776
 30
0.0
 10
102.4746250311649
 20
90.84810352102318
 30
0.0
 10
102.2248985328561
 20
90.62222158435016
 30
0.0
 10
102.0565473432939
 20
90.33109401473196
 30
0.0
 10
102.0348499674098
 20
90.11353822444256
 30
0.0
 10
102.0239978440199
 20
90.00472588266383
 30
0.0
  0
LINE
  5
F5
330
1F
100
AcDbEntity
  8
0
  6
Continuous
 62
     7
370
    15
100
AcDbLine
 10
103.0713948225
 20
91.0047258827
 30
0.0
 11
103.0713948225
 21
90.5047258827
 31
0.0
  0
LINE
  5
F6
330
1F
100
AcDbEntity
  8
0
  6
Continuous
 62
     7
370
    15
100
AcDbLine
 10
102.023997844
 20
90.0047258827
 30
0.0
 11
102.5025908303
 21
90.0047258827
 31
0.0
  0
LINE
  5
F7
330
1F
100
AcDbEntity
  8
0
  6
Continuous
 62
     7
370
    15
100
AcDbLine
 10
103.0713948225
 20
91.0047258827
 30
0.0
 11
103.5474819475
 21
91.0047258827
 31
0.0
  0
LINE
  5
F8
330
1F
100
AcDbEntity
  8
0
  6
Continuous
 62
     7
370
    15
100
AcDbLine
 10
137.3496678245
 20
91.0047258827
 30
0.0
 11
136.8735806995
 21
91.0047258827
 31
0.0
  0
SPLINE
  5
F9
330
1F
100
AcDbEntity
  8
0
  6
Continuous
 62
     7
370
    15
100
AcDbSpline
210
0.0
220
0.0
230
1.0
 70
     8
 71
     3
 72
    12
 73
     8
 74
     0
 42
0.000000001
 43
0.00000001
 40
0.0
 40
0.0
 40
0.0
 40
0.0
 40
0.1745078182289719
 40
0.3984022040859603
 40
0.6082103627114439
 40
0.8066170919543133
 40
1.0
 40
1.0
 40
1.0
 40
1.0
 10
137.6389563814265
 20
115.5047258826638
 30
0.0
 10
137.6161151490163
 20
115.501375652002
 30
0.0
 10
137.5639685035043
 20
115.4937270589852
 30
0.0
 10
137.4837017826211
 20
115.4275401805418
 30
0.0
 10
137.4115853555655
 20
115.3153691105255
 30
0.0
 10
137.3600280468038
 20
115.1698955000773
 30
0.0
 10
137.3530915837509
 20
115.0593097506031
 30
0.0
 10
137.3496678244958
 20
115.0047258826638
 30
0.0
  0
LINE
  5
FA
330
1F
100
AcDbEntity
  8
0
  6
Continuous
 62
     7
370
    15
100
AcDbLine
 10
137.3496678245
 20
115.0047258827
 30
0.0
 11
136.8735806995
 21
115.0047258827
 31
0.0
  0
SPLINE
  5
FB
330
1F
100
AcDbEntity
  8
0
  6
Continuous
 62
     7
370
    15
100
AcDbSpline
210
0.0
220
0.0
230
1.0
 70
    24
 71
     3
 72
    11
 73
     7
 74
     0
 42
0.000000001
 43
0.00000001
 40
0.0
 40
0.0
 40
0.0
 40
0.0
 40
0.2440955486902936
 40
0.6150436422341996
 40
0.9954186510554908
 40
1.0
 40
1.0
 40
1.0
 40
1.0
 10
136.9148191851618
 20
115.5047258826638
 30
0.0
 10
136.9491614301898
 20
115.5047258826638
 30
0.0
 10
137.0356930346285
 20
115.5047258826638
 30
0.0
 10
137.3042979759238
 20
115.5047258826638
 30
0.0
 10
137.5249066914437
 20
115.5047258826639
 30
0.0
 10
137.6376150442008
 20
115.5047258826638
 30
0.0
 10
137.6389563814265
 20
115.5047258826638
 30
0.0
  0
LINE
  5
FC
330
1F
100
AcDbEntity
  8
0
  6
Continuous
 62
     7
370
    15
100
AcDbLine
 10
102.023997844
 20
86.0047258827
 30
0.0
 11
102.023997844
 21
90.0047258827
 31
0.0
  0
LINE
  5
FD
330
1F
100
AcDbEntity
  8
0
  6
Continuous
 62
     7
370
    15
100
AcDbLine
 10
102.023997844
 20
86.0047258827
 30
0.0
 11
102.5025908303
 21
86.0047258827
 31
0.0
  0
LINE
  5
FE
330
1F
100
AcDbEntity
  8
0
  6
Continuous
 62
     7
370
    15
100
AcDbLine
 10
102.023997844
 20
86.0047258827
 30
0.0
 11
102.023997844
 21
85.5047258827
 31
0.0
  0
LINE
  5
FF
330
1F
100
AcDbEntity
  8
0
  6
Continuous
 62
     7
370
    15
100
AcDbLine
 10
102.023997844
 20
85.5047258827
 30
0.0
 11
102.9811838166
 21
85.5047258827
 31
0.0
  0
LINE
  5
100
330
1F
100
AcDbEntity
  8
0
  6
Continuous
 62
     7
370
    15
100
AcDbLine
 10
138.397064803
 20
90.0047258827
 30
0.0
 11
138.397064803
 21
86.0047258827
 31
0.0
  0
LINE
  5
101
330
1F
100
AcDbEntity
  8
0
  6
Continuous
 62
     7
370
    15
100
AcDbLine
 10
137.9184718167
 20
86.0047258827
 30
0.0
 11
138.397064803
 21
86.0047258827
 31
0.0
  0
LINE
  5
102
330
1F
100
AcDbEntity
  8
0
  6
Continuous
 62
     7
370
    15
100
AcDbLine
 10
138.397064803
 20
85.5047258827
 30
0.0
 11
138.397064803
 21
86.0047258827
 31
0.0
  0
LINE
  5
103
330
1F
100
AcDbEntity
  8
0
  6
Continuous
 62
     7
370
    15
100
AcDbLine
 10
137.4398788304
 20
85.5047258827
 30
0.0
 11
138.397064803
 21
85.5047258827
 31
0.0
  0
LINE
  5
104
330
1F
100
AcDbEntity
  8
0
  6
Continuous
 62
     7
370
    15
100
AcDbLine
 10
103.0713948225
 20
91.0047258827
 30
0.0
 11
103.0713948225
 21
105.5047258827
 31
0.0
  0
LINE
  5
105
330
1F
100
AcDbEntity
  8
0
  6
Continuous
 62
     7
370
    15
100
AcDbLine
 10
137.3496678245
 20
115.0047258827
 30
0.0
 11
137.3496678245
 21
91.0047258827
 31
0.0
  0
LINE
  5
106
330
1F
100
AcDbEntity
  8
0
  6
Continuous
 62
     7
370
    15
100
AcDbLine
 10
100.7105313235
 20
86.0047258827
 30
0.0
 11
100.7105313235
 21
85.5047258827
 31
0.0
  0
ARC
  5
107
330
1F
100
AcDbEntity
  8
0
  6
Continuous
 62
     7
370
    15
100
AcDbCircle
 10
100.7105313235
 20
86.0047258827
 30
0.0
 40
0.5
100
AcDbArc
 50
180.0
 51
270.0
  0
LINE
  5
108
330
1F
100
AcDbEntity
  8
0
  6
Continuous
 62
     7
370
    15
100
AcDbLine
 10
100.2105313235
 20
86.0047258827
 30
0.0
 11
100.7105313235
 21
86.0047258827
 31
0.0
  0
LINE
  5
109
330
1F
100
AcDbEntity
  8
0
  6
Continuous
 62
     7
370
    15
100
AcDbLine
 10
140.2105313235
 20
115.0047258827
 30
0.0
 11
139.7105313235
 21
115.0047258827
 31
0.0
  0
LINE
  5
10A
330
1F
100
AcDbEntity
  8
0
  6
Continuous
 62
     7
370
    15
100
AcDbLine
 10
140.2105313235
 20
115.0047258827
 30
0.0
 11
140.2105313235
 21
86.0047258827
 31
0.0
  0
LINE
  5
10B
330
1F
100
AcDbEntity
  8
0
  6
Continuous
 62
     7
370
    15
100
AcDbLine
 10
139.7105313235
 20
86.0047258827
 30
0.0
 11
140.2105313235
 21
86.0047258827
 31
0.0
  0
LINE
  5
10C
330
1F
100
AcDbEntity
  8
0
  6
Continuous
 62
     7
370
    15
100
AcDbLine
 10
139.7105313235
 20
86.0047258827
 30
0.0
 11
139.7105313235
 21
115.0047258827
 31
0.0
  0
LINE
  5
10D
330
1F
100
AcDbEntity
  8
0
  6
Continuous
 62
     7
370
    15
100
AcDbLine
 10
100.7105313235
 20
86.0047258827
 30
0.0
 11
102.023997844
 21
86.0047258827
 31
0.0
  0
LINE
  5
10E
330
1F
100
AcDbEntity
  8
0
  6
Continuous
 62
     7
370
    15
100
AcDbLine
 10
100.7105313235
 20
105.5047258827
 30
0.0
 11
100.7105313235
 21
86.0047258827
 31
0.0
  0
LINE
  5
10F
330
1F
100
AcDbEntity
  8
0
  6
Continuous
 62
     7
370
    15
100
AcDbLine
 10
103.0713948225
 20
105.5047258827
 30
0.0
 11
100.7105313235
 21
105.5047258827
 31
0.0
  0
LINE
  5
110
330
1F
100
AcDbEntity
  8
0
  6
Continuous
 62
     7
370
    15
100
AcDbLine
 10
102.023997844
 20
85.5047258827
 30
0.0
 11
100.7105313235
 21
85.5047258827
 31
0.0
  0
LINE
  5
111
330
1F
100
AcDbEntity
  8
0
  6
Continuous
 62
     7
370
    15
100
AcDbLine
 10
100.7105313235
 20
110.5047258827
 30
0.0
 11
100.7105313235
 21
105.5047258827
 31
0.0
  0
LINE
  5
112
330
1F
100
AcDbEntity
  8
0
  6
Continuous
 62
     7
370
    15
100
AcDbLine
 10
102.2105313235
 20
110.5047258827
 30
0.0
 11
100.7105313235
 21
110.5047258827
 31
0.0
  0
LINE
  5
113
330
1F
100
AcDbEntity
  8
0
  6
Continuous
 62
     7
370
    15
100
AcDbLine
 10
100.2105313235
 20
105.5047258827
 30
0.0
 11
100.2105313235
 21
110.0047258827
 31
0.0
  0
ARC
  5
114
330
1F
100
AcDbEntity
  8
0
  6
Continuous
 62
     7
370
    15
100
AcDbCircle
 10
100.7105313235
 20
110.0047258827
 30
0.0
 40
0.5
100
AcDbArc
 50
90.0
 51
180.0
  0
LINE
  5
115
330
1F
100
AcDbEntity
  8
0
  6
Continuous
 62
     7
370
    15
100
AcDbLine
 10
100.2105313235
 20
105.5047258827
 30
0.0
 11
100.7105313235
 21
105.5047258827
 31
0.0
  0
LINE
  5
116
330
1F
100
AcDbEntity
  8
0
  6
Continuous
 62
     7
370
    15
100
AcDbLine
 10
139.7105313235
 20
115.5047258827
 30
0.0
 11
139.7105313235
 21
115.0047258827
 31
0.0
  0
LINE
  5
117
330
1F
100
AcDbEntity
  8
0
  6
Continuous
 62
     7
370
    15
100
AcDbLine
 10
139.7105313235
 20
115.0047258827
 30
0.0
 11
137.3496678245
 21
115.0047258827
 31
0.0
  0
LINE
  5
118
330
1F
100
AcDbEntity
  8
0
  6
Continuous
 62
     7
370
    15
100
AcDbLine
 10
137.6389563814
 20
115.5047258827
 30
0.0
 11
139.7105313235
 21
115.5047258827
 31
0.0
  0
LINE
  5
119
330
1F
100
AcDbEntity
  8
0
  6
Continuous
 62
     7
370
    15
100
AcDbLine
 10
100.2105313235
 20
86.0047258827
 30
0.0
 11
100.2105313235
 21
105.5047258827
 31
0.0
  0
LINE
  5
11A
330
1F
100
AcDbEntity
  8
0
  6
Continuous
 62
     7
370
    15
100
AcDbLine
 10
138.397064803
 20
86.0047258827
 30
0.0
 11
139.7105313235
 21
86.0047258827
 31
0.0
  0
LINE
  5
11B
330
1F
100
AcDbEntity
  8
0
  6
Continuous
 62
     7
370
    15
100
AcDbLine
 10
139.7105313235
 20
85.5047258827
 30
0.0
 11
139.7105313235
 21
86.0047258827
 31
0.0
  0
ARC
  5
11C
330
1F
100
AcDbEntity
  8
0
  6
Continuous
 62
     7
370
    15
100
AcDbCircle
 10
139.7105313235
 20
86.0047258827
 30
0.0
 40
0.5
100
AcDbArc
 50
270.0
 51
0.0
  0
ARC
  5
11D
330
1F
100
AcDbEntity
  8
0
  6
Continuous
 62
     7
370
    15
100
AcDbCircle
 10
139.7105313235
 20
115.0047258827
 30
0.0
 40
0.5
100
AcDbArc
 50
0.0
 51
90.0
  0
LINE
  5
11E
330
1F
100
AcDbEntity
  8
0
  6
Continuous
 62
     7
370
    15
100
AcDbLine
 10
139.7105313235
 20
85.5047258827
 30
0.0
 11
138.397064803
 21
85.5047258827
 31
0.0
  0
LINE
  5
11F
330
1F
100
AcDbEntity
  8
0
  6
Continuous
 62
     8
370
    15
100
AcDbLine
 10
103.8367348464
 20
115.0047258827
 30
0.0
 11
102.7105313235
 21
115.0047258827
 31
0.0
  0
ARC
  5
120
330
1F
100
AcDbEntity
  8
0
  6
Continuous
 62
     8
370
    15
100
AcDbCircle
 10
104.2564578656
 20
118.8588734648
 30
0.0
 40
0.4238929834913291
100
AcDbArc
 50
134.1565635456
 51
188.0432645471
  0
ARC
  5
121
330
1F
100
AcDbEntity
  8
0
  6
Continuous
 62
     8
370
    15
100
AcDbCircle
 10
136.1672335089
 20
118.8597551596
 30
0.0
 40
0.4214153098171841
100
AcDbArc
 50
351.7880308281
 51
46.1990843697
  0
LINE
  5
122
330
1F
100
AcDbEntity
  8
0
  6
Continuous
 62
     8
370
    15
100
AcDbLine
 10
103.8367348464
 20
118.7995620104
 30
0.0
 11
103.8045576029
 21
118.7995620104
 31
0.0
  0
LINE
  5
123
330
1F
100
AcDbEntity
  8
0
  6
Continuous
 62
     8
370
    15
100
AcDbLine
 10
136.6165050441
 20
118.7995620104
 30
0.0
 11
136.5843278006
 21
118.7995620104
 31
0.0
  0
ARC
  5
124
330
1F
100
AcDbEntity
  8
0
  6
Continuous
 62
     7
370
    15
100
AcDbCircle
 10
161.547789177
 20
90.0047258827
 30
0.0
 40
0.5
100
AcDbArc
 50
90.0
 51
180.0
  0
ARC
  5
125
330
1F
100
AcDbEntity
  8
0
  6
Continuous
 62
     7
370
    15
100
AcDbCircle
 10
197.547789177
 20
90.0047258827
 30
0.0
 40
0.5
100
AcDbArc
 50
0.0
 51
90.0
  0
ARC
  5
126
330
1F
100
AcDbEntity
  8
0
  6
Continuous
 62
     7
370
    15
100
AcDbCircle
 10
161.547789177
 20
86.0047258827
 30
0.0
 40
0.5
100
AcDbArc
 50
180.0
 51
270.0
  0
LINE
  5
127
330
1F
100
AcDbEntity
  8
0
  6
Continuous
 62
     7
370
    15
100
AcDbLine
 10
161.047789177
 20
90.0047258827
 30
0.0
 11
161.047789177
 21
86.0047258827
 31
0.0
  0
ARC
  5
128
330
1F
100
AcDbEntity
  8
0
  6
Continuous
 62
     7
370
    15
100
AcDbCircle
 10
197.547789177
 20
86.0047258827
 30
0.0
 40
0.5
100
AcDbArc
 50
270.0
 51
0.0
  0
LINE
  5
129
330
1F
100
AcDbEntity
  8
0
  6
Continuous
 62
     7
370
    15
100
AcDbLine
 10
198.047789177
 20
86.0047258827
 30
0.0
 11
198.047789177
 21
90.0047258827
 31
0.0
  0
LINE
  5
12A
330
1F
100
AcDbEntity
  8
0
  6
Continuous
 62
     7
370
    15
100
AcDbLine
 10
197.047789177
 20
91.0047258827
 30
0.0
 11
197.047789177
 21
130.3962458089
 31
0.0
  0
LINE
  5
12B
330
1F
100
AcDbEntity
  8
0
  6
Continuous
 62
     7
370
    15
100
AcDbLine
 10
162.047789177
 20
130.3962458089
 30
0.0
 11
162.047789177
 21
91.0047258827
 31
0.0
  0
SPLINE
  5
12C
330
1F
100
AcDbEntity
  8
0
  6
Continuous
 62
     7
370
    15
100
AcDbSpline
210
0.0
220
0.0
230
1.0
 70
     8
 71
     3
 72
    21
 73
    17
 74
     0
 42
0.000000001
 43
0.00000001
 40
0.0
 40
0.0
 40
0.0
 40
0.0
 40
0.0267098900376045
 40
0.072205503276582
 40
0.1428892467043152
 40
0.2320668649697066
 40
0.3268435466591273
 40
0.4242635990409339
 40
0.5264639131236292
 40
0.6348737069683456
 40
0.7272212651012785
 40
0.8083868204565466
 40
0.8803235192052724
 40
0.943298558706077
 40
0.9967977744781338
 40
0.9999999999999999
 40
0.9999999999999999
 40
0.9999999999999999
 40
0.9999999999999999
 10
163.0084238441966
 20
130.5927292888383
 30
0.0
 10
163.0036362879714
 20
130.6039764148848
 30
0.0
 10
162.9906939693689
 20
130.6343810476055
 30
0.0
 10
162.9567646122946
 20
130.69055811446
 30
0.0
 10
162.8967236152155
 20
130.7634674700729
 30
0.0
 10
162.8035314518397
 20
130.8354381607732
 30
0.0
 10
162.6839235960073
 20
130.8867899323326
 30
0.0
 10
162.5489595456705
 20
130.9059085460443
 30
0.0
 10
162.4074645267656
 20
130.8868467677606
 30
0.0
 10
162.2792141982161
 20
130.8289153913437
 30
0.0
 10
162.1795561919327
 20
130.7448584185668
 30
0.0
 10
162.1128166846098
 20
130.653469936206
 30
0.0
 10
162.0718557770331
 20
130.5626449785443
 30
0.0
 10
162.0525771537438
 20
130.4784503414437
 30
0.0
 10
162.0463907844962
 20
130.4235736010777
 30
0.0
 10
162.0479524398785
 20
130.3976788067057
 30
0.0
 10
162.0480406346863
 20
130.3962163928846
 30
0.0
  0
SPLINE
  5
12D
330
1F
100
AcDbEntity
  8
0
  6
Continuous
 62
     7
370
    15
100
AcDbSpline
210
0.0
220
0.0
230
1.0
 70
     8
 71
     3
 72
    21
 73
    17
 74
     0
 42
0.000000001
 43
0.00000001
 40
0.0
 40
0.0
 40
0.0
 40
0.0
 40
0.0112466480357297
 40
0.0711210679951914
 40
0.1600961419067773
 40
0.2599848409304334
 40
0.3565114901689957
 40
0.4585097980737554
 40
0.5683835510704693
 40
0.6617171421285984
 40
0.7435951393741759
 40
0.8161813732045489
 40
0.8798163013296986
 40
0.9340327669019372
 40
0.9778204221738414
 40
1.0
 40
1.0
 40
1.0
 40
1.0
 10
197.0464277279563
 20
130.39627708954
 30
0.0
 10
197.0469008148515
 20
130.4014045258522
 30
0.0
 10
197.0498925013639
 20
130.4338291865545
 30
0.0
 10
197.0382634457137
 20
130.5071296359711
 30
0.0
 10
197.0050816887619
 20
130.6164999755789
 30
0.0
 10
196.9329473713049
 20
130.7277831169903
 30
0.0
 10
196.8301494939567
 20
130.8198059347708
 30
0.0
 10
196.7017889662258
 20
130.8827878808821
 30
0.0
 10
196.5618696735119
 20
130.9059689307707
 30
0.0
 10
196.4309171510436
 20
130.890732556161
 30
0.0
 10
196.3237832198912
 20
130.8508202347725
 30
0.0
 10
196.2391995672132
 20
130.7966904185626
 30
0.0
 10
196.1754312859878
 20
130.7366338688985
 30
0.0
 10
196.1305780076849
 20
130.6775783517251
 30
0.0
 10
196.1027477100731
 20
130.6299202008848
 30
0.0
 10
196.091013117011
 20
130.6021136065789
 30
0.0
 10
196.0870676988412
 20
130.5927644419478
 30
0.0
  0
ARC
  5
12E
330
1F
100
AcDbEntity
  8
0
  6
Continuous
 62
     7
370
    15
100
AcDbCircle
 10
161.547789177
 20
91.0047258827
 30
0.0
 40
0.5
100
AcDbArc
 50
270.0
 51
0.0
  0
ARC
  5
12F
330
1F
100
AcDbEntity
  8
0
  6
Continuous
 62
     7
370
    15
100
AcDbCircle
 10
197.547789177
 20
91.0047258827
 30
0.0
 40
0.5
100
AcDbArc
 50
180.0
 51
270.0
  0
LINE
  5
130
330
1F
100
AcDbEntity
  8
0
  6
Continuous
 62
     7
370
    15
100
AcDbLine
 10
184.047789177
 20
85.5047258827
 30
0.0
 11
184.047789177
 21
86.0047258827
 31
0.0
  0
LINE
  5
131
330
1F
100
AcDbEntity
  8
0
  6
Continuous
 62
     7
370
    15
100
AcDbLine
 10
184.047789177
 20
85.5047258827
 30
0.0
 11
175.047789177
 21
85.5047258827
 31
0.0
  0
LINE
  5
132
330
1F
100
AcDbEntity
  8
0
  6
Continuous
 62
     7
370
    15
100
AcDbLine
 10
175.047789177
 20
86.0047258827
 30
0.0
 11
175.047789177
 21
85.5047258827
 31
0.0
  0
LINE
  5
133
330
1F
100
AcDbEntity
  8
0
  6
Continuous
 62
     7
370
    15
100
AcDbLine
 10
175.047789177
 20
86.0047258827
 30
0.0
 11
184.047789177
 21
86.0047258827
 31
0.0
  0
LINE
  5
134
330
1F
100
AcDbEntity
  8
0
  6
Continuous
 62
     7
370
    15
100
AcDbLine
 10
174.547789177
 20
86.0047258827
 30
0.0
 11
175.047789177
 21
86.0047258827
 31
0.0
  0
ARC
  5
135
330
1F
100
AcDbEntity
  8
0
  6
Continuous
 62
     7
370
    15
100
AcDbCircle
 10
175.047789177
 20
86.0047258827
 30
0.0
 40
0.5
100
AcDbArc
 50
180.0
 51
270.0
  0
SPLINE
  5
136
330
1F
100
AcDbEntity
  8
0
  6
Continuous
 62
     7
370
    15
100
AcDbSpline
210
0.0
220
0.0
230
1.0
 70
     8
 71
     3
 72
    14
 73
    10
 74
     0
 42
0.000000001
 43
0.00000001
 40
0.0
 40
0.0
 40
0.0
 40
0.0
 40
0.0902906490667195
 40
0.1854509881214071
 40
0.2910422537817587
 40
0.4092936233566214
 40
0.5867091492000752
 40
0.7847111917785599
 40
1.0
 40
1.0
 40
1.0
 40
1.0
 10
179.5477891770011
 20
101.1096907626638
 30
0.0
 10
179.4207083522107
 20
101.1239064730635
 30
0.0
 10
179.1596927899984
 20
101.1531045967642
 30
0.0
 10
178.8035748665311
 20
101.3733268553306
 30
0.0
 10
178.4889879371912
 20
101.6932259972648
 30
0.0
 10
178.1820975039208
 20
102.1686646454855
 30
0.0
 10
177.9201911711349
 20
102.8124448064417
 30
0.0
 10
177.7317870272102
 20
103.6231992713481
 30
0.0
 10
177.7082551637559
 20
104.2028026326161
 30
0.0
 10
177.695997097001
 20
104.5047258826638
 30
0.0
  0
SPLINE
  5
137
330
1F
100
AcDbEntity
  8
0
  6
Continuous
 62
     7
370
    15
100
AcDbSpline
210
0.0
220
0.0
230
1.0
 70
     8
 71
     3
 72
    14
 73
    10
 74
     0
 42
0.000000001
 43
0.00000001
 40
0.0
 40
0.0
 40
0.0
 40
0.0
 40
0.2152888082214399
 40
0.4132908507999234
 40
0.5907063766433783
 40
0.7089577462182415
 40
0.8145490118785931
 40
0.9097093509332803
 40
1.0
 40
1.0
 40
1.0
 40
1.0
 10
181.399581257001
 20
104.5047258826638
 30
0.0
 10
181.3873231902461
 20
104.2028026326161
 30
0.0
 10
181.3637913267919
 20
103.6231992713481
 30
0.0
 10
181.1753871828672
 20
102.8124448064417
 30
0.0
 10
180.9134808500813
 20
102.1686646454855
 30
0.0
 10
180.6065904168109
 20
101.6932259972649
 30
0.0
 10
180.292003487471
 20
101.3733268553306
 30
0.0
 10
179.9358855640036
 20
101.1531045967642
 30
0.0
 10
179.6748700017914
 20
101.1239064730635
 30
0.0
 10
179.5477891770011
 20
101.1096907626638
 30
0.0
  0
SPLINE
  5
138
330
1F
100
AcDbEntity
  8
0
  6
Continuous
 62
     7
370
    15
100
AcDbSpline
210
0.0
220
0.0
230
1.0
 70
     8
 71
     3
 72
    14
 73
    10
 74
     0
 42
0.000000001
 43
0.00000001
 40
0.0
 40
0.0
 40
0.0
 40
0.0
 40
0.0902922198606408
 40
0.1854530587330313
 40
0.2910436510758701
 40
0.4092936227990263
 40
0.5867072432691369
 40
0.7847087820170511
 40
1.0
 40
1.0
 40
1.0
 40
1.0
 10
179.547789177001
 20
107.8996594026638
 30
0.0
 10
179.6748697177944
 20
107.8854448103831
 30
0.0
 10
179.9358830701292
 20
107.856249165164
 30
0.0
 10
180.2920015666525
 20
107.6360410664807
 30
0.0
 10
180.6065897061134
 20
107.3161579002488
 30
0.0
 10
180.9134811100409
 20
106.8407395065405
 30
0.0
 10
181.1753883262982
 20
106.1969796340771
 30
0.0
 10
181.3637920975951
 20
105.3862414541606
 30
0.0
 10
181.3873234012029
 20
104.806646658078
 30
0.0
 10
181.399581257001
 20
104.5047258826638
 30
0.0
  0
SPLINE
  5
139
330
1F
100
AcDbEntity
  8
0
  6
Continuous
 62
     7
370
    15
100
AcDbSpline
210
0.0
220
0.0
230
1.0
 70
     8
 71
     3
 72
    14
 73
    10
 74
     0
 42
0.000000001
 43
0.00000001
 40
0.0
 40
0.0
 40
0.0
 40
0.0
 40
0.2152912179829479
 40
0.4132927567308632
 40
0.5907063772009742
 40
0.7089563489241295
 40
0.8145469412669688
 40
0.9097077801393589
 40
1.0
 40
1.0
 40
1.0
 40
1.0
 10
177.695997097001
 20
104.5047258826638
 30
0.0
 10
177.7082549527992
 20
104.8066466580779
 30
0.0
 10
177.7317862564069
 20
105.3862414541606
 30
0.0
 10
177.9201900277038
 20
106.1969796340771
 30
0.0
 10
178.1820972439612
 20
106.8407395065404
 30
0.0
 10
178.4889886478886
 20
107.3161579002488
 30
0.0
 10
178.8035767873495
 20
107.6360410664807
 30
0.0
 10
179.1596952838728
 20
107.856249165164
 30
0.0
 10
179.4207086362076
 20
107.8854448103831
 30
0.0
 10
179.547789177001
 20
107.8996594026638
 30
0.0
  0
ARC
  5
13A
330
1F
100
AcDbEntity
  8
0
  6
Continuous
 62
     7
370
    15
100
AcDbCircle
 10
179.547789177
 20
105.5047258827
 30
0.0
 40
4.500000000000014
100
AcDbArc
 50
0.0
 51
90.0
  0
LINE
  5
13B
330
1F
100
AcDbEntity
  8
0
  6
Continuous
 62
     7
370
    15
100
AcDbLine
 10
184.047789177
 20
86.0047258827
 30
0.0
 11
184.047789177
 21
105.5047258827
 31
0.0
  0
LINE
  5
13C
330
1F
100
AcDbEntity
  8
0
  6
Continuous
 62
     7
370
    15
100
AcDbLine
 10
175.047789177
 20
105.5047258827
 30
0.0
 11
175.047789177
 21
86.0047258827
 31
0.0
  0
ARC
  5
13D
330
1F
100
AcDbEntity
  8
0
  6
Continuous
 62
     7
370
    15
100
AcDbCircle
 10
179.547789177
 20
105.5047258827
 30
0.0
 40
4.500000000000028
100
AcDbArc
 50
90.0
 51
180.0
  0
CIRCLE
  5
13E
330
1F
100
AcDbEntity
  8
0
  6
Continuous
 62
     7
370
    15
100
AcDbCircle
 10
179.547789177
 20
95.5047258827
 30
0.0
 40
3.5
  0
LINE
  5
13F
330
1F
100
AcDbEntity
  8
0
  6
Continuous
 62
     7
370
    15
100
AcDbLine
 10
175.047789177
 20
105.5047258827
 30
0.0
 11
174.547789177
 21
105.5047258827
 31
0.0
  0
ARC
  5
140
330
1F
100
AcDbEntity
  8
0
  6
Continuous
 62
     7
370
    15
100
AcDbCircle
 10
179.547789177
 20
105.5047258827
 30
0.0
 40
5.000000000000028
100
AcDbArc
 50
90.0
 51
180.0
  0
LINE
  5
141
330
1F
100
AcDbEntity
  8
0
  6
Continuous
 62
     7
370
    15
100
AcDbLine
 10
179.547789177
 20
110.0047258827
 30
0.0
 11
179.547789177
 21
110.5047258827
 31
0.0
  0
LINE
  5
142
330
1F
100
AcDbEntity
  8
0
  6
Continuous
 62
     7
370
    15
100
AcDbLine
 10
174.547789177
 20
86.0047258827
 30
0.0
 11
174.547789177
 21
105.5047258827
 31
0.0
  0
CIRCLE
  5
143
330
1F
100
AcDbEntity
  8
0
  6
Continuous
 62
     7
370
    15
100
AcDbCircle
 10
179.547789177
 20
95.5047258827
 30
0.0
 40
2.5
  0
LINE
  5
144
330
1F
100
AcDbEntity
  8
0
  6
Continuous
 62
     7
370
    15
100
AcDbLine
 10
179.263146617
 20
105.6336136427
 30
0.0
 11
180.194640817
 21
105.6336136427
 31
0.0
  0
LINE
  5
145
330
1F
100
AcDbEntity
  8
0
  6
Continuous
 62
     7
370
    15
100
AcDbLine
 10
178.900937537
 20
107.4008796027
 30
0.0
 11
178.900937537
 21
105.9958227227
 31
0.0
  0
LINE
  5
146
330
1F
100
AcDbEntity
  8
0
  6
Continuous
 62
     7
370
    15
100
AcDbLine
 10
179.222196737
 20
107.4008796027
 30
0.0
 11
178.900937537
 21
107.4008796027
 31
0.0
  0
LINE
  5
147
330
1F
100
AcDbEntity
  8
0
  6
Continuous
 62
     7
370
    15
100
AcDbLine
 10
179.222196737
 20
106.1240216027
 30
0.0
 11
179.222196737
 21
107.4008796027
 31
0.0
  0
LINE
  5
148
330
1F
100
AcDbEntity
  8
0
  6
Continuous
 62
     7
370
    15
100
AcDbLine
 10
180.194640817
 20
106.1240216027
 30
0.0
 11
179.222196737
 21
106.1240216027
 31
0.0
  0
LINE
  5
149
330
1F
100
AcDbEntity
  8
0
  6
Continuous
 62
     7
370
    15
100
AcDbLine
 10
180.194640817
 20
105.6336136427
 30
0.0
 11
180.194640817
 21
106.1240216027
 31
0.0
  0
SPLINE
  5
14A
330
1F
100
AcDbEntity
  8
0
  6
Continuous
 62
     7
370
    15
100
AcDbSpline
210
0.0
220
0.0
230
1.0
 70
     8
 71
     3
 72
    11
 73
     7
 74
     0
 42
0.000000001
 43
0.00000001
 40
0.0
 40
0.0
 40
0.0
 40
0.0
 40
0.2833149530453849
 40
0.558048999881211
 40
0.7754353247890529
 40
1.0
 40
1.0
 40
1.0
 40
1.0
 10
178.900937537001
 20
105.9958227226638
 30
0.0
 10
178.9079943161829
 20
105.9419722200278
 30
0.0
 10
178.9218941422334
 20
105.8359022127229
 30
0.0
 10
179.0187513326812
 20
105.718240723382
 30
0.0
 10
179.136800645171
 20
105.6466117727461
 30
0.0
 10
179.220577712505
 20
105.6379930158254
 30
0.0
 10
179.263146617001
 20
105.6336136426638
 30
0.0
  0
LINE
  5
14B
330
1F
100
AcDbEntity
  8
0
  6
Continuous
 62
     7
370
    15
100
AcDbLine
 10
179.408292377
 20
107.1217844027
 30
0.0
 11
179.408292377
 21
106.3015472827
 31
0.0
  0
LINE
  5
14C
330
1F
100
AcDbEntity
  8
0
  6
Continuous
 62
     7
370
    15
100
AcDbLine
 10
179.678914137
 20
107.1217844027
 30
0.0
 11
179.408292377
 21
107.1217844027
 31
0.0
  0
LINE
  5
14D
330
1F
100
AcDbEntity
  8
0
  6
Continuous
 62
     7
370
    15
100
AcDbLine
 10
179.678914137
 20
106.3015472827
 30
0.0
 11
179.678914137
 21
107.1217844027
 31
0.0
  0
LINE
  5
14E
330
1F
100
AcDbEntity
  8
0
  6
Continuous
 62
     7
370
    15
100
AcDbLine
 10
179.408292377
 20
106.3015472827
 30
0.0
 11
179.678914137
 21
106.3015472827
 31
0.0
  0
SPLINE
  5
14F
330
1F
100
AcDbEntity
  8
0
  6
Continuous
 62
     7
370
    15
100
AcDbSpline
210
0.0
220
0.0
230
1.0
 70
     8
 71
     3
 72
    11
 73
     7
 74
     0
 42
0.000000001
 43
0.00000001
 40
0.0
 40
0.0
 40
0.0
 40
0.0
 40
0.2833158463815624
 40
0.55805178552936
 40
0.7754384397249268
 40
1.0
 40
1.0
 40
1.0
 40
1.0
 10
180.194640817001
 20
101.9708828426638
 30
0.0
 10
180.1875837677475
 20
101.9170322855203
 30
0.0
 10
180.1736833841762
 20
101.8109619758307
 30
0.0
 10
180.0768249584586
 20
101.6933011718886
 30
0.0
 10
179.958776292985
 20
101.6216722100797
 30
0.0
 10
179.8749999508503
 20
101.6130532207655
 30
0.0
 10
179.832431737001
 20
101.6086737626638
 30
0.0
  0
SPLINE
  5
150
330
1F
100
AcDbEntity
  8
0
  6
Continuous
 62
     7
370
    15
100
AcDbSpline
210
0.0
220
0.0
230
1.0
 70
     8
 71
     3
 72
    11
 73
     7
 74
     0
 42
0.000000001
 43
0.00000001
 40
0.0
 40
0.0
 40
0.0
 40
0.0
 40
0.2833669787973704
 40
0.5581162645515282
 40
0.775484410790622
 40
1.0
 40
1.0
 40
1.0
 40
1.0
 10
179.832833057001
 20
103.4773111226638
 30
0.0
 10
179.886626043892
 20
103.4702637958483
 30
0.0
 10
179.9925760774142
 20
103.4563834639408
 30
0.0
 10
180.1101071870921
 20
103.3596561859026
 30
0.0
 10
180.18165603448
 20
103.2417705743327
 30
0.0
 10
180.1902661335484
 20
103.1581112281922
 30
0.0
 10
180.194640817001
 20
103.1156049626638
 30
0.0
  0
LINE
  5
151
330
1F
100
AcDbEntity
  8
0
  6
Continuous
 62
     7
370
    15
100
AcDbLine
 10
180.194640817
 20
103.1156049627
 30
0.0
 11
180.194640817
 21
101.9708828427
 31
0.0
  0
LINE
  5
152
330
1F
100
AcDbEntity
  8
0
  6
Continuous
 62
     7
370
    15
100
AcDbLine
 10
179.222196737
 20
102.4457561627
 30
0.0
 11
178.900937537
 21
102.4457561627
 31
0.0
  0
LINE
  5
153
330
1F
100
AcDbEntity
  8
0
  6
Continuous
 62
     7
370
    15
100
AcDbLine
 10
178.900937537
 20
103.4773111227
 30
0.0
 11
179.832833057
 21
103.4773111227
 31
0.0
  0
LINE
  5
154
330
1F
100
AcDbEntity
  8
0
  6
Continuous
 62
     7
370
    15
100
AcDbLine
 10
179.832431737
 20
101.6086737627
 30
0.0
 11
179.619605137
 21
101.6086737627
 31
0.0
  0
LINE
  5
155
330
1F
100
AcDbEntity
  8
0
  6
Continuous
 62
     7
370
    15
100
AcDbLine
 10
179.619605137
 20
101.6086737627
 30
0.0
 11
179.619605137
 21
102.0991833227
 31
0.0
  0
LINE
  5
156
330
1F
100
AcDbEntity
  8
0
  6
Continuous
 62
     7
370
    15
100
AcDbLine
 10
178.900937537
 20
102.4457561627
 30
0.0
 11
178.900937537
 21
103.4773111227
 31
0.0
  0
LINE
  5
157
330
1F
100
AcDbEntity
  8
0
  6
Continuous
 62
     7
370
    15
100
AcDbLine
 10
179.864806577
 20
102.0991833227
 30
0.0
 11
179.864806577
 21
102.9869031627
 31
0.0
  0
LINE
  5
158
330
1F
100
AcDbEntity
  8
0
  6
Continuous
 62
     7
370
    15
100
AcDbLine
 10
179.864806577
 20
102.9869031627
 30
0.0
 11
179.222196737
 21
102.9869031627
 31
0.0
  0
LINE
  5
159
330
1F
100
AcDbEntity
  8
0
  6
Continuous
 62
     7
370
    15
100
AcDbLine
 10
179.222196737
 20
102.9869031627
 30
0.0
 11
179.222196737
 21
102.4457561627
 31
0.0
  0
LINE
  5
15A
330
1F
100
AcDbEntity
  8
0
  6
Continuous
 62
     7
370
    15
100
AcDbLine
 10
179.619605137
 20
102.0991833227
 30
0.0
 11
179.864806577
 21
102.0991833227
 31
0.0
  0
LINE
  5
15B
330
1F
100
AcDbEntity
  8
0
  6
Continuous
 62
     7
370
    15
100
AcDbLine
 10
179.263146617
 20
105.5151988427
 30
0.0
 11
180.194640817
 21
105.5151988427
 31
0.0
  0
LINE
  5
15C
330
1F
100
AcDbEntity
  8
0
  6
Continuous
 62
     7
370
    15
100
AcDbLine
 10
180.194640817
 20
105.5151988427
 30
0.0
 11
180.194640817
 21
105.0246892827
 31
0.0
  0
LINE
  5
15D
330
1F
100
AcDbEntity
  8
0
  6
Continuous
 62
     7
370
    15
100
AcDbLine
 10
180.194640817
 20
105.0246892827
 30
0.0
 11
179.222196737
 21
105.0246892827
 31
0.0
  0
LINE
  5
15E
330
1F
100
AcDbEntity
  8
0
  6
Continuous
 62
     7
370
    15
100
AcDbLine
 10
179.222196737
 20
105.0246892827
 30
0.0
 11
179.222196737
 21
104.0946073227
 31
0.0
  0
LINE
  5
15F
330
1F
100
AcDbEntity
  8
0
  6
Continuous
 62
     7
370
    15
100
AcDbLine
 10
179.222196737
 20
104.0946073227
 30
0.0
 11
180.194640817
 21
104.0946073227
 31
0.0
  0
LINE
  5
160
330
1F
100
AcDbEntity
  8
0
  6
Continuous
 62
     7
370
    15
100
AcDbLine
 10
180.194640817
 20
104.0946073227
 30
0.0
 11
180.194640817
 21
103.6126728027
 31
0.0
  0
LINE
  5
161
330
1F
100
AcDbEntity
  8
0
  6
Continuous
 62
     7
370
    15
100
AcDbLine
 10
180.194640817
 20
103.6126728027
 30
0.0
 11
178.900937537
 21
103.6126728027
 31
0.0
  0
LINE
  5
162
330
1F
100
AcDbEntity
  8
0
  6
Continuous
 62
     7
370
    15
100
AcDbLine
 10
178.900937537
 20
103.6126728027
 30
0.0
 11
178.900937537
 21
105.1529897627
 31
0.0
  0
SPLINE
  5
163
330
1F
100
AcDbEntity
  8
0
  6
Continuous
 62
     7
370
    15
100
AcDbSpline
210
0.0
220
0.0
230
1.0
 70
     8
 71
     3
 72
    11
 73
     7
 74
     0
 42
0.000000001
 43
0.00000001
 40
0.0
 40
0.0
 40
0.0
 40
0.0
 40
0.2833116737276011
 40
0.5580470242975485
 40
0.7754347183916366
 40
1.0
 40
1.0
 40
1.0
 40
1.0
 10
178.900937537001
 20
105.1529897626638
 30
0.0
 10
178.907994472896
 20
105.2068394853975
 30
0.0
 10
178.9218947193104
 20
105.3129088087521
 30
0.0
 10
179.0187514724787
 20
105.4305698823945
 30
0.0
 10
179.1368003850579
 20
105.5022002326435
 30
0.0
 10
179.2205776748224
 20
105.5108193129394
 30
0.0
 10
179.263146617001
 20
105.5151988426638
 30
0.0
  0
ARC
  5
164
330
1F
100
AcDbEntity
  8
0
  6
Continuous
 62
     7
370
    15
100
AcDbCircle
 10
179.547789177
 20
105.5047258827
 30
0.0
 40
5.000000000000014
100
AcDbArc
 50
0.0
 51
90.0
  0
LINE
  5
165
330
1F
100
AcDbEntity
  8
0
  6
Continuous
 62
     7
370
    15
100
AcDbLine
 10
184.047789177
 20
105.5047258827
 30
0.0
 11
184.547789177
 21
105.5047258827
 31
0.0
  0
LINE
  5
166
330
1F
100
AcDbEntity
  8
0
  6
Continuous
 62
     7
370
    15
100
AcDbLine
 10
184.547789177
 20
105.5047258827
 30
0.0
 11
184.547789177
 21
86.0047258827
 31
0.0
  0
LINE
  5
167
330
1F
100
AcDbEntity
  8
0
  6
Continuous
 62
     7
370
    15
100
AcDbLine
 10
184.047789177
 20
86.0047258827
 30
0.0
 11
184.547789177
 21
86.0047258827
 31
0.0
  0
ARC
  5
168
330
1F
100
AcDbEntity
  8
0
  6
Continuous
 62
     7
370
    15
100
AcDbCircle
 10
184.047789177
 20
86.0047258827
 30
0.0
 40
0.5
100
AcDbArc
 50
270.0
 51
0.0
  0
LINE
  5
169
330
1F
100
AcDbEntity
  8
0
  6
Continuous
 62
     7
370
    15
100
AcDbLine
 10
179.547789177
 20
110.5047258827
 30
0.0
 11
179.547789177
 21
111.0047258827
 31
0.0
  0
SPLINE
  5
16A
330
1F
100
AcDbEntity
  8
0
  6
Continuous
 62
     7
370
    15
100
AcDbSpline
210
0.0
220
0.0
230
1.0
 70
     8
 71
     3
 72
    17
 73
    13
 74
     0
 42
0.000000001
 43
0.00000001
 40
0.0
 40
0.0
 40
0.0
 40
0.0
 40
0.1011160328152984
 40
0.2054021640094991
 40
0.3070812382701797
 40
0.4116592151343533
 40
0.5170091205056114
 40
0.6252740709111418
 40
0.7338970875623307
 40
0.845736451231425
 40
0.9222920353413677
 40
1.0
 40
1.0
 40
1.0
 40
1.0
 10
179.5477891770011
 20
111.0047258826638
 30
0.0
 10
179.8366871011526
 20
110.9907455100356
 30
0.0
 10
180.4235402158013
 20
110.9623464647848
 30
0.0
 10
181.2742581249958
 20
110.7344666198843
 30
0.0
 10
182.0819829589841
 20
110.3759904916524
 30
0.0
 10
182.8192078111604
 20
109.8865914870193
 30
0.0
 10
183.4779780220789
 20
109.2716804848423
 30
0.0
 10
184.0331372110476
 20
108.5465238507402
 30
0.0
 10
184.4708137114122
 20
107.7208741483182
 30
0.0
 10
184.7348525495574
 20
106.9153231071217
 30
0.0
 10
184.8724483951721
 20
106.1671279659974
 30
0.0
 10
184.8874530352867
 20
105.7266234636254
 30
0.0
 10
184.8950113992233
 20
105.5047258826638
 30
0.0
  0
LINE
  5
16B
330
1F
100
AcDbEntity
  8
0
  6
Continuous
 62
     7
370
    15
100
AcDbLine
 10
184.547789177
 20
105.5047258827
 30
0.0
 11
184.8950113992
 21
105.5047258827
 31
0.0
  0
LINE
  5
16C
330
1F
100
AcDbEntity
  8
0
  6
Continuous
 62
     7
370
    15
100
AcDbLine
 10
174.547789177
 20
105.5047258827
 30
0.0
 11
174.2005669548
 21
105.5047258827
 31
0.0
  0
SPLINE
  5
16D
330
1F
100
AcDbEntity
  8
0
  6
Continuous
 62
     7
370
    15
100
AcDbSpline
210
0.0
220
0.0
230
1.0
 70
     8
 71
     3
 72
    17
 73
    13
 74
     0
 42
0.000000001
 43
0.00000001
 40
0.0
 40
0.0
 40
0.0
 40
0.0
 40
0.1038317081233187
 40
0.2106035169321635
 40
0.3137969373635696
 40
0.4197250310597888
 40
0.5250338631140705
 40
0.6332611610179975
 40
0.7397335311005343
 40
0.8495799137648672
 40
0.9241690777632592
 40
1.0
 40
1.0
 40
1.0
 40
1.0
 10
174.2005669547788
 20
105.5047258826638
 30
0.0
 10
174.2140941251665
 20
105.8013497286551
 30
0.0
 10
174.2415315015641
 20
106.4029966272836
 30
0.0
 10
174.4616140332117
 20
107.2748765250499
 30
0.0
 10
174.8081299139976
 20
108.1039097903011
 30
0.0
 10
175.2811602844253
 20
108.8608039416031
 30
0.0
 10
175.8782757384143
 20
109.5404035510079
 30
0.0
 10
176.5822172839706
 20
110.112689101004
 30
0.0
 10
177.3865373263831
 20
110.5654495580392
 30
0.0
 10
178.1710888905349
 20
110.8387264997229
 30
0.0
 10
178.9016718961232
 20
110.9813401978468
 30
0.0
 10
179.3312346979162
 20
110.9968878709847
 30
0.0
 10
179.5477891770011
 20
111.0047258826638
 30
0.0
  0
LINE
  5
16E
330
1F
100
AcDbEntity
  8
0
  6
Continuous
 62
     7
370
    15
100
AcDbLine
 10
174.547789177
 20
90.0047258827
 30
0.0
 11
174.1925260191
 21
90.0047258827
 31
0.0
  0
SPLINE
  5
16F
330
1F
100
AcDbEntity
  8
0
  6
Continuous
 62
     7
370
    15
100
AcDbSpline
210
0.0
220
0.0
230
1.0
 70
     8
 71
     3
 72
    24
 73
    20
 74
     0
 42
0.000000001
 43
0.00000001
 40
0.0
 40
0.0
 40
0.0
 40
0.0
 40
0.0593510391352149
 40
0.1190173683651378
 40
0.1796957079133044
 40
0.2407362169262371
 40
0.2984090752767087
 40
0.3564300143533401
 40
0.4156127762443667
 40
0.475230727742867
 40
0.5290525085927292
 40
0.5832585427240788
 40
0.6387696810696895
 40
0.6947767123373108
 40
0.7945673144240267
 40
0.8453961157047942
 40
0.8971793433882339
 40
0.9483243260030325
 40
0.9999999999999999
 40
0.9999999999999999
 40
0.9999999999999999
 40
0.9999999999999999
 10
174.047789177001
 20
90.50472588266383
 30
0.0
 10
174.0521328140571
 20
90.50437425842462
 30
0.0
 10
174.0608431628409
 20
90.50366914201528
 30
0.0
 10
174.0738049069137
 20
90.4978946170649
 30
0.0
 10
174.0866584632463
 20
90.48850437587801
 30
0.0
 10
174.0990585978927
 20
90.47528493612728
 30
0.0
 10
174.1109024791152
 20
90.45854760065593
 30
0.0
 10
174.1221913494437
 20
90.43836782325768
 30
0.0
 10
174.1330865620751
 20
90.41426513326373
 30
0.0
 10
174.1431250429941
 20
90.38709717887507
 30
0.0
 10
174.1522339850746
 20
90.35739870711129
 30
0.0
 10
174.1604514853838
 20
90.32542852162126
 30
0.0
 10
174.1680106270944
 20
90.29006259445202
 30
0.0
 10
174.1765413766815
 20
90.24139468448045
 30
0.0
 10
174.1832318646679
 20
90.18918368487262
 30
0.0
 10
174.1879684990684
 20
90.13495079918782
 30
0.0
 10
174.1905644802393
 20
90.09243925756455
 30
0.0
 10
174.1922171699637
 20
90.04879861423204
 30
0.0
 10
174.1924227157621
 20
90.01946725613014
 30
0.0
 10
174.1925260191063
 20
90.00472588266383
 30
0.0
  0
ARC
  5
170
330
1F
100
AcDbEntity
  8
0
  6
Continuous
 62
     7
370
    15
100
AcDbCircle
 10
174.047789177
 20
91.0047258827
 30
0.0
 40
0.5
100
AcDbArc
 50
270.0
 51
0.0
  0
ARC
  5
171
330
1F
100
AcDbEntity
  8
0
  6
Continuous
 62
     7
370
    15
100
AcDbCircle
 10
185.047789177
 20
91.0047258827
 30
0.0
 40
0.5
100
AcDbArc
 50
180.0
 51
270.0
  0
SPLINE
  5
172
330
1F
100
AcDbEntity
  8
0
  6
Continuous
 62
     7
370
    15
100
AcDbSpline
210
0.0
220
0.0
230
1.0
 70
     8
 71
     3
 72
    12
 73
     8
 74
     0
 42
0.000000001
 43
0.00000001
 40
0.0
 40
0.0
 40
0.0
 40
0.0
 40
0.1913187904457576
 40
0.3871593850822248
 40
0.593874435102082
 40
0.8166932164673646
 40
0.9999999999999999
 40
0.9999999999999999
 40
0.9999999999999999
 40
0.9999999999999999
 10
184.9030523348958
 20
90.00472588266383
 30
0.0
 10
184.9045024015257
 20
90.0593582329608
 30
0.0
 10
184.9074368069934
 20
90.1699141647503
 30
0.0
 10
184.930110771408
 20
90.3159063086203
 30
0.0
 10
184.9640389784118
 20
90.42806115656452
 30
0.0
 10
185.0049533600773
 20
90.4938743892575
 30
0.0
 10
185.0344677231629
 20
90.5013511911354
 30
0.0
 10
185.0477891770011
 20
90.50472588266383
 30
0.0
  0
LINE
  5
173
330
1F
100
AcDbEntity
  8
0
  6
Continuous
 62
     7
370
    15
100
AcDbLine
 10
184.547789177
 20
90.0047258827
 30
0.0
 11
184.9030523349
 21
90.0047258827
 31
0.0
  0
LINE
  5
174
330
1F
100
AcDbEntity
  8
0
  6
Continuous
 62
     7
370
    15
100
AcDbLine
 10
174.547789177
 20
86.0047258827
 30
0.0
 11
174.1925260191
 21
86.0047258827
 31
0.0
  0
LINE
  5
175
330
1F
100
AcDbEntity
  8
0
  6
Continuous
 62
     7
370
    15
100
AcDbLine
 10
174.1925260191
 20
86.0047258827
 30
0.0
 11
174.1925260191
 21
90.0047258827
 31
0.0
  0
LWPOLYLINE
  5
176
330
1F
100
AcDbEntity
  8
0
  6
Continuous
 62
     7
370
    15
100
AcDbPolyline
 90
        9
 70
   128
 43
0.0
 10
174.1925260191
 20
86.0047258827
 10
174.1953070969
 20
85.9071807217
 10
174.2035434552
 20
85.8133841665
 10
174.2169185752
 20
85.7269407662
 10
174.2349184587
 20
85.6511724921
 10
174.2568513801
 20
85.5889910765
 10
174.2818744697
 20
85.5427861164
 10
174.3090261041
 20
85.5143332425
 10
174.3372628612
 20
85.5047258827
  0
LINE
  5
177
330
1F
100
AcDbEntity
  8
0
  6
Continuous
 62
     7
370
    15
100
AcDbLine
 10
174.3372628612
 20
85.5047258827
 30
0.0
 11
175.047789177
 21
85.5047258827
 31
0.0
  0
LINE
  5
178
330
1F
100
AcDbEntity
  8
0
  6
Continuous
 62
     7
370
    15
100
AcDbLine
 10
184.547789177
 20
86.0047258827
 30
0.0
 11
184.9030523349
 21
86.0047258827
 31
0.0
  0
LWPOLYLINE
  5
179
330
1F
100
AcDbEntity
  8
0
  6
Continuous
 62
     7
370
    15
100
AcDbPolyline
 90
        9
 70
   128
 43
0.0
 10
184.7583154928
 20
85.5047258827
 10
184.7865522499
 20
85.5143332425
 10
184.8137038843
 20
85.5427861164
 10
184.8387269739
 20
85.5889910765
 10
184.8606598953
 20
85.6511724921
 10
184.8786597788
 20
85.7269407662
 10
184.8920348988
 20
85.8133841665
 10
184.9002712571
 20
85.9071807217
 10
184.9030523349
 20
86.0047258827
  0
LINE
  5
17A
330
1F
100
AcDbEntity
  8
0
  6
Continuous
 62
     7
370
    15
100
AcDbLine
 10
184.047789177
 20
85.5047258827
 30
0.0
 11
184.7583154928
 21
85.5047258827
 31
0.0
  0
LINE
  5
17B
330
1F
100
AcDbEntity
  8
0
  6
Continuous
 62
     7
370
    15
100
AcDbLine
 10
184.9030523349
 20
90.0047258827
 30
0.0
 11
184.9030523349
 21
86.0047258827
 31
0.0
  0
LINE
  5
17C
330
1F
100
AcDbEntity
  8
0
  6
Continuous
 62
     7
370
    15
100
AcDbLine
 10
174.047789177
 20
90.5047258827
 30
0.0
 11
161.547789177
 21
90.5047258827
 31
0.0
  0
LINE
  5
17D
330
1F
100
AcDbEntity
  8
0
  6
Continuous
 62
     7
370
    15
100
AcDbLine
 10
185.047789177
 20
90.5047258827
 30
0.0
 11
197.547789177
 21
90.5047258827
 31
0.0
  0
LINE
  5
17E
330
1F
100
AcDbEntity
  8
0
  6
Continuous
 62
     7
370
    15
100
AcDbLine
 10
174.3372628612
 20
85.5047258827
 30
0.0
 11
161.547789177
 21
85.5047258827
 31
0.0
  0
LINE
  5
17F
330
1F
100
AcDbEntity
  8
0
  6
Continuous
 62
     7
370
    15
100
AcDbLine
 10
197.547789177
 20
85.5047258827
 30
0.0
 11
184.7583154928
 21
85.5047258827
 31
0.0
  0
LINE
  5
180
330
1F
100
AcDbEntity
  8
0
  6
Continuous
 62
     7
370
    15
100
AcDbLine
 10
173.3713185888
 20
115.0047258827
 30
0.0
 11
173.3713185888
 21
118.7995620104
 31
0.0
  0
LINE
  5
181
330
1F
100
AcDbEntity
  8
0
  6
Continuous
 62
     7
370
    15
100
AcDbLine
 10
185.7242597652
 20
115.0047258827
 30
0.0
 11
173.3713185888
 21
115.0047258827
 31
0.0
  0
LINE
  5
182
330
1F
100
AcDbEntity
  8
0
  6
Continuous
 62
     7
370
    15
100
AcDbLine
 10
185.7242597652
 20
118.7995620104
 30
0.0
 11
185.7242597652
 21
115.0047258827
 31
0.0
  0
LINE
  5
183
330
1F
100
AcDbEntity
  8
0
  6
Continuous
 62
     7
370
    15
100
AcDbLine
 10
184.8950113992
 20
105.5047258827
 30
0.0
 11
184.8950113992
 21
91.0047258827
 31
0.0
  0
LINE
  5
184
330
1F
100
AcDbEntity
  8
0
  6
Continuous
 62
     7
370
    15
100
AcDbLine
 10
174.2005669548
 20
91.0047258827
 30
0.0
 11
174.2005669548
 21
105.5047258827
 31
0.0
  0
SPLINE
  5
185
330
1F
100
AcDbEntity
  8
0
  6
Continuous
 62
     7
370
    15
100
AcDbSpline
210
0.0
220
0.0
230
1.0
 70
     8
 71
     3
 72
    23
 73
    19
 74
     0
 42
0.000000001
 43
0.00000001
 40
0.0
 40
0.0
 40
0.0
 40
0.0
 40
0.0379165654448864
 40
0.0768886086561952
 40
0.1247518481349863
 40
0.1733348243312864
 40
0.235006754789596
 40
0.2970567395536791
 40
0.3599160510006674
 40
0.4229841773428933
 40
0.5023624198786768
 40
0.5821715736161651
 40
0.6634982211804288
 40
0.7454499481855613
 40
0.8078861287202986
 40
0.8707272982896093
 40
0.9350521662334939
 40
1.0
 40
1.0
 40
1.0
 40
1.0
 10
163.0267091573765
 20
130.5432326613481
 30
0.0
 10
163.0318046286813
 20
130.5261478824135
 30
0.0
 10
163.0421374131643
 20
130.491502738106
 30
0.0
 10
163.1198867300305
 20
130.2393464251748
 30
0.0
 10
163.251141775527
 20
129.8418679540347
 30
0.0
 10
163.4616551878605
 20
129.2631107425755
 30
0.0
 10
163.7533244098933
 20
128.5512970775283
 30
0.0
 10
164.1405161378627
 20
127.728165980385
 30
0.0
 10
164.6017405701559
 20
126.8727338714331
 30
0.0
 10
165.1841433991831
 20
125.9281491591958
 30
0.0
 10
165.9126906440571
 20
124.9086738446549
 30
0.0
 10
166.8232723792543
 20
123.8279266029199
 30
0.0
 10
167.8730815276732
 20
122.7751143931238
 30
0.0
 10
168.9743621921299
 20
121.8509228547874
 30
0.0
 10
170.0899382854913
 20
121.0598987012023
 30
0.0
 10
171.1962214249999
 20
120.3936504591453
 30
0.0
 10
172.3973266315632
 20
119.7803175704672
 30
0.0
 10
173.2755669699387
 20
119.44073800657
 30
0.0
 10
173.716803261508
 20
119.2701300067782
 30
0.0
  0
LWPOLYLINE
  5
186
330
1F
100
AcDbEntity
  8
0
  6
Continuous
 62
     7
370
    15
100
AcDbPolyline
 90
        9
 70
   128
 43
0.0
 10
173.3713185888
 20
118.7995620104
 10
173.4064982619
 20
118.898963886
 10
173.4479627026
 20
118.9939442624
 10
173.4938675292
 20
119.0802783132
 10
173.542170847
 20
119.1541258095
 10
173.590724074
 20
119.2122019376
 10
173.6373675119
 20
119.2519234107
 10
173.6800264119
 20
119.271523376
 10
173.7168032615
 20
119.2701300068
  0
SPLINE
  5
187
330
1F
100
AcDbEntity
  8
0
  6
Continuous
 62
     7
370
    15
100
AcDbSpline
210
0.0
220
0.0
230
1.0
 70
     8
 71
     3
 72
    13
 73
     9
 74
     0
 42
0.000000001
 43
0.00000001
 40
0.0
 40
0.0
 40
0.0
 40
0.0
 40
0.1395858325941133
 40
0.2785025503750413
 40
0.4743413418663539
 40
0.743717912693741
 40
0.9952585247795076
 40
1.0
 40
1.0
 40
1.0
 40
1.0
 10
174.0181565000922
 20
115.5047258826638
 30
0.0
 10
173.9996075849797
 20
115.5011406151078
 30
0.0
 10
173.9625986703248
 20
115.4939872662358
 30
0.0
 10
173.8631562272371
 20
115.4362988623387
 30
0.0
 10
173.7209513396849
 20
115.3325810502923
 30
0.0
 10
173.5463546662042
 20
115.1811700090846
 30
0.0
 10
173.426847667678
 20
115.0631729625009
 30
0.0
 10
173.372327270699
 20
115.005787569885
 30
0.0
 10
173.3713185887657
 20
115.0047258826638
 30
0.0
  0
LINE
  5
188
330
1F
100
AcDbEntity
  8
0
  6
Continuous
 62
     7
370
    15
100
AcDbLine
 10
174.0181565001
 20
115.5047258827
 30
0.0
 11
185.0774218539
 21
115.5047258827
 31
0.0
  0
SPLINE
  5
189
330
1F
100
AcDbEntity
  8
0
  6
Continuous
 62
     7
370
    15
100
AcDbSpline
210
0.0
220
0.0
230
1.0
 70
     8
 71
     3
 72
    13
 73
     9
 74
     0
 42
0.000000001
 43
0.00000001
 40
0.0
 40
0.0
 40
0.0
 40
0.0
 40
0.0047414752204912
 40
0.2562820873062566
 40
0.525658658133646
 40
0.721497449624958
 40
0.8604141674058866
 40
1.0
 40
1.0
 40
1.0
 40
1.0
 10
185.7242597652363
 20
115.0047258826638
 30
0.0
 10
185.7232510833031
 20
115.005787569885
 30
0.0
 10
185.668730686324
 20
115.0631729625009
 30
0.0
 10
185.5492236877979
 20
115.1811700090846
 30
0.0
 10
185.3746270143172
 20
115.3325810502923
 30
0.0
 10
185.232422126765
 20
115.4362988623387
 30
0.0
 10
185.1329796836773
 20
115.4939872662358
 30
0.0
 10
185.0959707690224
 20
115.5011406151078
 30
0.0
 10
185.0774218539098
 20
115.5047258826638
 30
0.0
  0
LWPOLYLINE
  5
18A
330
1F
100
AcDbEntity
  8
0
  6
Continuous
 62
     7
370
    15
100
AcDbPolyline
 90
        9
 70
   128
 43
0.0
 10
185.3787750925
 20
119.2701300068
 10
185.4155519421
 20
119.271523376
 10
185.4582108421
 20
119.2519234107
 10
185.50485428
 20
119.2122019376
 10
185.553407507
 20
119.1541258095
 10
185.6017108248
 20
119.0802783132
 10
185.6476156514
 20
118.9939442624
 10
185.6890800921
 20
118.898963886
 10
185.7242597652
 20
118.7995620104
  0
SPLINE
  5
18B
330
1F
100
AcDbEntity
  8
0
  6
Continuous
 62
     7
370
    15
100
AcDbSpline
210
0.0
220
0.0
230
1.0
 70
     8
 71
     3
 72
    25
 73
    21
 74
     0
 42
0.000000001
 43
0.00000001
 40
0.0
 40
0.0
 40
0.0
 40
0.0
 40
0.0412644302609571
 40
0.0825319650664704
 40
0.124473448139947
 40
0.1664177335865447
 40
0.2222494758676803
 40
0.2781562186583857
 40
0.3340090338235993
 40
0.4209705838601366
 40
0.5079503042972353
 40
0.5798403691689132
 40
0.6517313307402306
 40
0.7249642196537842
 40
0.7981637790499364
 40
0.8600863984753814
 40
0.8916006542753266
 40
0.9230960183622439
 40
0.9610580485412845
 40
1.0
 40
1.0
 40
1.0
 40
1.0
 10
185.378775092494
 20
119.2701300067782
 30
0.0
 10
185.661737920337
 20
119.3767057729487
 30
0.0
 10
186.2276848648352
 20
119.5898653235566
 30
0.0
 10
187.0390794310195
 20
119.958526589419
 30
0.0
 10
187.8214034631274
 20
120.3597847552017
 30
0.0
 10
188.6529489328759
 20
120.8420889663801
 30
0.0
 10
189.5143613782791
 20
121.4108473220405
 30
0.0
 10
190.3870952434035
 20
122.0713373201895
 30
0.0
 10
191.3439821056723
 20
122.8941121807164
 30
0.0
 10
192.337440876551
 20
123.8945043019006
 30
0.0
 10
193.2580805976403
 20
125.0062311112794
 30
0.0
 10
194.0049679570041
 20
126.0699196638496
 30
0.0
 10
194.6102263961995
 20
127.070795602494
 30
0.0
 10
195.1224578840011
 20
128.0641594927381
 30
0.0
 10
195.5177389717758
 20
128.9627455130742
 30
0.0
 10
195.7619508521996
 20
129.6093501155534
 30
0.0
 10
195.903380520995
 20
130.0197199526118
 30
0.0
 10
195.9919657842784
 20
130.2917115858973
 30
0.0
 10
196.0570989865582
 20
130.5036392469413
 30
0.0
 10
196.0649126058601
 20
130.529923218533
 30
0.0
 10
196.0688691966256
 20
130.5432326613481
 30
0.0
  0
LWPOLYLINE
  5
18C
330
1F
100
AcDbEntity
  8
0
  6
Continuous
 62
     7
370
    15
100
AcDbPolyline
 90
        9
 70
   128
 43
0.0
 10
174.2005669548
 20
91.0047258827
 10
174.1976313726
 20
90.9071807217
 10
174.1889374389
 20
90.8133841665
 10
174.1748192567
 20
90.7269407662
 10
174.1558193797
 20
90.6511724921
 10
174.1326679626
 20
90.5889910765
 10
174.1062547014
 20
90.5427861164
 10
174.0775946429
 20
90.5143332425
 10
174.047789177
 20
90.5047258827
  0
LINE
  5
18D
330
1F
100
AcDbEntity
  8
0
  6
Continuous
 62
     7
370
    15
100
AcDbLine
 10
174.547789177
 20
91.0047258827
 30
0.0
 11
174.2005669548
 21
91.0047258827
 31
0.0
  0
LWPOLYLINE
  5
18E
330
1F
100
AcDbEntity
  8
0
  6
Continuous
 62
     7
370
    15
100
AcDbPolyline
 90
        9
 70
   128
 43
0.0
 10
185.047789177
 20
90.5047258827
 10
185.0179837111
 20
90.5143332425
 10
184.9893236526
 20
90.5427861164
 10
184.9629103914
 20
90.5889910765
 10
184.9397589743
 20
90.6511724921
 10
184.9207590973
 20
90.7269407662
 10
184.9066409151
 20
90.8133841665
 10
184.8979469814
 20
90.9071807217
 10
184.8950113992
 20
91.0047258827
  0
LINE
  5
18F
330
1F
100
AcDbEntity
  8
0
  6
Continuous
 62
     7
370
    15
100
AcDbLine
 10
184.547789177
 20
91.0047258827
 30
0.0
 11
184.8950113992
 21
91.0047258827
 31
0.0
  0
ARC
  5
190
330
1F
100
AcDbEntity
  8
0
  6
Continuous
 62
     7
370
    15
100
AcDbCircle
 10
173.547789177
 20
118.7995620104
 30
0.0
 40
0.5
100
AcDbArc
 50
0.0
 51
70.2432150754
  0
LINE
  5
191
330
1F
100
AcDbEntity
  8
0
  6
Continuous
 62
     7
370
    15
100
AcDbLine
 10
174.047789177
 20
118.7995620104
 30
0.0
 11
173.3713185888
 21
118.7995620104
 31
0.0
  0
LINE
  5
192
330
1F
100
AcDbEntity
  8
0
  6
Continuous
 62
     7
370
    15
100
AcDbLine
 10
174.047789177
 20
118.7995620104
 30
0.0
 11
174.047789177
 21
115.5047258827
 31
0.0
  0
LINE
  5
193
330
1F
100
AcDbEntity
  8
0
  6
Continuous
 62
     7
370
    15
100
AcDbLine
 10
185.7242597652
 20
118.7995620104
 30
0.0
 11
185.047789177
 21
118.7995620104
 31
0.0
  0
ARC
  5
194
330
1F
100
AcDbEntity
  8
0
  6
Continuous
 62
     7
370
    15
100
AcDbCircle
 10
185.547789177
 20
118.7995620104
 30
0.0
 40
0.50000000000002
100
AcDbArc
 50
109.7567849246
 51
180.0
  0
LINE
  5
195
330
1F
100
AcDbEntity
  8
0
  6
Continuous
 62
     7
370
    15
100
AcDbLine
 10
185.047789177
 20
115.5047258827
 30
0.0
 11
185.047789177
 21
118.7995620104
 31
0.0
  0
LINE
  5
196
330
1F
100
AcDbEntity
  8
0
  6
Continuous
 62
     8
370
    15
100
AcDbLine
 10
174.1925260191
 20
90.0047258827
 30
0.0
 11
161.047789177
 21
90.0047258827
 31
0.0
  0
LINE
  5
197
330
1F
100
AcDbEntity
  8
0
  6
Continuous
 62
     8
370
    15
100
AcDbLine
 10
198.047789177
 20
90.0047258827
 30
0.0
 11
184.9030523349
 21
90.0047258827
 31
0.0
  0
LINE
  5
198
330
1F
100
AcDbEntity
  8
0
  6
Continuous
 62
     8
370
    15
100
AcDbLine
 10
161.047789177
 20
86.0047258827
 30
0.0
 11
174.1925260191
 21
86.0047258827
 31
0.0
  0
LINE
  5
199
330
1F
100
AcDbEntity
  8
0
  6
Continuous
 62
     8
370
    15
100
AcDbLine
 10
184.9030523349
 20
86.0047258827
 30
0.0
 11
198.047789177
 21
86.0047258827
 31
0.0
  0
SPLINE
  5
19A
330
1F
100
AcDbEntity
  8
0
  6
Continuous
 62
     8
370
    15
100
AcDbSpline
210
0.0
220
0.0
230
1.0
 70
     8
 71
     3
 72
    24
 73
    20
 74
     0
 42
0.000000001
 43
0.00000001
 40
0.0
 40
0.0
 40
0.0
 40
0.0
 40
0.0627671613560092
 40
0.1261211080250378
 40
0.1911179844352707
 40
0.2565938860459065
 40
0.3356462124957015
 40
0.4153203860808443
 40
0.4967092143703832
 40
0.5786012530189432
 40
0.6400006153418625
 40
0.7015985324417202
 40
0.7638889099571442
 40
0.8265139914190114
 40
0.8740312061299012
 40
0.9221117559759735
 40
0.9597294931839548
 40
0.9982861082943151
 40
1.0
 40
1.0
 40
1.0
 40
1.0
 10
173.3713185887657
 20
118.7995620103757
 30
0.0
 10
172.9248403633474
 20
118.9667155813643
 30
0.0
 10
172.0277099645483
 20
119.3025853758233
 30
0.0
 10
170.7681321424901
 20
119.9198130552318
 30
0.0
 10
169.5729410910941
 20
120.6122625484264
 30
0.0
 10
168.3809806906619
 20
121.4305234083368
 30
0.0
 10
167.2217415857116
 20
122.3719358564294
 30
0.0
 10
166.115923844772
 20
123.4401132300807
 30
0.0
 10
165.1325940885344
 20
124.5649762399372
 30
0.0
 10
164.346769430288
 20
125.6300796284908
 30
0.0
 10
163.7266749326627
 20
126.6055539248459
 30
0.0
 10
163.2397582402087
 20
127.4794530278227
 30
0.0
 10
162.8245446240304
 20
128.3334130570511
 30
0.0
 10
162.5116560487171
 20
129.0743876461969
 30
0.0
 10
162.2869799707292
 20
129.6734792685676
 30
0.0
 10
162.1460788054831
 20
130.0885349152303
 30
0.0
 10
162.0702337253737
 20
130.3265995425111
 30
0.0
 10
162.0404043569579
 20
130.4232982501094
 30
0.0
 10
162.0484838343628
 20
130.3973501465684
 30
0.0
 10
162.048827692695
 20
130.3962458088545
 30
0.0
  0
SPLINE
  5
19B
330
1F
100
AcDbEntity
  8
0
  6
Continuous
 62
     8
370
    15
100
AcDbSpline
210
0.0
220
0.0
230
1.0
 70
     8
 71
     3
 72
    26
 73
    22
 74
     0
 42
0.000000001
 43
0.00000001
 40
0.0
 40
0.0
 40
0.0
 40
0.0
 40
0.0359694829221745
 40
0.0747391053950907
 40
0.1207868387656333
 40
0.1597832095417032
 40
0.1990083899958796
 40
0.2703720709029429
 40
0.3421999983894595
 40
0.4151325009347325
 40
0.4883941974523335
 40
0.5723655855476425
 40
0.6569278582486417
 40
0.7002556510271828
 40
0.7436881843193002
 40
0.7874695044592522
 40
0.8313829770182758
 40
0.8731492826597826
 40
0.9150567503512116
 40
0.9574382472644614
 40
0.9999999999999999
 40
0.9999999999999999
 40
0.9999999999999999
 40
0.9999999999999999
 10
197.0467506613071
 20
130.3962458088545
 30
0.0
 10
197.0428874939156
 20
130.3836352892075
 30
0.0
 10
197.0348604206476
 20
130.357432550652
 30
0.0
 10
196.9579186676389
 20
130.1140263252745
 30
0.0
 10
196.8338664900512
 20
129.746704585114
 30
0.0
 10
196.6658052814255
 20
129.2901683437129
 30
0.0
 10
196.4212188062407
 20
128.6797103199679
 30
0.0
 10
196.0537075226372
 20
127.8651849013904
 30
0.0
 10
195.5177333466882
 20
126.8531245064876
 30
0.0
 10
194.8748653656427
 20
125.8148961906702
 30
0.0
 10
194.0859126697746
 20
124.722449247313
 30
0.0
 10
193.1296321029295
 20
123.5970118722137
 30
0.0
 10
192.1683127370248
 20
122.6486275806928
 30
0.0
 10
191.3136079335366
 20
121.9155296566356
 30
0.0
 10
190.6217600925777
 20
121.3770842593605
 30
0.0
 10
189.8856293787497
 20
120.8596486189913
 30
0.0
 10
189.1178723008531
 20
120.3753437854095
 30
0.0
 10
188.32231231644
 20
119.926689488968
 30
0.0
 10
187.4986151253258
 20
119.5152904109784
 30
0.0
 10
186.6356137456869
 20
119.1331753988074
 30
0.0
 10
186.0284738905266
 20
118.91092368468
 30
0.0
 10
185.7242597652363
 20
118.7995620103757
 30
0.0
  0
LINE
  5
19C
330
1F
100
AcDbEntity
  8
0
  6
Continuous
 62
     8
370
    15
100
AcDbLine
 10
184.8950113992
 20
91.0047258827
 30
0.0
 11
197.047789177
 21
91.0047258827
 31
0.0
  0
LINE
  5
19D
330
1F
100
AcDbEntity
  8
0
  6
Continuous
 62
     8
370
    15
100
AcDbLine
 10
162.047789177
 20
91.0047258827
 30
0.0
 11
174.2005669548
 21
91.0047258827
 31
0.0
  0
SPLINE
  5
19E
330
1F
100
AcDbEntity
  8
0
  6
Continuous
 62
     7
370
    15
100
AcDbSpline
210
0.0
220
0.0
230
1.0
 70
     8
 71
     3
 72
    67
 73
    63
 74
     0
 42
0.000000001
 43
0.00000001
 40
0.0
 40
0.0
 40
0.0
 40
0.0
 40
0.001287006545651
 40
0.0176821787471521
 40
0.034202187439943
 40
0.0508968311619276
 40
0.0682337310083058
 40
0.0859630145421541
 40
0.1041118414408639
 40
0.1226955632750774
 40
0.1417201620229861
 40
0.1611803726059468
 40
0.1810577186963769
 40
0.2013601095811386
 40
0.222305415067952
 40
0.24349555425318
 40
0.2650533603901696
 40
0.2869212454871879
 40
0.3090275571579141
 40
0.3312868874068745
 40
0.353640178655079
 40
0.3723578790656844
 40
0.3897805973138418
 40
0.4061459854581687
 40
0.4210016740039236
 40
0.4342936286622603
 40
0.4465170708232858
 40
0.4578830614590585
 40
0.4685706724063434
 40
0.4787312569538741
 40
0.4884978929534428
 40
0.498979888682217
 40
0.509033123000247
 40
0.5188682754537636
 40
0.5290195271426857
 40
0.5396021314394857
 40
0.5507420898718663
 40
0.5625751692895794
 40
0.575252016659479
 40
0.5889518901685378
 40
0.6041958135282238
 40
0.6211000760237461
 40
0.6390969600246892
 40
0.6583897863882586
 40
0.6791757451831203
 40
0.7013990862020608
 40
0.7236657951705135
 40
0.7458427325362226
 40
0.7678044605245645
 40
0.7894435571392724
 40
0.8106715652317202
 40
0.8314936474899578
 40
0.8520912755919291
 40
0.8721900926055369
 40
0.8918181099156249
 40
0.910961069786337
 40
0.9296203857753943
 40
0.9478108883106894
 40
0.9655582812392757
 40
0.9828939911198936
 40
0.9997114994856469
 40
0.9999999999999999
 40
0.9999999999999999
 40
0.9999999999999999
 40
0.9999999999999999
 10
250.9126785586826
 20
119.1641479888833
 30
0.0
 10
250.9060942594195
 20
119.1704185745592
 30
0.0
 10
250.8156325932475
 20
119.256570130778
 30
0.0
 10
250.6142131721772
 20
119.4480458575132
 30
0.0
 10
250.3059665334876
 20
119.7407501255443
 30
0.0
 10
249.9632767840433
 20
120.0656234470022
 30
0.0
 10
249.5884521249945
 20
120.4201350609353
 30
0.0
 10
249.1785034377396
 20
120.8066884188046
 30
0.0
 10
248.7354777921315
 20
121.2228820053235
 30
0.0
 10
248.2591616485494
 20
121.6683974796234
 30
0.0
 10
247.7496853435433
 20
122.1424992003145
 30
0.0
 10
247.2075366582857
 20
122.6441415752782
 30
0.0
 10
246.6328619398081
 20
123.172133848809
 30
0.0
 10
246.0248342974849
 20
123.727508663303
 30
0.0
 10
245.384742738927
 20
124.3080010593477
 30
0.0
 10
244.712192444319
 20
124.9101129333859
 30
0.0
 10
244.01003451992
 20
125.527921465836
 30
0.0
 10
243.277555930906
 20
126.1582135135783
 30
0.0
 10
242.5164867870768
 20
126.7957175053011
 30
0.0
 10
241.7284192725275
 20
127.4345663757487
 30
0.0
 10
240.9607165776113
 20
128.0356069803739
 30
0.0
 10
240.2307287153207
 20
128.5789269221812
 30
0.0
 10
239.5547086919126
 20
129.0490972040841
 30
0.0
 10
238.9079029287255
 20
129.4631208431838
 30
0.0
 10
238.2978397819205
 20
129.81949067124
 30
0.0
 10
237.7269313673676
 20
130.1170596996673
 30
0.0
 10
237.1888094732186
 20
130.3597494966556
 30
0.0
 10
236.673971475328
 20
130.554018543699
 30
0.0
 10
236.1775696115072
 20
130.7033800280656
 30
0.0
 10
235.6957931088591
 20
130.81052281872
 30
0.0
 10
235.2098506636807
 20
130.879566544899
 30
0.0
 10
234.7209972584086
 20
130.9069381924361
 30
0.0
 10
234.2306227920816
 20
130.8891575738078
 30
0.0
 10
233.7492065444891
 20
130.8303527282743
 30
0.0
 10
233.2661431764355
 20
130.7319693439285
 30
0.0
 10
232.7723693232705
 20
130.5922983435035
 30
0.0
 10
232.2651353730805
 20
130.4099583142842
 30
0.0
 10
231.7411138504968
 20
130.1830417239522
 30
0.0
 10
231.1961249136825
 20
129.9090806239883
 30
0.0
 10
230.6205023883852
 20
129.5829966993298
 30
0.0
 10
230.0044101294004
 20
129.2004599892289
 30
0.0
 10
229.3513588856244
 20
128.7587202843474
 30
0.0
 10
228.6671725444243
 20
128.2614591018873
 30
0.0
 10
227.9549179653596
 20
127.7141369286292
 30
0.0
 10
227.2092334086638
 20
127.120258836332
 30
0.0
 10
226.4482459054686
 20
126.4932008366559
 30
0.0
 10
225.6922981538698
 20
125.851325991161
 30
0.0
 10
224.9603312637867
 20
125.2140044330363
 30
0.0
 10
224.2559968251997
 20
124.588248486148
 30
0.0
 10
223.5821711506267
 20
123.9804143189905
 30
0.0
 10
222.9402978138211
 20
123.3955415205831
 30
0.0
 10
222.3286251672505
 20
122.8352279383037
 30
0.0
 10
221.7497365331164
 20
122.3007283720109
 30
0.0
 10
221.2046115231614
 20
121.794266733098
 30
0.0
 10
220.6959977664454
 20
121.3190823040387
 30
0.0
 10
220.2240761360938
 20
120.8760868027987
 30
0.0
 10
219.7889946208742
 20
120.4660376516126
 30
0.0
 10
219.391032889406
 20
120.0897504034838
 30
0.0
 10
219.0284835779178
 20
119.7460982150985
 30
0.0
 10
218.7066923714379
 20
119.4405387153591
 30
0.0
 10
218.5036015156367
 20
119.2474728883678
 30
0.0
 10
218.4163818152406
 20
119.1644027927395
 30
0.0
 10
218.4149108158624
 20
119.1630017783075
 30
0.0
  0
LINE
  5
19F
330
1F
100
AcDbEntity
  8
0
  6
Continuous
 62
     7
370
    15
100
AcDbLine
 10
252.1644089245
 20
111.0047258827
 30
0.0
 11
252.1644089245
 21
115.0047258827
 31
0.0
  0
LINE
  5
1A0
330
1F
100
AcDbEntity
  8
0
  6
Continuous
 62
     7
370
    15
100
AcDbLine
 10
251.0703826451
 20
115.1784745265
 30
0.0
 11
251.0703826451
 21
118.7995620104
 31
0.0
  0
ARC
  5
1A1
330
1F
100
AcDbEntity
  8
0
  6
Continuous
 62
     7
370
    15
100
AcDbCircle
 10
251.6644089245
 20
115.0047258827
 30
0.0
 40
0.5000000000000568
100
AcDbArc
 50
0.0
 51
90.0
  0
LINE
  5
1A2
330
1F
100
AcDbEntity
  8
0
  6
Continuous
 62
     7
370
    15
100
AcDbLine
 10
218.2584352039
 20
118.7995620104
 30
0.0
 11
218.2584352039
 21
115.5047258827
 31
0.0
  0
ARC
  5
1A3
330
1F
100
AcDbEntity
  8
0
  6
Continuous
 62
     7
370
    15
100
AcDbCircle
 10
218.7584352039
 20
118.7995620104
 30
0.0
 40
0.5
100
AcDbArc
 50
133.5961526473
 51
180.0
  0
ARC
  5
1A4
330
1F
100
AcDbEntity
  8
0
  6
Continuous
 62
     7
370
    15
100
AcDbCircle
 10
250.5703826451
 20
118.7995620104
 30
0.0
 40
0.5000000000000568
100
AcDbArc
 50
0.0
 51
46.4038473527
  0
LINE
  5
1A5
330
1F
100
AcDbEntity
  8
0
  6
Continuous
 62
     7
370
    15
100
AcDbLine
 10
251.8035454255
 20
90.5047258827
 30
0.0
 11
217.5252724235
 21
90.5047258827
 31
0.0
  0
SPLINE
  5
1A6
330
1F
100
AcDbEntity
  8
0
  6
Continuous
 62
     7
370
    15
100
AcDbSpline
210
0.0
220
0.0
230
1.0
 70
     8
 71
     3
 72
    24
 73
    20
 74
     0
 42
0.000000001
 43
0.00000001
 40
0.0
 40
0.0
 40
0.0
 40
0.0
 40
0.0593510391352149
 40
0.1190173683651378
 40
0.1796957079133044
 40
0.2407362169262371
 40
0.2984090752767087
 40
0.3564300143533401
 40
0.4156127762443667
 40
0.475230727742867
 40
0.5290525085927292
 40
0.5832585427240788
 40
0.6387696810696895
 40
0.6947767123373108
 40
0.7945673144240267
 40
0.8453961157047942
 40
0.8971793433882339
 40
0.9483243260030325
 40
0.9999999999999999
 40
0.9999999999999999
 40
0.9999999999999999
 40
0.9999999999999999
 10
251.8035454255366
 20
90.50472588266383
 30
0.0
 10
251.8199057415032
 20
90.50437425842462
 30
0.0
 10
251.8527132842244
 20
90.50366914201528
 30
0.0
 10
251.9020198747269
 20
90.4978946170649
 30
0.0
 10
251.9512711937057
 20
90.48850437587801
 30
0.0
 10
251.9991653586258
 20
90.47528493612728
 30
0.0
 10
252.0452513452204
 20
90.45854760065593
 30
0.0
 10
252.0894902294171
 20
90.43836782325768
 30
0.0
 10
252.1324830446198
 20
90.41426513326373
 30
0.0
 10
252.1723617765369
 20
90.38709717887507
 30
0.0
 10
252.2087662694142
 20
90.35739870711129
 30
0.0
 10
252.2417853625709
 20
90.32542852162126
 30
0.0
 10
252.272312698858
 20
90.29006259445202
 30
0.0
 10
252.3069234408991
 20
90.24139468448045
 30
0.0
 10
252.3342314425001
 20
90.18918368487262
 30
0.0
 10
252.3536323607205
 20
90.13495079918782
 30
0.0
 10
252.36428675001
 20
90.09243925756455
 30
0.0
 10
252.3710792107488
 20
90.04879861423204
 30
0.0
 10
252.3719245610092
 20
90.01946725613014
 30
0.0
 10
252.3723494177053
 20
90.00472588266383
 30
0.0
  0
LINE
  5
1A7
330
1F
100
AcDbEntity
  8
0
  6
Continuous
 62
     7
370
    15
100
AcDbLine
 10
252.3723494177
 20
90.0047258827
 30
0.0
 11
216.9564684314
 21
90.0047258827
 31
0.0
  0
SPLINE
  5
1A8
330
1F
100
AcDbEntity
  8
0
  6
Continuous
 62
     7
370
    15
100
AcDbSpline
210
0.0
220
0.0
230
1.0
 70
     8
 71
     3
 72
    12
 73
     8
 74
     0
 42
0.000000001
 43
0.00000001
 40
0.0
 40
0.0
 40
0.0
 40
0.0
 40
0.1833067835326325
 40
0.4061255648979166
 40
0.6128406149177716
 40
0.8086812095542422
 40
1.0
 40
1.0
 40
1.0
 40
1.0
 10
217.5252724235314
 20
90.50472588266383
 30
0.0
 10
217.4748531220035
 20
90.5013511911354
 30
0.0
 10
217.3631465778146
 20
90.4938743892575
 30
0.0
 10
217.2029890049688
 20
90.42806115656452
 30
0.0
 10
217.067128261289
 20
90.3159063086203
 30
0.0
 10
216.9745369126858
 20
90.1699141647503
 30
0.0
 10
216.9624441796937
 20
90.0593582329608
 30
0.0
 10
216.9564684313628
 20
90.00472588266383
 30
0.0
  0
LINE
  5
1A9
330
1F
100
AcDbEntity
  8
0
  6
Continuous
 62
     7
370
    15
100
AcDbLine
 10
252.3723494177
 20
86.0047258827
 30
0.0
 11
252.3723494177
 21
90.0047258827
 31
0.0
  0
LINE
  5
1AA
330
1F
100
AcDbEntity
  8
0
  6
Continuous
 62
     7
370
    15
100
AcDbLine
 10
216.9564684314
 20
86.0047258827
 30
0.0
 11
252.3723494177
 21
86.0047258827
 31
0.0
  0
LINE
  5
1AB
330
1F
100
AcDbEntity
  8
0
  6
Continuous
 62
     7
370
    15
100
AcDbLine
 10
216.9564684314
 20
90.0047258827
 30
0.0
 11
216.9564684314
 21
86.0047258827
 31
0.0
  0
ARC
  5
1AC
330
1F
100
AcDbEntity
  8
0
  6
Continuous
 62
     7
370
    15
100
AcDbCircle
 10
251.8828135457
 20
85.9942515059
 30
0.0
 40
0.4896479169617119
100
AcDbArc
 50
271.2805800864
 51
1.2257447426
  0
LINE
  5
1AD
330
1F
100
AcDbEntity
  8
0
  6
Continuous
 62
     7
370
    15
100
AcDbLine
 10
251.8937564314
 20
85.5047258827
 30
0.0
 11
217.4350614177
 21
85.5047258827
 31
0.0
  0
ARC
  5
1AE
330
1F
100
AcDbEntity
  8
0
  6
Continuous
 62
     7
370
    15
100
AcDbCircle
 10
217.4460043034
 20
85.9942515059
 30
0.0
 40
0.489647916961728
100
AcDbArc
 50
178.7742552574
 51
268.7194199136
  0
ARC
  5
1AF
330
1F
100
AcDbEntity
  8
0
  6
Continuous
 62
     7
370
    15
100
AcDbCircle
 10
217.5130157124
 20
90.993055358
 30
0.0
 40
0.4884832683132587
100
AcDbArc
 50
271.4377801046
 51
1.3690037752
  0
LINE
  5
1B0
330
1F
100
AcDbEntity
  8
0
  6
Continuous
 62
     7
370
    15
100
AcDbLine
 10
218.0013595486
 20
91.0047258827
 30
0.0
 11
251.3274583005
 21
91.0047258827
 31
0.0
  0
ARC
  5
1B1
330
1F
100
AcDbEntity
  8
0
  6
Continuous
 62
     7
370
    15
100
AcDbCircle
 10
251.8158021366
 20
90.993055358
 30
0.0
 40
0.4884832683133183
100
AcDbArc
 50
178.6309962248
 51
268.5622198954
  0
SPLINE
  5
1B2
330
1F
100
AcDbEntity
  8
0
  6
Continuous
 62
     7
370
    15
100
AcDbSpline
210
0.0
220
0.0
230
1.0
 70
     8
 71
     3
 72
    42
 73
    38
 74
     0
 42
0.000000001
 43
0.00000001
 40
0.0
 40
0.0
 40
0.0
 40
0.0
 40
0.0313826490648854
 40
0.0630586820769987
 40
0.0955561555747513
 40
0.1282931345628384
 40
0.1678181244642522
 40
0.2076540287036577
 40
0.2483472348457303
 40
0.2892920386984816
 40
0.3199908085481946
 40
0.3507888528393543
 40
0.3819331170605469
 40
0.4132447282871629
 40
0.437002630374763
 40
0.4610421916687287
 40
0.4798505019365331
 40
0.4991282372203583
 40
0.5179703621977849
 40
0.5373556725873233
 40
0.5584770595754808
 40
0.5789172008991503
 40
0.5994938823509783
 40
0.6351766416012089
 40
0.6710915301182712
 40
0.7075587203859499
 40
0.7441905118781158
 40
0.78617728704481
 40
0.8284595121219003
 40
0.8501239663500109
 40
0.871840792183428
 40
0.8937320159313408
 40
0.9156893175902319
 40
0.9365730081459124
 40
0.9575272815439942
 40
0.9787185756560415
 40
1.0
 40
1.0
 40
1.0
 40
1.0
 10
251.0382054016088
 20
118.7995620103757
 30
0.0
 10
250.8573470687054
 20
118.966715581433
 30
0.0
 10
250.4939396300297
 20
119.30258537603
 30
0.0
 10
249.8231291367392
 20
119.9198130543868
 30
0.0
 10
249.066857302532
 20
120.6122625516961
 30
0.0
 10
248.1673167098901
 20
121.4305233949621
 30
0.0
 10
247.1228385289054
 20
122.3719359181841
 30
0.0
 10
245.9212326910672
 20
123.4401129969422
 30
0.0
 10
244.630871126597
 20
124.5649771325817
 30
0.0
 10
243.373573447803
 20
125.6300766314858
 30
0.0
 10
242.1766913774474
 20
126.605562054207
 30
0.0
 10
241.0524345424239
 20
127.4794221402568
 30
0.0
 10
239.8721169448044
 20
128.3335301077987
 30
0.0
 10
238.7239443746031
 20
129.0739931580007
 30
0.0
 10
237.6093585788558
 20
129.674567464759
 30
0.0
 10
236.6146849736624
 20
130.0847635005143
 30
0.0
 10
235.6379387081159
 20
130.3374255388105
 30
0.0
 10
234.7133418704628
 20
130.4264821308356
 30
0.0
 10
233.7780148374613
 20
130.3528015487204
 30
0.0
 10
232.8409057905939
 20
130.1240363405523
 30
0.0
 10
231.9240206631978
 20
129.7649598769294
 30
0.0
 10
231.0357379917017
 20
129.313470423883
 30
0.0
 10
229.987253914148
 20
128.6882284620673
 30
0.0
 10
228.7913452356974
 20
127.8652134211159
 30
0.0
 10
227.4606159370602
 20
126.8531167160769
 30
0.0
 10
226.1777218608033
 20
125.814898292733
 30
0.0
 10
224.8815191037751
 20
124.7224485897112
 30
0.0
 10
223.5854449808704
 20
123.597012063964
 30
0.0
 10
222.5165228797669
 20
122.6486275561729
 30
0.0
 10
221.6995354583294
 20
121.9155296613328
 30
0.0
 10
221.1034304783953
 20
121.3770842580894
 30
0.0
 10
220.5337850538986
 20
120.8596486193347
 30
0.0
 10
220.0031509714937
 20
120.3753437853224
 30
0.0
 10
219.5135096508235
 20
119.9266894889909
 30
0.0
 10
219.0660074960109
 20
119.5152904109722
 30
0.0
 10
218.6514910783951
 20
119.133175398809
 30
0.0
 10
218.4110753843654
 20
118.9109236846806
 30
0.0
 10
218.2906124474593
 20
118.7995620103757
 30
0.0
  0
LINE
  5
1B3
330
1F
100
AcDbEntity
  8
0
  6
Continuous
 62
     7
370
    15
100
AcDbLine
 10
218.2906124475
 20
118.7995620104
 30
0.0
 11
218.2906124475
 21
115.5047258827
 31
0.0
  0
LINE
  5
1B4
330
1F
100
AcDbEntity
  8
0
  6
Continuous
 62
     7
370
    15
100
AcDbLine
 10
251.0382054016
 20
115.0047258827
 30
0.0
 11
251.0382054016
 21
118.7995620104
 31
0.0
  0
SPLINE
  5
1B5
330
1F
100
AcDbEntity
  8
0
  6
Continuous
 62
     7
370
    15
100
AcDbSpline
210
0.0
220
0.0
230
1.0
 70
     8
 71
     3
 72
    17
 73
    13
 74
     0
 42
0.000000001
 43
0.00000001
 40
0.0
 40
0.0
 40
0.0
 40
0.0
 40
0.1038317081233187
 40
0.2106035169321635
 40
0.3137969373635696
 40
0.4197250310597888
 40
0.5250338631140705
 40
0.6332611610179975
 40
0.7397335311005343
 40
0.8495799137648672
 40
0.9241690777632592
 40
1.0
 40
1.0
 40
1.0
 40
1.0
 10
251.3274583005088
 20
105.5047258826638
 30
0.0
 10
251.3318302234424
 20
105.8013497286551
 30
0.0
 10
251.3406978647651
 20
106.4029966272836
 30
0.0
 10
251.4098588539222
 20
107.2748765250499
 30
0.0
 10
251.5120919746967
 20
108.1039097903011
 30
0.0
 10
251.6393147806463
 20
108.8608039416031
 30
0.0
 10
251.7796977534935
 20
109.5404035510079
 30
0.0
 10
251.9169554767216
 20
110.112689101004
 30
0.0
 10
252.03748856499
 20
110.5654495580392
 30
0.0
 10
252.1154870348365
 20
110.8387264997229
 30
0.0
 10
252.157436773291
 20
110.9813401978468
 30
0.0
 10
252.1620721187787
 20
110.9968878709847
 30
0.0
 10
252.1644089245341
 20
111.0047258826638
 30
0.0
  0
LINE
  5
1B6
330
1F
100
AcDbEntity
  8
0
  6
Continuous
 62
     7
370
    15
100
AcDbLine
 10
251.3274583005
 20
91.0047258827
 30
0.0
 11
251.3274583005
 21
105.5047258827
 31
0.0
  0
LINE
  5
1B7
330
1F
100
AcDbEntity
  8
0
  6
Continuous
 62
     7
370
    15
100
AcDbLine
 10
218.0013595486
 20
115.0047258827
 30
0.0
 11
218.0013595486
 21
91.0047258827
 31
0.0
  0
SPLINE
  5
1B8
330
1F
100
AcDbEntity
  8
0
  6
Continuous
 62
     7
370
    15
100
AcDbSpline
210
0.0
220
0.0
230
1.0
 70
     8
 71
     3
 72
    11
 73
     7
 74
     0
 42
0.000000001
 43
0.00000001
 40
0.0
 40
0.0
 40
0.0
 40
0.0
 40
0.1886162734505131
 40
0.379128365334208
 40
0.6852844646003013
 40
1.0
 40
1.0
 40
1.0
 40
1.0
 10
217.9601210628654
 20
115.5047258826638
 30
0.0
 10
217.9648760643688
 20
115.4758333555617
 30
0.0
 10
217.9744338608103
 20
115.417757897012
 30
0.0
 10
217.9877068306754
 20
115.3061991394896
 30
0.0
 10
217.9989427371916
 20
115.1683697807572
 30
0.0
 10
218.000546574517
 20
115.0597728934087
 30
0.0
 10
218.0013595485593
 20
115.0047258826638
 30
0.0
  0
LINE
  5
1B9
330
1F
100
AcDbEntity
  8
0
  6
Continuous
 62
     7
370
    15
100
AcDbLine
 10
218.2906124475
 20
115.5047258827
 30
0.0
 11
217.9601210629
 21
115.5047258827
 31
0.0
  0
SPLINE
  5
1BA
330
1F
100
AcDbEntity
  8
0
  6
Continuous
 62
     7
370
    15
100
AcDbSpline
210
0.0
220
0.0
230
1.0
 70
     8
 71
     3
 72
    10
 73
     6
 74
     0
 42
0.000000001
 43
0.00000001
 40
0.0
 40
0.0
 40
0.0
 40
0.0
 40
0.0180828648939252
 40
0.981833549844946
 40
1.0
 40
1.0
 40
1.0
 40
1.0
 10
251.0697148252573
 20
115.1784745264669
 30
0.0
 10
251.0699372373355
 20
115.177503682922
 30
0.0
 10
251.0820134012388
 20
115.1247904226222
 30
0.0
 10
251.0589415353887
 20
115.0631540466503
 30
0.0
 10
251.0385820720654
 20
115.0057872262799
 30
0.0
 10
251.0382054016088
 20
115.0047258826638
 30
0.0
  0
LINE
  5
1BB
330
1F
100
AcDbEntity
  8
0
  6
Continuous
 62
     7
370
    15
100
AcDbLine
 10
251.0703826451
 20
115.5047258827
 30
0.0
 11
251.6644089245
 21
115.5047258827
 31
0.0
  0
SPLINE
  5
1BC
330
1F
100
AcDbEntity
  8
0
  6
Continuous
 62
     7
370
    15
100
AcDbSpline
210
0.0
220
0.0
230
1.0
 70
     8
 71
     3
 72
    17
 73
    13
 74
     0
 42
0.000000001
 43
0.00000001
 40
0.0
 40
0.0
 40
0.0
 40
0.0
 40
0.0755416022318911
 40
0.1523063614545865
 40
0.2597999906246293
 40
0.3706714076242482
 40
0.4762123765675878
 40
0.5846777189903957
 40
0.687119753310537
 40
0.7923332121136939
 40
0.8946281919132173
 40
1.0
 40
1.0
 40
1.0
 40
1.0
 10
252.664408924534
 20
110.5047258826638
 30
0.0
 10
252.6620808898824
 20
110.4978230441263
 30
0.0
 10
252.6573871254316
 20
110.483905597444
 30
0.0
 10
252.6150424021272
 20
110.3567139538964
 30
0.0
 10
252.5352444227887
 20
110.1096805320016
 30
0.0
 10
252.4128727295684
 20
109.7042803870863
 30
0.0
 10
252.270530037531
 20
109.1805391151335
 30
0.0
 10
252.1273123047337
 20
108.5699269835771
 30
0.0
 10
251.9949305835015
 20
107.8763058066657
 30
0.0
 10
251.8901949306317
 20
107.1304324167173
 30
0.0
 10
251.8177118405474
 20
106.3304589708323
 30
0.0
 10
251.8083139773478
 20
105.7826755975446
 30
0.0
 10
251.8035454255366
 20
105.5047258826638
 30
0.0
  0
LINE
  5
1BD
330
1F
100
AcDbEntity
  8
0
  6
Continuous
 62
     7
370
    15
100
AcDbLine
 10
251.8035454255
 20
105.5047258827
 30
0.0
 11
251.3274583005
 21
105.5047258827
 31
0.0
  0
ARC
  5
1BE
330
1F
100
AcDbEntity
  8
0
  6
Continuous
 62
     7
370
    15
100
AcDbCircle
 10
252.6644089245
 20
111.0047258827
 30
0.0
 40
0.5
100
AcDbArc
 50
180.0
 51
270.0
  0
SPLINE
  5
1BF
330
1F
100
AcDbEntity
  8
0
  6
Continuous
 62
     7
370
    15
100
AcDbSpline
210
0.0
220
0.0
230
1.0
 70
     8
 71
     3
 72
    24
 73
    20
 74
     0
 42
0.000000001
 43
0.00000001
 40
0.0
 40
0.0
 40
0.0
 40
0.0
 40
0.0545022485377865
 40
0.1092919865055183
 40
0.2142857127250221
 40
0.3213335033120328
 40
0.4243468042911725
 40
0.5082058254662496
 40
0.5435232138284958
 40
0.5715343505673621
 40
0.6278910738192721
 40
0.6849780436341039
 40
0.7428036757158208
 40
0.7719024129435591
 40
0.7999176696711943
 40
0.8562570504112701
 40
0.9132728452034274
 40
0.9709750693501665
 40
1.0
 40
1.0
 40
1.0
 40
1.0
 10
252.8509424040072
 20
90.00472588266383
 30
0.0
 10
252.8501661474521
 20
90.03394273253402
 30
0.0
 10
252.84860953973
 20
90.09253054583365
 30
0.0
 10
252.8323077600876
 20
90.20640943620491
 30
0.0
 10
252.7940457001311
 20
90.34492916473917
 30
0.0
 10
252.7205894827324
 20
90.4979320708427
 30
0.0
 10
252.6288951611554
 20
90.62687612850593
 30
0.0
 10
252.5459694564533
 20
90.71282457199665
 30
0.0
 10
252.4861296448356
 20
90.76425560858411
 30
0.0
 10
252.4354800953876
 20
90.80362644351041
 30
0.0
 10
252.3726434135376
 20
90.84620456876202
 30
0.0
 10
252.2923982604942
 20
90.89096783314491
 30
0.0
 10
252.221900957557
 20
90.9226173386765
 30
0.0
 10
252.1641764154564
 20
90.94414505092078
 30
0.0
 10
252.1063480199777
 20
90.96295051751066
 30
0.0
 10
252.0328914278514
 20
90.98187434044571
 30
0.0
 10
251.9424252976436
 20
90.997176564152
 30
0.0
 10
251.8655741705064
 20
91.0039317741006
 30
0.0
 10
251.8190991843661
 20
91.00452675928832
 30
0.0
 10
251.8035454255367
 20
91.00472588266383
 30
0.0
  0
LINE
  5
1C0
330
1F
100
AcDbEntity
  8
0
  6
Continuous
 62
     7
370
    15
100
AcDbLine
 10
252.850942404
 20
90.0047258827
 30
0.0
 11
252.3723494177
 21
90.0047258827
 31
0.0
  0
LINE
  5
1C1
330
1F
100
AcDbEntity
  8
0
  6
Continuous
 62
     7
370
    15
100
AcDbLine
 10
251.8035454255
 20
91.0047258827
 30
0.0
 11
251.8035454255
 21
90.5047258827
 31
0.0
  0
LINE
  5
1C2
330
1F
100
AcDbEntity
  8
0
  6
Continuous
 62
     7
370
    15
100
AcDbLine
 10
216.9564684314
 20
90.0047258827
 30
0.0
 11
216.4778754451
 21
90.0047258827
 31
0.0
  0
SPLINE
  5
1C3
330
1F
100
AcDbEntity
  8
0
  6
Continuous
 62
     7
370
    15
100
AcDbSpline
210
0.0
220
0.0
230
1.0
 70
     8
 71
     3
 72
    12
 73
     8
 74
     0
 42
0.000000001
 43
0.00000001
 40
0.0
 40
0.0
 40
0.0
 40
0.0
 40
0.17313263042835
 40
0.3879763186902686
 40
0.5943641912847576
 40
0.797117869412274
 40
1.0
 40
1.0
 40
1.0
 40
1.0
 10
217.5252724235314
 20
91.00472588266383
 30
0.0
 10
217.43263914385
 20
90.99787323638361
 30
0.0
 10
217.2250554044354
 20
90.9825170064776
 30
0.0
 10
216.9285026322057
 20
90.84810352102318
 30
0.0
 10
216.678776133897
 20
90.62222158435016
 30
0.0
 10
216.5104249443347
 20
90.33109401473196
 30
0.0
 10
216.4887275684507
 20
90.11353822444256
 30
0.0
 10
216.4778754450608
 20
90.00472588266383
 30
0.0
  0
LINE
  5
1C4
330
1F
100
AcDbEntity
  8
0
  6
Continuous
 62
     7
370
    15
100
AcDbLine
 10
217.5252724235
 20
90.5047258827
 30
0.0
 11
217.5252724235
 21
91.0047258827
 31
0.0
  0
LINE
  5
1C5
330
1F
100
AcDbEntity
  8
0
  6
Continuous
 62
     7
370
    15
100
AcDbLine
 10
218.0013595486
 20
91.0047258827
 30
0.0
 11
217.5252724235
 21
91.0047258827
 31
0.0
  0
LINE
  5
1C6
330
1F
100
AcDbEntity
  8
0
  6
Continuous
 62
     7
370
    15
100
AcDbLine
 10
251.8035454255
 20
91.0047258827
 30
0.0
 11
251.3274583005
 21
91.0047258827
 31
0.0
  0
LINE
  5
1C7
330
1F
100
AcDbEntity
  8
0
  6
Continuous
 62
     7
370
    15
100
AcDbLine
 10
218.0013595486
 20
115.0047258827
 30
0.0
 11
217.5252724235
 21
115.0047258827
 31
0.0
  0
SPLINE
  5
1C8
330
1F
100
AcDbEntity
  8
0
  6
Continuous
 62
     7
370
    15
100
AcDbSpline
210
0.0
220
0.0
230
1.0
 70
     8
 71
     3
 72
    17
 73
    13
 74
     0
 42
0.000000001
 43
0.00000001
 40
0.0
 40
0.0
 40
0.0
 40
0.0
 40
0.0950353466473764
 40
0.1936448676787398
 40
0.2913690943199213
 40
0.3921617147571884
 40
0.4957271318299785
 40
0.6019435071278426
 40
0.7125582344501779
 40
0.8257590976851776
 40
0.9122986640033744
 40
0.9999999999999999
 40
0.9999999999999999
 40
0.9999999999999999
 40
0.9999999999999999
 10
217.5252724235314
 20
115.0047258826638
 30
0.0
 10
217.5244657847122
 20
115.0315348776372
 30
0.0
 10
217.5228221702789
 20
115.0861611242638
 30
0.0
 10
217.5097085250722
 20
115.1653469265705
 30
0.0
 10
217.4893893952868
 20
115.240274115873
 30
0.0
 10
217.4621666903179
 20
115.3085729658216
 30
0.0
 10
217.4290427981823
 20
115.3691705133178
 30
0.0
 10
217.3909346274168
 20
115.4206926389775
 30
0.0
 10
217.3489697925333
 20
115.4616435964793
 30
0.0
 10
217.3081518537255
 20
115.4877453221912
 30
0.0
 10
217.2701008488457
 20
115.5022284559261
 30
0.0
 10
217.2474066327136
 20
115.5038897148779
 30
0.0
 10
217.2359838666022
 20
115.5047258826638
 30
0.0
  0
SPLINE
  5
1C9
330
1F
100
AcDbEntity
  8
0
  6
Continuous
 62
     7
370
    15
100
AcDbSpline
210
0.0
220
0.0
230
1.0
 70
    24
 71
     3
 72
    11
 73
     7
 74
     0
 42
0.000000001
 43
0.00000001
 40
0.0
 40
0.0
 40
0.0
 40
0.0
 40
0.0045813489432637
 40
0.3849563577650364
 40
0.7559044513094011
 40
1.0
 40
1.0
 40
1.0
 40
1.0
 10
217.2359838666022
 20
115.5047258826638
 30
0.0
 10
217.2373252038274
 20
115.5047258826638
 30
0.0
 10
217.3500335565711
 20
115.504725882664
 30
0.0
 10
217.5706422721092
 20
115.5047258826638
 30
0.0
 10
217.8392472133978
 20
115.5047258826639
 30
0.0
 10
217.9257788178371
 20
115.5047258826638
 30
0.0
 10
217.9601210628654
 20
115.5047258826638
 30
0.0
  0
LINE
  5
1CA
330
1F
100
AcDbEntity
  8
0
  6
Continuous
 62
     7
370
    15
100
AcDbLine
 10
216.9564684314
 20
86.0047258827
 30
0.0
 11
216.4778754451
 21
86.0047258827
 31
0.0
  0
LINE
  5
1CB
330
1F
100
AcDbEntity
  8
0
  6
Continuous
 62
     7
370
    15
100
AcDbLine
 10
216.4778754451
 20
86.0047258827
 30
0.0
 11
216.4778754451
 21
90.0047258827
 31
0.0
  0
LINE
  5
1CC
330
1F
100
AcDbEntity
  8
0
  6
Continuous
 62
     7
370
    15
100
AcDbLine
 10
216.4778754451
 20
86.0047258827
 30
0.0
 11
216.4778754451
 21
85.5047258827
 31
0.0
  0
LINE
  5
1CD
330
1F
100
AcDbEntity
  8
0
  6
Continuous
 62
     7
370
    15
100
AcDbLine
 10
216.4778754451
 20
85.5047258827
 30
0.0
 11
217.4350614177
 21
85.5047258827
 31
0.0
  0
LINE
  5
1CE
330
1F
100
AcDbEntity
  8
0
  6
Continuous
 62
     7
370
    15
100
AcDbLine
 10
252.850942404
 20
86.0047258827
 30
0.0
 11
252.3723494177
 21
86.0047258827
 31
0.0
  0
LINE
  5
1CF
330
1F
100
AcDbEntity
  8
0
  6
Continuous
 62
     7
370
    15
100
AcDbLine
 10
252.850942404
 20
86.0047258827
 30
0.0
 11
252.850942404
 21
85.5047258827
 31
0.0
  0
LINE
  5
1D0
330
1F
100
AcDbEntity
  8
0
  6
Continuous
 62
     7
370
    15
100
AcDbLine
 10
251.8937564314
 20
85.5047258827
 30
0.0
 11
252.850942404
 21
85.5047258827
 31
0.0
  0
LINE
  5
1D1
330
1F
100
AcDbEntity
  8
0
  6
Continuous
 62
     7
370
    15
100
AcDbLine
 10
252.850942404
 20
90.0047258827
 30
0.0
 11
252.850942404
 21
86.0047258827
 31
0.0
  0
LINE
  5
1D2
330
1F
100
AcDbEntity
  8
0
  6
Continuous
 62
     7
370
    15
100
AcDbLine
 10
217.5252724235
 20
91.0047258827
 30
0.0
 11
217.5252724235
 21
115.0047258827
 31
0.0
  0
LINE
  5
1D3
330
1F
100
AcDbEntity
  8
0
  6
Continuous
 62
     7
370
    15
100
AcDbLine
 10
251.8035454255
 20
105.5047258827
 30
0.0
 11
251.8035454255
 21
91.0047258827
 31
0.0
  0
LINE
  5
1D4
330
1F
100
AcDbEntity
  8
0
  6
Continuous
 62
     7
370
    15
100
AcDbLine
 10
214.6644089245
 20
115.0047258827
 30
0.0
 11
215.1644089245
 21
115.0047258827
 31
0.0
  0
LINE
  5
1D5
330
1F
100
AcDbEntity
  8
0
  6
Continuous
 62
     7
370
    15
100
AcDbLine
 10
215.1644089245
 20
115.0047258827
 30
0.0
 11
215.1644089245
 21
86.0047258827
 31
0.0
  0
LINE
  5
1D6
330
1F
100
AcDbEntity
  8
0
  6
Continuous
 62
     7
370
    15
100
AcDbLine
 10
214.6644089245
 20
86.0047258827
 30
0.0
 11
215.1644089245
 21
86.0047258827
 31
0.0
  0
LINE
  5
1D7
330
1F
100
AcDbEntity
  8
0
  6
Continuous
 62
     7
370
    15
100
AcDbLine
 10
214.6644089245
 20
86.0047258827
 30
0.0
 11
214.6644089245
 21
115.0047258827
 31
0.0
  0
LINE
  5
1D8
330
1F
100
AcDbEntity
  8
0
  6
Continuous
 62
     7
370
    15
100
AcDbLine
 10
215.1644089245
 20
115.5047258827
 30
0.0
 11
215.1644089245
 21
115.0047258827
 31
0.0
  0
ARC
  5
1D9
330
1F
100
AcDbEntity
  8
0
  6
Continuous
 62
     7
370
    15
100
AcDbCircle
 10
215.1644089245
 20
115.0047258827
 30
0.0
 40
0.5
100
AcDbArc
 50
90.0
 51
180.0
  0
LINE
  5
1DA
330
1F
100
AcDbEntity
  8
0
  6
Continuous
 62
     7
370
    15
100
AcDbLine
 10
215.1644089245
 20
86.0047258827
 30
0.0
 11
215.1644089245
 21
85.5047258827
 31
0.0
  0
ARC
  5
1DB
330
1F
100
AcDbEntity
  8
0
  6
Continuous
 62
     7
370
    15
100
AcDbCircle
 10
215.1644089245
 20
86.0047258827
 30
0.0
 40
0.5
100
AcDbArc
 50
180.0
 51
270.0
  0
LINE
  5
1DC
330
1F
100
AcDbEntity
  8
0
  6
Continuous
 62
     7
370
    15
100
AcDbLine
 10
215.1644089245
 20
86.0047258827
 30
0.0
 11
216.4778754451
 21
86.0047258827
 31
0.0
  0
LINE
  5
1DD
330
1F
100
AcDbEntity
  8
0
  6
Continuous
 62
     7
370
    15
100
AcDbLine
 10
216.4778754451
 20
85.5047258827
 30
0.0
 11
215.1644089245
 21
85.5047258827
 31
0.0
  0
LINE
  5
1DE
330
1F
100
AcDbEntity
  8
0
  6
Continuous
 62
     7
370
    15
100
AcDbLine
 10
217.5252724235
 20
115.0047258827
 30
0.0
 11
215.1644089245
 21
115.0047258827
 31
0.0
  0
LINE
  5
1DF
330
1F
100
AcDbEntity
  8
0
  6
Continuous
 62
     7
370
    15
100
AcDbLine
 10
215.1644089245
 20
115.5047258827
 30
0.0
 11
217.2359838666
 21
115.5047258827
 31
0.0
  0
LINE
  5
1E0
330
1F
100
AcDbEntity
  8
0
  6
Continuous
 62
     7
370
    15
100
AcDbLine
 10
254.1644089245
 20
105.5047258827
 30
0.0
 11
251.8035454255
 21
105.5047258827
 31
0.0
  0
LINE
  5
1E1
330
1F
100
AcDbEntity
  8
0
  6
Continuous
 62
     7
370
    15
100
AcDbLine
 10
254.1644089245
 20
86.0047258827
 30
0.0
 11
254.1644089245
 21
105.5047258827
 31
0.0
  0
LINE
  5
1E2
330
1F
100
AcDbEntity
  8
0
  6
Continuous
 62
     7
370
    15
100
AcDbLine
 10
252.850942404
 20
86.0047258827
 30
0.0
 11
254.1644089245
 21
86.0047258827
 31
0.0
  0
LINE
  5
1E3
330
1F
100
AcDbEntity
  8
0
  6
Continuous
 62
     7
370
    15
100
AcDbLine
 10
254.1644089245
 20
105.5047258827
 30
0.0
 11
254.1644089245
 21
110.5047258827
 31
0.0
  0
LINE
  5
1E4
330
1F
100
AcDbEntity
  8
0
  6
Continuous
 62
     7
370
    15
100
AcDbLine
 10
252.6644089245
 20
110.5047258827
 30
0.0
 11
254.1644089245
 21
110.5047258827
 31
0.0
  0
LINE
  5
1E5
330
1F
100
AcDbEntity
  8
0
  6
Continuous
 62
     7
370
    15
100
AcDbLine
 10
254.1644089245
 20
86.0047258827
 30
0.0
 11
254.1644089245
 21
85.5047258827
 31
0.0
  0
LINE
  5
1E6
330
1F
100
AcDbEntity
  8
0
  6
Continuous
 62
     7
370
    15
100
AcDbLine
 10
254.1644089245
 20
85.5047258827
 30
0.0
 11
252.850942404
 21
85.5047258827
 31
0.0
  0
LINE
  5
1E7
330
1F
100
AcDbEntity
  8
0
  6
Continuous
 62
     7
370
    15
100
AcDbLine
 10
254.1644089245
 20
86.0047258827
 30
0.0
 11
254.6644089245
 21
86.0047258827
 31
0.0
  0
ARC
  5
1E8
330
1F
100
AcDbEntity
  8
0
  6
Continuous
 62
     7
370
    15
100
AcDbCircle
 10
254.1644089245
 20
86.0047258827
 30
0.0
 40
0.5
100
AcDbArc
 50
270.0
 51
0.0
  0
LINE
  5
1E9
330
1F
100
AcDbEntity
  8
0
  6
Continuous
 62
     7
370
    15
100
AcDbLine
 10
254.6644089245
 20
105.5047258827
 30
0.0
 11
254.1644089245
 21
105.5047258827
 31
0.0
  0
LINE
  5
1EA
330
1F
100
AcDbEntity
  8
0
  6
Continuous
 62
     7
370
    15
100
AcDbLine
 10
254.6644089245
 20
105.5047258827
 30
0.0
 11
254.6644089245
 21
86.0047258827
 31
0.0
  0
LINE
  5
1EB
330
1F
100
AcDbEntity
  8
0
  6
Continuous
 62
     7
370
    15
100
AcDbLine
 10
254.6644089245
 20
110.0047258827
 30
0.0
 11
254.6644089245
 21
105.5047258827
 31
0.0
  0
ARC
  5
1EC
330
1F
100
AcDbEntity
  8
0
  6
Continuous
 62
     7
370
    15
100
AcDbCircle
 10
254.1644089245
 20
110.0047258827
 30
0.0
 40
0.5
100
AcDbArc
 50
0.0
 51
90.0
  0
ARC
  5
1ED
330
1F
100
AcDbEntity
  8
0
  6
Continuous
 62
     8
370
    15
100
AcDbCircle
 10
218.7078195894
 20
118.859739424
 30
0.0
 40
0.4215247565951895
100
AcDbArc
 50
134.0387540969
 51
188.2076612663
  0
ARC
  5
1EE
330
1F
100
AcDbEntity
  8
0
  6
Continuous
 62
     8
370
    15
100
AcDbCircle
 10
250.6211111099
 20
118.8597551596
 30
0.0
 40
0.4214153098176396
100
AcDbArc
 50
351.7880308281
 51
46.1990843696
  0
LINE
  5
1EF
330
1F
100
AcDbEntity
  8
0
  6
Continuous
 62
     8
370
    15
100
AcDbLine
 10
252.1644089245
 20
115.0047258827
 30
0.0
 11
251.0382054016
 21
115.0047258827
 31
0.0
  0
LINE
  5
1F0
330
1F
100
AcDbEntity
  8
0
  6
Continuous
 62
     8
370
    15
100
AcDbLine
 10
251.0703826451
 20
118.7995620104
 30
0.0
 11
251.0382054016
 21
118.7995620104
 31
0.0
  0
LINE
  5
1F1
330
1F
100
AcDbEntity
  8
0
  6
Continuous
 62
     8
370
    15
100
AcDbLine
 10
218.2906124475
 20
118.7995620104
 30
0.0
 11
218.2584352039
 21
118.7995620104
 31
0.0
  0
LINE
  5
1F2
330
1F
100
AcDbEntity
  8
0
  6
Continuous
 62
     7
370
    15
100
AcDbLine
 10
183.3091813803
 20
147.6575244088
 30
0.0
 11
182.857289177
 21
147.9739427359
 31
0.0
  0
LINE
  5
1F3
330
1F
100
AcDbEntity
  8
0
  6
Continuous
 62
     7
370
    15
100
AcDbLine
 10
176.238289177
 20
147.9739427359
 30
0.0
 11
175.7863969737
 21
147.6575244088
 31
0.0
  0
LINE
  5
1F4
330
1F
100
AcDbEntity
  8
0
  6
Continuous
 62
     7
370
    15
100
AcDbLine
 10
175.9966905734
 20
148.1431118993
 30
0.0
 11
176.238289177
 21
147.9739427359
 31
0.0
  0
LINE
  5
1F5
330
1F
100
AcDbEntity
  8
0
  6
Continuous
 62
     7
370
    15
100
AcDbLine
 10
182.857289177
 20
147.9739427359
 30
0.0
 11
183.0988877806
 21
148.1431118993
 31
0.0
  0
LINE
  5
1F6
330
1F
100
AcDbEntity
  8
0
  6
Continuous
 62
     7
370
    15
100
AcDbLine
 10
183.0988877806
 20
148.1431118993
 30
0.0
 11
182.547789177
 21
148.6942105029
 31
0.0
  0
LINE
  5
1F7
330
1F
100
AcDbEntity
  8
0
  6
Continuous
 62
     7
370
    15
100
AcDbLine
 10
176.547789177
 20
148.6942105029
 30
0.0
 11
175.9966905734
 21
148.1431118993
 31
0.0
  0
LINE
  5
1F8
330
1F
100
AcDbEntity
  8
0
  6
Continuous
 62
     7
370
    15
100
AcDbLine
 10
181.9495402688
 20
147.4904494308
 30
0.0
 11
182.5636885891
 21
147.4904494308
 31
0.0
  0
LINE
  5
1F9
330
1F
100
AcDbEntity
  8
0
  6
Continuous
 62
     7
370
    15
100
AcDbLine
 10
176.5318897649
 20
147.4904494308
 30
0.0
 11
181.9495402688
 21
147.4904494308
 31
0.0
  0
LINE
  5
1FA
330
1F
100
AcDbEntity
  8
0
  6
Continuous
 62
     7
370
    15
100
AcDbLine
 10
178.3946025834
 20
147.237168073
 30
0.0
 11
180.7009757706
 21
147.237168073
 31
0.0
  0
LINE
  5
1FB
330
1F
100
AcDbEntity
  8
0
  6
Continuous
 62
     7
370
    15
100
AcDbLine
 10
176.238289177
 20
147.9739427359
 30
0.0
 11
182.857289177
 21
147.9739427359
 31
0.0
  0
LINE
  5
1FC
330
1F
100
AcDbEntity
  8
0
  6
Continuous
 62
     7
370
    15
100
AcDbLine
 10
176.7080768902
 20
148.1431118993
 30
0.0
 11
175.9966905734
 21
148.1431118993
 31
0.0
  0
LINE
  5
1FD
330
1F
100
AcDbEntity
  8
0
  6
Continuous
 62
     7
370
    15
100
AcDbLine
 10
183.0988877806
 20
148.1431118993
 30
0.0
 11
176.7080768902
 21
148.1431118993
 31
0.0
  0
LINE
  5
1FE
330
1F
100
AcDbEntity
  8
0
  6
Continuous
 62
     7
370
    15
100
AcDbLine
 10
181.3491024958
 20
148.6942105029
 30
0.0
 11
182.547789177
 21
148.6942105029
 31
0.0
  0
LINE
  5
1FF
330
1F
100
AcDbEntity
  8
0
  6
Continuous
 62
     7
370
    15
100
AcDbLine
 10
176.547789177
 20
148.6942105029
 30
0.0
 11
181.3491024958
 21
148.6942105029
 31
0.0
  0
LINE
  5
200
330
1F
100
AcDbEntity
  8
0
  6
Continuous
 62
     7
370
    15
100
AcDbLine
 10
184.047789177
 20
143.1942105029
 30
0.0
 11
184.547789177
 21
143.1942105029
 31
0.0
  0
ARC
  5
201
330
1F
100
AcDbEntity
  8
0
  6
Continuous
 62
     7
370
    15
100
AcDbCircle
 10
184.047789177
 20
143.1942105029
 30
0.0
 40
0.5
100
AcDbArc
 50
270.0
 51
0.0
  0
LINE
  5
202
330
1F
100
AcDbEntity
  8
0
  6
Continuous
 62
     7
370
    15
100
AcDbLine
 10
184.047789177
 20
142.6942105029
 30
0.0
 11
184.047789177
 21
143.1942105029
 31
0.0
  0
LINE
  5
203
330
1F
100
AcDbEntity
  8
0
  6
Continuous
 62
     7
370
    15
100
AcDbLine
 10
184.047789177
 20
142.6942105029
 30
0.0
 11
175.047789177
 21
142.6942105029
 31
0.0
  0
LINE
  5
204
330
1F
100
AcDbEntity
  8
0
  6
Continuous
 62
     7
370
    15
100
AcDbLine
 10
175.047789177
 20
143.1942105029
 30
0.0
 11
175.047789177
 21
142.6942105029
 31
0.0
  0
LINE
  5
205
330
1F
100
AcDbEntity
  8
0
  6
Continuous
 62
     7
370
    15
100
AcDbLine
 10
175.047789177
 20
143.1942105029
 30
0.0
 11
184.047789177
 21
143.1942105029
 31
0.0
  0
LINE
  5
206
330
1F
100
AcDbEntity
  8
0
  6
Continuous
 62
     7
370
    15
100
AcDbLine
 10
174.547789177
 20
143.1942105029
 30
0.0
 11
175.047789177
 21
143.1942105029
 31
0.0
  0
ARC
  5
207
330
1F
100
AcDbEntity
  8
0
  6
Continuous
 62
     7
370
    15
100
AcDbCircle
 10
175.047789177
 20
143.1942105029
 30
0.0
 40
0.5
100
AcDbArc
 50
180.0
 51
270.0
  0
LINE
  5
208
330
1F
100
AcDbEntity
  8
0
  6
Continuous
 62
     7
370
    15
100
AcDbLine
 10
184.047789177
 20
143.1942105029
 30
0.0
 11
184.047789177
 21
144.5076770234
 31
0.0
  0
LINE
  5
209
330
1F
100
AcDbEntity
  8
0
  6
Continuous
 62
     7
370
    15
100
AcDbLine
 10
184.047789177
 20
144.5076770234
 30
0.0
 11
184.547789177
 21
144.5076770234
 31
0.0
  0
LINE
  5
20A
330
1F
100
AcDbEntity
  8
0
  6
Continuous
 62
     7
370
    15
100
AcDbLine
 10
184.547789177
 20
144.5076770234
 30
0.0
 11
184.547789177
 21
143.1942105029
 31
0.0
  0
LINE
  5
20B
330
1F
100
AcDbEntity
  8
0
  6
Continuous
 62
     7
370
    15
100
AcDbLine
 10
174.547789177
 20
143.1942105029
 30
0.0
 11
174.547789177
 21
144.5076770234
 31
0.0
  0
LINE
  5
20C
330
1F
100
AcDbEntity
  8
0
  6
Continuous
 62
     7
370
    15
100
AcDbLine
 10
174.547789177
 20
144.5076770234
 30
0.0
 11
175.047789177
 21
144.5076770234
 31
0.0
  0
LINE
  5
20D
330
1F
100
AcDbEntity
  8
0
  6
Continuous
 62
     7
370
    15
100
AcDbLine
 10
175.047789177
 20
144.5076770234
 30
0.0
 11
175.047789177
 21
143.1942105029
 31
0.0
  0
LINE
  5
20E
330
1F
100
AcDbEntity
  8
0
  6
Continuous
 62
     7
370
    15
100
AcDbLine
 10
184.047789177
 20
180.8807439824
 30
0.0
 11
184.047789177
 21
182.1942105029
 31
0.0
  0
ARC
  5
20F
330
1F
100
AcDbEntity
  8
0
  6
Continuous
 62
     7
370
    15
100
AcDbCircle
 10
185.047789177
 20
180.8807439824
 30
0.0
 40
1.0
100
AcDbArc
 50
180.0
 51
253.1735511073
  0
ARC
  5
210
330
1F
100
AcDbEntity
  8
0
  6
Continuous
 62
     7
370
    15
100
AcDbCircle
 10
179.547789177
 20
162.6942105029
 30
0.0
 40
18.00000000000001
100
AcDbArc
 50
286.8264488927
 51
73.1735511073
  0
ARC
  5
211
330
1F
100
AcDbEntity
  8
0
  6
Continuous
 62
     7
370
    15
100
AcDbCircle
 10
185.047789177
 20
144.5076770234
 30
0.0
 40
1.000000000000019
100
AcDbArc
 50
106.8264488927
 51
180.0
  0
ARC
  5
212
330
1F
100
AcDbEntity
  8
0
  6
Continuous
 62
     7
370
    15
100
AcDbCircle
 10
174.047789177
 20
144.5076770234
 30
0.0
 40
1.000000000000019
100
AcDbArc
 50
0.0
 51
73.1735511073
  0
ARC
  5
213
330
1F
100
AcDbEntity
  8
0
  6
Continuous
 62
     7
370
    15
100
AcDbCircle
 10
179.547789177
 20
162.6942105029
 30
0.0
 40
18.00000000000002
100
AcDbArc
 50
106.8264488927
 51
253.1735511073
  0
ARC
  5
214
330
1F
100
AcDbEntity
  8
0
  6
Continuous
 62
     7
370
    15
100
AcDbCircle
 10
174.047789177
 20
180.8807439824
 30
0.0
 40
1.0
100
AcDbArc
 50
286.8264488927
 51
0.0
  0
LINE
  5
215
330
1F
100
AcDbEntity
  8
0
  6
Continuous
 62
     7
370
    15
100
AcDbLine
 10
175.047789177
 20
182.1942105029
 30
0.0
 11
175.047789177
 21
180.8807439824
 31
0.0
  0
LINE
  5
216
330
1F
100
AcDbEntity
  8
0
  6
Continuous
 62
     7
370
    15
100
AcDbLine
 10
184.047789177
 20
182.1942105029
 30
0.0
 11
175.047789177
 21
182.1942105029
 31
0.0
  0
CIRCLE
  5
217
330
1F
100
AcDbEntity
  8
0
  6
Continuous
 62
     7
370
    15
100
AcDbCircle
 10
179.547789177
 20
162.6942105029
 30
0.0
 40
15.99999999999997
  0
ARC
  5
218
330
1F
100
AcDbEntity
  8
0
  6
Continuous
 62
     7
370
    15
100
AcDbCircle
 10
174.047789177
 20
144.5076770234
 30
0.0
 40
0.5
100
AcDbArc
 50
0.0
 51
73.1735511073
  0
LINE
  5
219
330
1F
100
AcDbEntity
  8
0
  6
Continuous
 62
     7
370
    15
100
AcDbLine
 10
174.1925260191
 20
144.9862700097
 30
0.0
 11
174.3372628612
 21
145.464862996
 31
0.0
  0
LINE
  5
21A
330
1F
100
AcDbEntity
  8
0
  6
Continuous
 62
     7
370
    15
100
AcDbLine
 10
184.7583154928
 20
145.464862996
 30
0.0
 11
184.9030523349
 21
144.9862700097
 31
0.0
  0
ARC
  5
21B
330
1F
100
AcDbEntity
  8
0
  6
Continuous
 62
     7
370
    15
100
AcDbCircle
 10
185.047789177
 20
144.5076770234
 30
0.0
 40
0.5000000000000002
100
AcDbArc
 50
106.8264488927
 51
180.0
  0
LINE
  5
21C
330
1F
100
AcDbEntity
  8
0
  6
Continuous
 62
     7
370
    15
100
AcDbLine
 10
184.7583154928
 20
179.9235580098
 30
0.0
 11
184.9030523349
 21
180.4021509961
 31
0.0
  0
ARC
  5
21D
330
1F
100
AcDbEntity
  8
0
  6
Continuous
 62
     7
370
    15
100
AcDbCircle
 10
179.547789177
 20
162.6942105029
 30
0.0
 40
18.5
100
AcDbArc
 50
286.8264488927
 51
73.1735511073
  0
ARC
  5
21E
330
1F
100
AcDbEntity
  8
0
  6
Continuous
 62
     7
370
    15
100
AcDbCircle
 10
179.547789177
 20
162.6942105029
 30
0.0
 40
18.50000000000002
100
AcDbArc
 50
106.8264488927
 51
253.1735511073
  0
LINE
  5
21F
330
1F
100
AcDbEntity
  8
0
  6
Continuous
 62
     7
370
    15
100
AcDbLine
 10
174.1925260191
 20
180.4021509961
 30
0.0
 11
174.3372628612
 21
179.9235580098
 31
0.0
  0
CIRCLE
  5
220
330
1F
100
AcDbEntity
  8
0
  6
Continuous
 62
     7
370
    15
100
AcDbCircle
 10
179.547789177
 20
162.6942105029
 30
0.0
 40
15.49999999999997
  0
ARC
  5
221
330
1F
100
AcDbEntity
  8
0
  6
Continuous
 62
     7
370
    15
100
AcDbCircle
 10
174.047789177
 20
180.8807439824
 30
0.0
 40
0.5
100
AcDbArc
 50
286.8264488927
 51
0.0
  0
LINE
  5
222
330
1F
100
AcDbEntity
  8
0
  6
Continuous
 62
     7
370
    15
100
AcDbLine
 10
174.547789177
 20
180.8807439824
 30
0.0
 11
175.047789177
 21
180.8807439824
 31
0.0
  0
LINE
  5
223
330
1F
100
AcDbEntity
  8
0
  6
Continuous
 62
     7
370
    15
100
AcDbLine
 10
184.547789177
 20
180.8807439824
 30
0.0
 11
184.047789177
 21
180.8807439824
 31
0.0
  0
ARC
  5
224
330
1F
100
AcDbEntity
  8
0
  6
Continuous
 62
     7
370
    15
100
AcDbCircle
 10
185.047789177
 20
180.8807439824
 30
0.0
 40
0.5000000000000002
100
AcDbArc
 50
180.0
 51
253.1735511073
  0
LINE
  5
225
330
1F
100
AcDbEntity
  8
0
  6
Continuous
 62
     7
370
    15
100
AcDbLine
 10
184.547789177
 20
182.1942105029
 30
0.0
 11
184.547789177
 21
180.8807439824
 31
0.0
  0
LINE
  5
226
330
1F
100
AcDbEntity
  8
0
  6
Continuous
 62
     7
370
    15
100
AcDbLine
 10
184.547789177
 20
182.1942105029
 30
0.0
 11
184.047789177
 21
182.1942105029
 31
0.0
  0
LINE
  5
227
330
1F
100
AcDbEntity
  8
0
  6
Continuous
 62
     7
370
    15
100
AcDbLine
 10
174.547789177
 20
180.8807439824
 30
0.0
 11
174.547789177
 21
182.1942105029
 31
0.0
  0
LINE
  5
228
330
1F
100
AcDbEntity
  8
0
  6
Continuous
 62
     7
370
    15
100
AcDbLine
 10
174.547789177
 20
182.1942105029
 30
0.0
 11
175.047789177
 21
182.1942105029
 31
0.0
  0
ARC
  5
229
330
1F
100
AcDbEntity
  8
0
  6
Continuous
 62
     7
370
    15
100
AcDbCircle
 10
175.047789177
 20
182.1942105029
 30
0.0
 40
0.5
100
AcDbArc
 50
90.0
 51
180.0
  0
LINE
  5
22A
330
1F
100
AcDbEntity
  8
0
  6
Continuous
 62
     7
370
    15
100
AcDbLine
 10
175.047789177
 20
182.6942105029
 30
0.0
 11
175.047789177
 21
182.1942105029
 31
0.0
  0
LINE
  5
22B
330
1F
100
AcDbEntity
  8
0
  6
Continuous
 62
     7
370
    15
100
AcDbLine
 10
184.047789177
 20
182.1942105029
 30
0.0
 11
184.047789177
 21
182.6942105029
 31
0.0
  0
ARC
  5
22C
330
1F
100
AcDbEntity
  8
0
  6
Continuous
 62
     7
370
    15
100
AcDbCircle
 10
184.047789177
 20
182.1942105029
 30
0.0
 40
0.5
100
AcDbArc
 50
0.0
 51
90.0
  0
LINE
  5
22D
330
1F
100
AcDbEntity
  8
0
  6
Continuous
 62
     7
370
    15
100
AcDbLine
 10
175.047789177
 20
182.6942105029
 30
0.0
 11
184.047789177
 21
182.6942105029
 31
0.0
  0
ARC
  5
22E
330
1F
100
AcDbEntity
  8
0
  6
Continuous
 62
     7
370
    15
100
AcDbCircle
 10
173.847789177
 20
148.4956190234
 30
0.0
 40
0.2000000000000187
100
AcDbArc
 50
248.1270919336
 51
0.0
  0
LINE
  5
22F
330
1F
100
AcDbEntity
  8
0
  6
Continuous
 62
     7
370
    15
100
AcDbLine
 10
174.047789177
 20
148.4956190234
 30
0.0
 11
174.047789177
 21
156.1942105029
 31
0.0
  0
ARC
  5
230
330
1F
100
AcDbEntity
  8
0
  6
Continuous
 62
     7
370
    15
100
AcDbCircle
 10
173.047789177
 20
156.1942105029
 30
0.0
 40
1.0
100
AcDbArc
 50
0.0
 51
90.0
  0
LINE
  5
231
330
1F
100
AcDbEntity
  8
0
  6
Continuous
 62
     7
370
    15
100
AcDbLine
 10
173.047789177
 20
157.1942105029
 30
0.0
 11
166.5863077802
 21
157.1942105029
 31
0.0
  0
ARC
  5
232
330
1F
100
AcDbEntity
  8
0
  6
Continuous
 62
     7
370
    15
100
AcDbCircle
 10
166.5863077802
 20
156.1942105029
 30
0.0
 40
1.0
100
AcDbArc
 50
90.0
 51
206.6331187492
  0
ARC
  5
233
330
1F
100
AcDbEntity
  8
0
  6
Continuous
 62
     7
370
    15
100
AcDbCircle
 10
166.5863077802
 20
169.1942105029
 30
0.0
 40
1.0
100
AcDbArc
 50
153.3668812508
 51
270.0
  0
LINE
  5
234
330
1F
100
AcDbEntity
  8
0
  6
Continuous
 62
     7
370
    15
100
AcDbLine
 10
166.5863077802
 20
168.1942105029
 30
0.0
 11
173.047789177
 21
168.1942105029
 31
0.0
  0
ARC
  5
235
330
1F
100
AcDbEntity
  8
0
  6
Continuous
 62
     7
370
    15
100
AcDbCircle
 10
173.047789177
 20
169.1942105029
 30
0.0
 40
1.0
100
AcDbArc
 50
270.0
 51
0.0
  0
LINE
  5
236
330
1F
100
AcDbEntity
  8
0
  6
Continuous
 62
     7
370
    15
100
AcDbLine
 10
174.047789177
 20
169.1942105029
 30
0.0
 11
174.047789177
 21
176.8928019823
 31
0.0
  0
ARC
  5
237
330
1F
100
AcDbEntity
  8
0
  6
Continuous
 62
     7
370
    15
100
AcDbCircle
 10
173.847789177
 20
176.8928019823
 30
0.0
 40
0.2000000000000187
100
AcDbArc
 50
0.0
 51
111.8729080664
  0
ARC
  5
238
330
1F
100
AcDbEntity
  8
0
  6
Continuous
 62
     7
370
    15
100
AcDbCircle
 10
185.247789177
 20
176.8928019823
 30
0.0
 40
0.2000000000000187
100
AcDbArc
 50
68.1270919336
 51
180.0
  0
LINE
  5
239
330
1F
100
AcDbEntity
  8
0
  6
Continuous
 62
     7
370
    15
100
AcDbLine
 10
185.047789177
 20
176.8928019823
 30
0.0
 11
185.047789177
 21
169.1942105029
 31
0.0
  0
ARC
  5
23A
330
1F
100
AcDbEntity
  8
0
  6
Continuous
 62
     7
370
    15
100
AcDbCircle
 10
186.047789177
 20
169.1942105029
 30
0.0
 40
1.0
100
AcDbArc
 50
180.0
 51
270.0
  0
LINE
  5
23B
330
1F
100
AcDbEntity
  8
0
  6
Continuous
 62
     7
370
    15
100
AcDbLine
 10
186.047789177
 20
168.1942105029
 30
0.0
 11
192.5092705738
 21
168.1942105029
 31
0.0
  0
ARC
  5
23C
330
1F
100
AcDbEntity
  8
0
  6
Continuous
 62
     7
370
    15
100
AcDbCircle
 10
192.5092705738
 20
169.1942105029
 30
0.0
 40
1.000000000000004
100
AcDbArc
 50
270.0
 51
26.6331187492
  0
ARC
  5
23D
330
1F
100
AcDbEntity
  8
0
  6
Continuous
 62
     7
370
    15
100
AcDbCircle
 10
192.5092705738
 20
156.1942105029
 30
0.0
 40
1.000000000000017
100
AcDbArc
 50
333.3668812508
 51
90.0
  0
LINE
  5
23E
330
1F
100
AcDbEntity
  8
0
  6
Continuous
 62
     7
370
    15
100
AcDbLine
 10
192.5092705738
 20
157.1942105029
 30
0.0
 11
186.047789177
 21
157.1942105029
 31
0.0
  0
ARC
  5
23F
330
1F
100
AcDbEntity
  8
0
  6
Continuous
 62
     7
370
    15
100
AcDbCircle
 10
186.047789177
 20
156.1942105029
 30
0.0
 40
1.0
100
AcDbArc
 50
90.0
 51
180.0
  0
LINE
  5
240
330
1F
100
AcDbEntity
  8
0
  6
Continuous
 62
     7
370
    15
100
AcDbLine
 10
185.047789177
 20
156.1942105029
 30
0.0
 11
185.047789177
 21
148.4956190234
 31
0.0
  0
ARC
  5
241
330
1F
100
AcDbEntity
  8
0
  6
Continuous
 62
     7
370
    15
100
AcDbCircle
 10
185.247789177
 20
148.4956190234
 30
0.0
 40
0.2000000000000187
100
AcDbArc
 50
180.0
 51
291.8729080664
  0
CIRCLE
  5
242
330
1F
100
AcDbEntity
  8
0
  6
Continuous
 62
     7
370
    15
100
AcDbCircle
 10
179.547789177
 20
162.6942105029
 30
0.0
 40
6.500000000000028
  0
CIRCLE
  5
243
330
1F
100
AcDbEntity
  8
0
  6
Continuous
 62
     7
370
    15
100
AcDbCircle
 10
179.547789177
 20
152.6942105029
 30
0.0
 40
2.525000000000006
  0
CIRCLE
  5
244
330
1F
100
AcDbEntity
  8
0
  6
Continuous
 62
     7
370
    15
100
AcDbCircle
 10
179.547789177
 20
172.6942105029
 30
0.0
 40
2.525000000000006
  0
CIRCLE
  5
245
330
1F
100
AcDbEntity
  8
0
  6
Continuous
 62
     7
370
    15
100
AcDbCircle
 10
179.547789177
 20
152.6942105029
 30
0.0
 40
2.100000000000023
  0
CIRCLE
  5
246
330
1F
100
AcDbEntity
  8
0
  6
Continuous
 62
     7
370
    15
100
AcDbCircle
 10
179.547789177
 20
162.6942105029
 30
0.0
 40
3.200000000000017
  0
CIRCLE
  5
247
330
1F
100
AcDbEntity
  8
0
  6
Continuous
 62
     7
370
    15
100
AcDbCircle
 10
179.547789177
 20
172.6942105029
 30
0.0
 40
2.099999999999994
  0
LINE
  5
248
330
1F
100
AcDbEntity
  8
0
  6
Continuous
 62
     7
370
    15
100
AcDbLine
 10
185.360289177
 20
177.0630950716
 30
0.0
 11
185.9690206109
 21
176.7863295822
 31
0.0
  0
LINE
  5
249
330
1F
100
AcDbEntity
  8
0
  6
Continuous
 62
     7
370
    15
100
AcDbLine
 10
186.0319590659
 20
148.6348664038
 30
0.0
 11
185.360289177
 21
148.3253259341
 31
0.0
  0
SPLINE
  5
24A
330
1F
100
AcDbEntity
  8
0
  6
Continuous
 62
     7
370
    15
100
AcDbSpline
210
0.0
220
0.0
230
1.0
 70
     8
 71
     3
 72
    41
 73
    37
 74
     0
 42
0.000000001
 43
0.00000001
 40
0.0
 40
0.0
 40
0.0
 40
0.0
 40
0.0373751141701055
 40
0.0751791570945024
 40
0.1141567144054755
 40
0.1534719904778713
 40
0.1937145280988936
 40
0.2342266522703712
 40
0.2704882826812266
 40
0.3069225177595738
 40
0.3439371290264109
 40
0.3812042669471678
 40
0.4005357292457878
 40
0.4200970435800081
 40
0.4396525084876968
 40
0.4595118189897139
 40
0.4762188146326562
 40
0.4933151027944727
 40
0.5104103264448522
 40
0.5279304888279209
 40
0.5445009885792117
 40
0.5613419984247084
 40
0.5781870211539236
 40
0.5952618497719573
 40
0.61946092828105
 40
0.6439219403934978
 40
0.6683869172440954
 40
0.6930639919320876
 40
0.7346780979314189
 40
0.776556017091264
 40
0.8192783872207134
 40
0.8623232593876502
 40
0.8961025556649713
 40
0.9304973583265186
 40
0.9648847170109952
 40
0.9999999999999999
 40
0.9999999999999999
 40
0.9999999999999999
 40
0.9999999999999999
 10
185.378775092494
 20
68.28645930106667
 30
0.0
 10
185.8271237087258
 20
68.08480671572845
 30
0.0
 10
186.7289663331893
 20
67.67918731553999
 30
0.0
 10
187.9782457806544
 20
66.92341365010319
 30
0.0
 10
189.1511561357725
 20
66.06739945792869
 30
0.0
 10
190.2378623841778
 20
65.10384933458205
 30
0.0
 10
191.2283005726822
 20
64.04936885410288
 30
0.0
 10
192.0860897583131
 20
62.95041077105976
 30
0.0
 10
192.8192867312462
 20
61.8251721126133
 30
0.0
 10
193.4422607616664
 20
60.67725351558074
 30
0.0
 10
193.9814751332093
 20
59.45686280219338
 30
0.0
 10
194.358963732832
 20
58.36538735045566
 30
0.0
 10
194.6137502458684
 20
57.43576087571525
 30
0.0
 10
194.780066928392
 20
56.6987558015425
 30
0.0
 10
194.9160951836517
 20
55.93074169556131
 30
0.0
 10
195.0123423957883
 20
55.17755297345385
 30
0.0
 10
195.0724853700995
 20
54.44139762865985
 30
0.0
 10
195.0997773241909
 20
53.73370759125537
 30
0.0
 10
195.0964858171982
 20
53.01189018933296
 30
0.0
 10
195.0617670808944
 20
52.30184080631322
 30
0.0
 10
194.9977905390939
 20
51.60620049472862
 30
0.0
 10
194.9077091546154
 20
50.9343912261099
 30
0.0
 10
194.7912799791621
 20
50.27302071623156
 30
0.0
 10
194.6305171870091
 20
49.53661790191873
 30
0.0
 10
194.4133222614209
 20
48.73185374709425
 30
0.0
 10
194.1286874258773
 20
47.87126445063956
 30
0.0
 10
193.8007016329118
 20
47.03737533507324
 30
0.0
 10
193.3464926202938
 20
46.04556977191019
 30
0.0
 10
192.7260656017362
 20
44.91788298251766
 30
0.0
 10
191.8863821565179
 20
43.6775861637827
 30
0.0
 10
190.9165044715586
 20
42.50099361271479
 30
0.0
 10
189.8905738993952
 20
41.4783421979208
 30
0.0
 10
188.8370424383263
 20
40.60075138228501
 30
0.0
 10
187.7817459723404
 20
39.86153209309435
 30
0.0
 10
186.6351947329014
 20
39.18403533297005
 30
0.0
 10
185.800495666365
 20
38.81042632329181
 30
0.0
 10
185.378775092494
 20
38.621665352684
 30
0.0
  0
LINE
  5
24B
330
1F
100
AcDbEntity
  8
0
  6
Continuous
 62
     7
370
    15
100
AcDbLine
 10
185.3787750925
 20
69.3600360475
 30
0.0
 11
185.3787750925
 21
68.2864593011
 31
0.0
  0
SPLINE
  5
24C
330
1F
100
AcDbEntity
  8
0
  6
Continuous
 62
     7
370
    15
100
AcDbSpline
210
0.0
220
0.0
230
1.0
 70
     8
 71
     3
 72
    42
 73
    38
 74
     0
 42
0.000000001
 43
0.00000001
 40
0.0
 40
0.0
 40
0.0
 40
0.0
 40
0.0206235607485192
 40
0.0413378291643752
 40
0.0623074535404853
 40
0.0833537151996815
 40
0.1042289361270268
 40
0.1251052317476501
 40
0.1462034063985121
 40
0.1673024239085175
 40
0.2106947366060601
 40
0.2544243833064644
 40
0.2903563327731585
 40
0.3264398545864707
 40
0.3630079252585663
 40
0.3997820977482436
 40
0.4231644509778779
 40
0.4465249190693314
 40
0.4623595557978666
 40
0.4813735956238543
 40
0.5008784485636346
 40
0.5198034235336247
 40
0.5392552102038983
 40
0.5631447845493228
 40
0.5873935950018162
 40
0.6181753846122432
 40
0.6491458692742952
 40
0.6805203063259377
 40
0.7119989673920541
 40
0.7516183589568065
 40
0.7914528275890851
 40
0.8320447100944788
 40
0.8729485832201702
 40
0.9041118265144292
 40
0.9354772085639393
 40
0.9675831364480303
 40
1.0
 40
1.0
 40
1.0
 40
1.0
 10
185.378775092494
 20
37.54808860628846
 30
0.0
 10
185.6611428772337
 20
37.66305719568988
 30
0.0
 10
186.2271203720719
 20
37.89350003559986
 30
0.0
 10
187.0380206241602
 20
38.29301105796798
 30
0.0
 10
187.8209671498556
 20
38.72950210190668
 30
0.0
 10
188.5682823792698
 20
39.20237388492048
 30
0.0
 10
189.2773237366657
 20
39.70542990172236
 30
0.0
 10
189.9497013918304
 20
40.23712125598848
 30
0.0
 10
190.5871281556661
 20
40.79659655881151
 30
0.0
 10
191.4017024574048
 20
41.58800073858453
 30
0.0
 10
192.3361572949865
 20
42.64624736953584
 30
0.0
 10
193.2564547693719
 20
43.92492039252791
 30
0.0
 10
194.0044901685317
 20
45.1870759889829
 30
0.0
 10
194.6092797664292
 20
46.42174739113522
 30
0.0
 10
195.1218750855541
 20
47.72194610773348
 30
0.0
 10
195.4885410766733
 20
48.93295617047204
 30
0.0
 10
195.7409071687342
 20
50.03656629488277
 30
0.0
 10
195.8896876566621
 20
50.90831346814859
 30
0.0
 10
195.9923511852712
 20
51.75798417150888
 30
0.0
 10
196.0549783063717
 20
52.58488008031647
 30
0.0
 10
196.0767434412847
 20
53.4856611816653
 30
0.0
 10
196.0513500915718
 20
54.39182328914564
 30
0.0
 10
195.9764030872246
 20
55.33638023780849
 30
0.0
 10
195.8442279407508
 20
56.31010500552745
 30
0.0
 10
195.6339964902192
 20
57.38321681239035
 30
0.0
 10
195.3422322254749
 20
58.48950316746721
 30
0.0
 10
194.9550681315431
 20
59.62952195050934
 30
0.0
 10
194.4938361964776
 20
60.73135752219251
 30
0.0
 10
193.9114355047961
 20
61.89025861628485
 30
0.0
 10
193.1828875476957
 20
63.09416254838915
 30
0.0
 10
192.272306019262
 20
64.33485239081224
 30
0.0
 10
191.2224968140952
 20
65.51959775404725
 30
0.0
 10
190.121216164301
 20
66.54474065467619
 30
0.0
 10
189.0056400679323
 20
67.41415073042475
 30
0.0
 10
187.8993569291609
 20
68.14175780598173
 30
0.0
 10
186.6982517223983
 20
68.8082278154664
 30
0.0
 10
185.8200113840498
 20
69.17550999189011
 30
0.0
 10
185.378775092494
 20
69.36003604746222
 30
0.0
  0
LINE
  5
24D
330
1F
100
AcDbEntity
  8
0
  6
Continuous
 62
     7
370
    15
100
AcDbLine
 10
185.3787750925
 20
38.6216653527
 30
0.0
 11
185.3787750925
 21
37.5480886063
 31
0.0
  0
SPLINE
  5
24E
330
1F
100
AcDbEntity
  8
0
  6
Continuous
 62
     7
370
    15
100
AcDbSpline
210
0.0
220
0.0
230
1.0
 70
     8
 71
     3
 72
    42
 73
    38
 74
     0
 42
0.000000001
 43
0.00000001
 40
0.0
 40
0.0
 40
0.0
 40
0.0
 40
0.0313826396113891
 40
0.0630586630816291
 40
0.0955561267900632
 40
0.1282930959166849
 40
0.1678180739118589
 40
0.2076539661513668
 40
0.2483471600352941
 40
0.2892919515541105
 40
0.3199907121563343
 40
0.3507887471701
 40
0.3819330020096058
 40
0.4132446038041244
 40
0.4370024987350553
 40
0.4610420527875067
 40
0.4798503573896232
 40
0.4991280868663542
 40
0.5179702061679069
 40
0.5373555107179459
 40
0.5580032916772683
 40
0.5789173277432762
 40
0.5994940029967243
 40
0.6351767514981225
 40
0.6710916291964273
 40
0.7075588084789771
 40
0.7441905889364306
 40
0.7861773514553136
 40
0.8284595637955932
 40
0.8501240114976506
 40
0.8718408307892384
 40
0.8937320479427874
 40
0.9156893429874099
 40
0.9365730272522292
 40
0.9575272943381878
 40
0.9787185820667135
 40
1.0
 40
1.0
 40
1.0
 40
1.0
 10
173.3713185887657
 20
37.08026584980062
 30
0.0
 10
172.9248403633261
 20
37.26112418270396
 30
0.0
 10
172.0277099644839
 20
37.62453162137965
 30
0.0
 10
170.7681321427532
 20
38.2953421146702
 30
0.0
 10
169.5729410900759
 20
39.05161394887735
 30
0.0
 10
168.3809806948266
 20
39.95115454151946
 30
0.0
 10
167.2217415664822
 20
40.99563272250332
 30
0.0
 10
166.1159239173678
 20
42.1972385603447
 30
0.0
 10
165.1325938105786
 20
43.48760012480241
 30
0.0
 10
164.3467703635097
 20
44.74489780363981
 30
0.0
 10
163.7266724013037
 20
45.94177987387134
 30
0.0
 10
163.2397678581257
 20
47.06603670933003
 30
0.0
 10
162.8245081762126
 20
48.24635430529912
 30
0.0
 10
162.5117788863253
 20
49.39452688120715
 30
0.0
 10
162.2866411230305
 20
50.50911266041358
 30
0.0
 10
162.1472531665107
 20
51.50378631982118
 30
0.0
 10
162.0668626752249
 20
52.48053242251786
 30
0.0
 10
162.0395427826397
 20
53.40512984364369
 30
0.0
 10
162.0621129915199
 20
54.34045471044875
 30
0.0
 10
162.1339412539737
 20
55.27009413865772
 30
0.0
 10
162.254326798654
 20
56.18748138307517
 30
0.0
 10
162.4190795289948
 20
57.07626483809168
 30
0.0
 10
162.6705027594211
 20
58.13121252835445
 30
0.0
 10
163.0418623746365
 20
59.32712759530816
 30
0.0
 10
163.5778473173426
 20
60.65785488286882
 30
0.0
 10
164.2207123650514
 20
61.94074950703109
 30
0.0
 10
165.0096658792208
 20
63.2369521112123
 30
0.0
 10
165.9659461942144
 20
64.53302628115925
 30
0.0
 10
166.927265624248
 20
65.60194837028446
 30
0.0
 10
167.7819704190726
 20
66.41893579334014
 30
0.0
 10
168.4738182618013
 20
67.01504077294368
 30
0.0
 10
169.2099489751505
 20
67.58468619752986
 30
0.0
 10
169.9777060531748
 20
68.11532027991088
 30
0.0
 10
170.7732660375553
 20
68.60496160058713
 30
0.0
 10
171.596963228678
 20
69.0524637553982
 30
0.0
 10
172.4599646083147
 20
69.46698017301435
 30
0.0
 10
173.0671044634753
 20
69.70739586704403
 30
0.0
 10
173.3713185887657
 20
69.82785880395005
 30
0.0
  0
LWPOLYLINE
  5
24F
330
1F
100
AcDbEntity
  8
0
  6
Continuous
 62
     7
370
    15
100
AcDbPolyline
 90
        9
 70
   128
 43
0.0
 10
173.3713185888
 20
69.827858804
 10
173.4064982619
 20
69.8292440444
 10
173.4479627026
 20
69.809758423
 10
173.4938675292
 20
69.7702686805
 10
173.542170847
 20
69.7125313619
 10
173.590724074
 20
69.6391146834
 10
173.6373675119
 20
69.5532842957
 10
173.6800264119
 20
69.458858024
 10
173.7168032615
 20
69.3600360475
  0
SPLINE
  5
250
330
1F
100
AcDbEntity
  8
0
  6
Continuous
 62
     7
370
    15
100
AcDbSpline
210
0.0
220
0.0
230
1.0
 70
     8
 71
     3
 72
    42
 73
    38
 74
     0
 42
0.000000001
 43
0.00000001
 40
0.0
 40
0.0
 40
0.0
 40
0.0
 40
0.0206235079502187
 40
0.0413377233355538
 40
0.0623072940274072
 40
0.0833535018061478
 40
0.1041991322365156
 40
0.1251613373258011
 40
0.1461783948999724
 40
0.1783604765045726
 40
0.2106981766474373
 40
0.2544277113957371
 40
0.290359568873182
 40
0.3264429983092054
 40
0.3630109753635205
 40
0.3997850537077768
 40
0.4211397123293417
 40
0.4426218346122979
 40
0.4623609322091513
 40
0.4813749233573669
 40
0.5008797263628464
 40
0.5198046528830792
 40
0.5392563897549066
 40
0.5631459029407214
 40
0.5873946513139261
 40
0.618176362120009
 40
0.6491467674946394
 40
0.6805211242247032
 40
0.7119997047024176
 40
0.7516189948377142
 40
0.791453361489919
 40
0.8320451400761867
 40
0.8729489084840257
 40
0.9041120719973825
 40
0.9354773737484956
 40
0.967583219438321
 40
1.0
 40
1.0
 40
1.0
 40
1.0
 10
173.7168032615081
 20
69.36003604746222
 30
0.0
 10
173.4344354616549
 20
69.2450674710724
 30
0.0
 10
172.8684579365232
 20
69.0146246572428
 30
0.0
 10
172.0575579133401
 20
68.61511343780427
 30
0.0
 10
171.2746105055738
 20
68.17862315326339
 30
0.0
 10
170.527649562125
 20
67.70597061106997
 30
0.0
 10
169.8179326423088
 20
67.20249491243679
 30
0.0
 10
169.1458502970256
 20
66.6709766078746
 30
0.0
 10
168.3964221644199
 20
66.01316080806886
 30
0.0
 10
167.5953366085421
 20
65.21365420926375
 30
0.0
 10
166.6768350952906
 20
64.14711865960993
 30
0.0
 10
165.8391019180649
 20
62.98317884261001
 30
0.0
 10
165.091093894071
 20
61.72105077648764
 30
0.0
 10
164.4862956199989
 20
60.48639262979329
 30
0.0
 10
163.9737094405953
 20
59.18611380279404
 30
0.0
 10
163.6147058190283
 20
58.00075632474172
 30
0.0
 10
163.3721330327149
 20
56.95000846538944
 30
0.0
 10
163.2180964983705
 20
56.08491054136967
 30
0.0
 10
163.1077244140188
 20
55.20947097404215
 30
0.0
 10
163.0406004830325
 20
54.32326357171718
 30
0.0
 10
163.0188347988549
 20
53.42245850382636
 30
0.0
 10
163.0442282932758
 20
52.51630271051409
 30
0.0
 10
163.1191752562815
 20
51.57174395796329
 30
0.0
 10
163.2513504163292
 20
50.59801978252625
 30
0.0
 10
163.4615818627012
 20
49.52490779416058
 30
0.0
 10
163.7533461288476
 20
48.41862150026403
 30
0.0
 10
164.1405102223717
 20
47.2786026994335
 30
0.0
 10
164.6017421575479
 20
46.17676713257999
 30
0.0
 10
165.1841428491978
 20
45.01786603711179
 30
0.0
 10
165.9126908063087
 20
43.81396210546596
 30
0.0
 10
166.8232723347394
 20
42.57327226290978
 30
0.0
 10
167.8730815399071
 20
41.3885268997113
 30
0.0
 10
168.9743621897011
 20
40.36338399907289
 30
0.0
 10
170.0899382860698
 20
39.49397392332631
 30
0.0
 10
171.1962214248412
 20
38.76636684776884
 30
0.0
 10
172.3973266316038
 20
38.09989683828432
 30
0.0
 10
173.2755669699522
 20
37.73261466186057
 30
0.0
 10
173.716803261508
 20
37.54808860628846
 30
0.0
  0
LWPOLYLINE
  5
251
330
1F
100
AcDbEntity
  8
0
  6
Continuous
 62
     7
370
    15
100
AcDbPolyline
 90
        9
 70
   128
 43
0.0
 10
173.3713185888
 20
37.0802658498
 10
173.4064982619
 20
37.0788806093
 10
173.4479627026
 20
37.0983662307
 10
173.4938675292
 20
37.1378559732
 10
173.542170847
 20
37.1955932918
 10
173.590724074
 20
37.2690099703
 10
173.6373675119
 20
37.3548403581
 10
173.6800264119
 20
37.4492666298
 10
173.7168032615
 20
37.5480886063
  0
LINE
  5
252
330
1F
100
AcDbEntity
  8
0
  6
Continuous
 62
     7
370
    15
100
AcDbLine
 10
173.7168032615
 20
37.5480886063
 30
0.0
 11
173.7168032615
 21
38.6216653527
 31
0.0
  0
LINE
  5
253
330
1F
100
AcDbEntity
  8
0
  6
Continuous
 62
     7
370
    15
100
AcDbLine
 10
173.7168032615
 20
68.2864593011
 30
0.0
 11
173.7168032615
 21
69.3600360475
 31
0.0
  0
SPLINE
  5
254
330
1F
100
AcDbEntity
  8
0
  6
Continuous
 62
     7
370
    15
100
AcDbSpline
210
0.0
220
0.0
230
1.0
 70
     8
 71
     3
 72
    41
 73
    37
 74
     0
 42
0.000000001
 43
0.00000001
 40
0.0
 40
0.0
 40
0.0
 40
0.0
 40
0.0373751078508144
 40
0.0751791443833975
 40
0.1143206740560267
 40
0.1534717884460362
 40
0.1938464422660288
 40
0.2342264403185484
 40
0.2705749810163827
 40
0.3069224380261745
 40
0.3440718291159984
 40
0.3812049574303527
 40
0.4005758308485785
 40
0.4199426789664542
 40
0.4397313569301438
 40
0.4595123696952365
 40
0.4762925827404216
 40
0.4930697089361527
 40
0.5104992626891022
 40
0.5279305942526948
 40
0.5445587981126728
 40
0.5611910253165683
 40
0.578224703054139
 40
0.5952618359663965
 40
0.619518351262151
 40
0.643781474887009
 40
0.6684216471151858
 40
0.6930640759424801
 40
0.7348096378379656
 40
0.7765563407196704
 40
0.8194439335424006
 40
0.8623235669435292
 40
0.8962142542828204
 40
0.9300991748437223
 40
0.9650542070385135
 40
0.9999999999999999
 40
0.9999999999999999
 40
0.9999999999999999
 40
0.9999999999999999
 10
173.7168032615065
 20
38.62166535268467
 30
0.0
 10
173.2684566159522
 20
38.82331863970823
 30
0.0
 10
172.3666179554597
 20
39.22893945132015
 30
0.0
 10
171.1155136497535
 20
39.98578793309799
 30
0.0
 10
169.9429330692515
 20
40.84203004219926
 30
0.0
 10
168.8551213291466
 20
41.80681623667603
 30
0.0
 10
167.8662740271788
 20
42.85983289281155
 30
0.0
 10
167.0079958434912
 20
43.95994195688613
 30
0.0
 10
166.2757445402748
 20
45.08359027826568
 30
0.0
 10
165.6521482131517
 20
46.2334273146229
 30
0.0
 10
165.1134441564249
 20
47.45227514764223
 30
0.0
 10
164.7360089828177
 20
48.54490786746346
 30
0.0
 10
164.4822349392561
 20
49.47092599881327
 30
0.0
 10
164.3155635763673
 20
50.20886982114956
 30
0.0
 10
164.179664820607
 20
50.97638908098715
 30
0.0
 10
164.0829674627786
 20
51.73259906025342
 30
0.0
 10
164.0234378441448
 20
52.46443266687709
 30
0.0
 10
163.9956408846028
 20
53.17319177979012
 30
0.0
 10
163.9991269143526
 20
53.89404390617111
 30
0.0
 10
164.0339036885497
 20
54.60831388451604
 30
0.0
 10
164.0977585544505
 20
55.30060510097027
 30
0.0
 10
164.1877085288342
 20
55.97302354886094
 30
0.0
 10
164.3040013379
 20
56.63367291400905
 30
0.0
 10
164.4653368873086
 20
57.37267624631306
 30
0.0
 10
164.6819907131944
 20
58.17536526528589
 30
0.0
 10
164.966707733624
 20
59.03614645507623
 30
0.0
 10
165.2943245194731
 20
59.86972857420015
 30
0.0
 10
165.7499514580396
 20
60.86424214092094
 30
0.0
 10
166.3703052779411
 20
61.9919481900716
 30
0.0
 10
167.2112839907611
 20
63.23323907713208
 30
0.0
 10
168.1804633572815
 20
64.40874434954726
 30
0.0
 10
169.2074799141783
 20
65.43202592701817
 30
0.0
 10
170.2559693055569
 20
66.30503489833116
 30
0.0
 10
171.3123643809137
 20
67.04590826281932
 30
0.0
 10
172.4577355991168
 20
67.7228048150781
 30
0.0
 10
173.2971510243228
 20
68.09859102908248
 30
0.0
 10
173.716803261508
 20
68.28645930106667
 30
0.0
  0
SPLINE
  5
255
330
1F
100
AcDbEntity
  8
0
  6
Continuous
 62
     7
370
    15
100
AcDbSpline
210
0.0
220
0.0
230
1.0
 70
     8
 71
     3
 72
    42
 73
    38
 74
     0
 42
0.000000001
 43
0.00000001
 40
0.0
 40
0.0
 40
0.0
 40
0.0
 40
0.0313826490648854
 40
0.0630586820769987
 40
0.0955561555747513
 40
0.1282931345628384
 40
0.1678181244642522
 40
0.2076540287036578
 40
0.2483472348457306
 40
0.2892920386984817
 40
0.3199908085481947
 40
0.3507888528393542
 40
0.3819331170605468
 40
0.4132447282871629
 40
0.437002630374763
 40
0.4610421916687288
 40
0.4798505019365331
 40
0.4991282372203584
 40
0.517970362197785
 40
0.5373556725873233
 40
0.5584770595754809
 40
0.5789172008991506
 40
0.5994938823509784
 40
0.6351766416012089
 40
0.6710915301182713
 40
0.7075587203859501
 40
0.744190511878116
 40
0.7861772870448103
 40
0.8284595121219004
 40
0.8501239663500109
 40
0.871840792183428
 40
0.8937320159313408
 40
0.915689317590232
 40
0.9365730081459124
 40
0.9575272815439942
 40
0.9787185756560415
 40
1.0
 40
1.0
 40
1.0
 40
1.0
 10
185.7242597652363
 20
69.82785880395005
 30
0.0
 10
186.170737990676
 20
69.6470004710467
 30
0.0
 10
187.0678683895182
 20
69.283593032371
 30
0.0
 10
188.3274462112489
 20
68.61278253908048
 30
0.0
 10
189.5226372639261
 20
67.85651070487329
 30
0.0
 10
190.7145976591755
 20
66.95697011223135
 30
0.0
 10
191.8738367875198
 20
65.91249193124668
 30
0.0
 10
192.9796544366344
 20
64.71088609340855
 30
0.0
 10
193.962984543423
 20
63.42052452893833
 30
0.0
 10
194.7488079904941
 20
62.16322685014429
 30
0.0
 10
195.3689059526936
 20
60.96634477978863
 30
0.0
 10
195.8558104958946
 20
59.84208794476524
 30
0.0
 10
196.2710701777203
 20
58.66177034714572
 30
0.0
 10
196.5837994679096
 20
57.51359777694445
 30
0.0
 10
196.8089372303294
 20
56.39901198119711
 30
0.0
 10
196.9483251897169
 20
55.40433837600366
 30
0.0
 10
197.0287156723886
 20
54.42759211045724
 30
0.0
 10
197.0560355958371
 20
53.50299527280406
 30
0.0
 10
197.0334652723742
 20
52.56766823980263
 30
0.0
 10
196.9610596648566
 20
51.6305591929352
 30
0.0
 10
196.8401283598762
 20
50.71367406553914
 30
0.0
 10
196.6749572424262
 20
49.82539139404295
 30
0.0
 10
196.4250744379459
 20
48.77690731648929
 30
0.0
 10
196.053716359289
 20
47.5809986380387
 30
0.0
 10
195.51773093288
 20
46.25026933940145
 30
0.0
 10
194.8748660169531
 20
44.96737526314461
 30
0.0
 10
194.085912466021
 20
43.67117250611638
 30
0.0
 10
193.1296321623421
 20
42.37509838321171
 30
0.0
 10
192.1683127294274
 20
41.30617628210815
 30
0.0
 10
191.313607934992
 20
40.48918886067069
 30
0.0
 10
190.6217600921838
 20
39.89308388073658
 30
0.0
 10
189.8856293788561
 20
39.32343845623986
 30
0.0
 10
189.1178723008261
 20
38.79280437383493
 30
0.0
 10
188.322312316447
 20
38.30316305316485
 30
0.0
 10
187.498615125324
 20
37.85566089835212
 30
0.0
 10
186.6356137456874
 20
37.4411444807364
 30
0.0
 10
186.0284738905268
 20
37.20072878670666
 30
0.0
 10
185.7242597652363
 20
37.08026584980062
 30
0.0
  0
LWPOLYLINE
  5
256
330
1F
100
AcDbEntity
  8
0
  6
Continuous
 62
     7
370
    15
100
AcDbPolyline
 90
        9
 70
   128
 43
0.0
 10
185.3787750925
 20
37.5480886063
 10
185.4155519421
 20
37.4492666298
 10
185.4582108421
 20
37.3548403581
 10
185.50485428
 20
37.2690099703
 10
185.553407507
 20
37.1955932918
 10
185.6017108248
 20
37.1378559732
 10
185.6476156514
 20
37.0983662307
 10
185.6890800921
 20
37.0788806093
 10
185.7242597652
 20
37.0802658498
  0
LWPOLYLINE
  5
257
330
1F
100
AcDbEntity
  8
0
  6
Continuous
 62
     7
370
    15
100
AcDbPolyline
 90
        9
 70
   128
 43
0.0
 10
185.7242597652
 20
69.827858804
 10
185.6890800921
 20
69.8292440444
 10
185.6476156514
 20
69.809758423
 10
185.6017108248
 20
69.7702686805
 10
185.553407507
 20
69.7125313619
 10
185.50485428
 20
69.6391146834
 10
185.4582108421
 20
69.5532842957
 10
185.4155519421
 20
69.458858024
 10
185.3787750925
 20
69.3600360475
  0
LWPOLYLINE
  5
258
330
1F
100
AcDbEntity
  8
0
  6
Continuous
 62
     7
370
    15
100
AcDbPolyline
 90
        9
 70
   128
 43
0.0
 10
173.7168032615
 20
68.2864593011
 10
173.7441089322
 20
68.2025897767
 10
173.7650385004
 20
68.1214441793
 10
173.7789122127
 20
68.0456579677
 10
173.7852794763
 20
67.9776925379
 10
173.7839334945
 20
67.9197552812
 10
173.7749179822
 20
67.8737278926
 10
173.7585257465
 20
67.8411052564
 10
173.735289177
 20
67.8229468956
  0
SPLINE
  5
259
330
1F
100
AcDbEntity
  8
0
  6
Continuous
 62
     7
370
    15
100
AcDbSpline
210
0.0
220
0.0
230
1.0
 70
     8
 71
     3
 72
    40
 73
    36
 74
     0
 42
0.000000001
 43
0.00000001
 40
0.0
 40
0.0
 40
0.0
 40
0.0
 40
0.0339407765087985
 40
0.0681997031282119
 40
0.1033404182851287
 40
0.1387354398274028
 40
0.1804904580373777
 40
0.2225565353474959
 40
0.2655085646599496
 40
0.3087448290421941
 40
0.3329133367701142
 40
0.3571458777717944
 40
0.3816208694487818
 40
0.4062121851899831
 40
0.4267390304628625
 40
0.447412862548544
 40
0.4726006969597739
 40
0.4938344518823072
 40
0.5118644088922042
 40
0.5301268848481218
 40
0.5397219481922675
 40
0.558732410229531
 40
0.5779093287476518
 40
0.597482953335665
 40
0.6171500239916902
 40
0.6533210389665383
 40
0.6897670188622524
 40
0.7268733564287632
 40
0.7641656424799034
 40
0.8034966084953393
 40
0.8430638125565222
 40
0.8834674963671215
 40
0.9242166235466033
 40
0.9619055842019933
 40
1.0
 40
1.0
 40
1.0
 40
1.0
 10
173.7352891770011
 20
67.82294689562318
 30
0.0
 10
173.3320478029655
 20
67.64802446833393
 30
0.0
 10
172.5217851977153
 20
67.29653994621346
 30
0.0
 10
171.3898200195268
 20
66.65305284787387
 30
0.0
 10
170.3192516740963
 20
65.93007056448042
 30
0.0
 10
169.2645276286456
 20
65.07904064444187
 30
0.0
 10
168.2490553170479
 20
64.0989934877439
 30
0.0
 10
167.2882977279905
 20
62.97677937810077
 30
0.0
 10
166.4355295885003
 20
61.76433921861607
 30
0.0
 10
165.8039549485503
 20
60.65349364580412
 30
0.0
 10
165.3462549067379
 20
59.68381577739068
 30
0.0
 10
165.0209166169851
 20
58.88309500123668
 30
0.0
 10
164.7341310366159
 20
58.04485041662139
 30
0.0
 10
164.5026758915105
 20
57.21397149029399
 30
0.0
 10
164.3224643265102
 20
56.39541168736099
 30
0.0
 10
164.179493192213
 20
55.53825580038658
 30
0.0
 10
164.0833389659611
 20
54.63863462732476
 30
0.0
 10
164.0435625337459
 20
53.75351042177974
 30
0.0
 10
164.0496239596278
 20
52.95978937764492
 30
0.0
 10
164.0848774710102
 20
52.33197070838515
 30
0.0
 10
164.1435016738297
 20
51.70094968416194
 30
0.0
 10
164.226105982478
 20
51.06960708933965
 30
0.0
 10
164.3595936920007
 20
50.3309102555824
 30
0.0
 10
164.526098618138
 20
49.60961307833021
 30
0.0
 10
164.7789709492657
 20
48.71125606203928
 30
0.0
 10
165.1503757689624
 20
47.66435479088351
 30
0.0
 10
165.6804323796731
 20
46.4901335097202
 30
0.0
 10
166.303848232547
 20
45.36692089871232
 30
0.0
 10
167.0343580560612
 20
44.27515596722622
 30
0.0
 10
167.8774273506741
 20
43.22230877782116
 30
0.0
 10
168.8475779716038
 20
42.21021597978067
 30
0.0
 10
169.9380837988503
 20
41.26216740049264
 30
0.0
 10
171.1241627158626
 20
40.41779312992184
 30
0.0
 10
172.3849330913609
 20
39.67583793321342
 30
0.0
 10
173.2835678608
 20
39.28276548669377
 30
0.0
 10
173.7352891769994
 20
39.08517775812816
 30
0.0
  0
LWPOLYLINE
  5
25A
330
1F
100
AcDbEntity
  8
0
  6
Continuous
 62
     7
370
    15
100
AcDbPolyline
 90
        9
 70
   128
 43
0.0
 10
173.7168032615
 20
38.6216653527
 10
173.7441089322
 20
38.7055348771
 10
173.7650385004
 20
38.7866804745
 10
173.7789122127
 20
38.8624666861
 10
173.7852794763
 20
38.9304321159
 10
173.7839334945
 20
38.9883693726
 10
173.7749179822
 20
39.0343967612
 10
173.7585257465
 20
39.0670193973
 10
173.735289177
 20
39.0851777581
  0
LWPOLYLINE
  5
25B
330
1F
100
AcDbEntity
  8
0
  6
Continuous
 62
     7
370
    15
100
AcDbPolyline
 90
        9
 70
   128
 43
0.0
 10
185.3787750925
 20
38.6216653527
 10
185.3514694218
 20
38.7055348771
 10
185.3305398536
 20
38.7866804745
 10
185.3166661413
 20
38.8624666861
 10
185.3102988777
 20
38.9304321159
 10
185.3116448595
 20
38.9883693726
 10
185.3206603718
 20
39.0343967612
 10
185.3370526075
 20
39.0670193973
 10
185.360289177
 20
39.0851777581
  0
SPLINE
  5
25C
330
1F
100
AcDbEntity
  8
0
  6
Continuous
 62
     7
370
    15
100
AcDbSpline
210
0.0
220
0.0
230
1.0
 70
     8
 71
     3
 72
    40
 73
    36
 74
     0
 42
0.000000001
 43
0.00000001
 40
0.0
 40
0.0
 40
0.0
 40
0.0
 40
0.0339407765087969
 40
0.0681997031282087
 40
0.1033404182851239
 40
0.1387354398273964
 40
0.1804904580373694
 40
0.2225565353474857
 40
0.2655085646599373
 40
0.3087448290421799
 40
0.3329133367700988
 40
0.357145877771778
 40
0.3816208694487642
 40
0.4062121851899644
 40
0.4267390304628427
 40
0.4474128625485231
 40
0.472600696959752
 40
0.4938344518822843
 40
0.5118644088921804
 40
0.5301268848480972
 40
0.5397219481922424
 40
0.5587324102295051
 40
0.577909328747625
 40
0.5974829533356373
 40
0.6171500239916615
 40
0.653321038966508
 40
0.6897670188622204
 40
0.7268733564287293
 40
0.7641656424798681
 40
0.803496608495302
 40
0.8430638125564831
 40
0.8834674963670804
 40
0.9242166235465605
 40
0.9619055842019717
 40
1.0
 40
1.0
 40
1.0
 40
1.0
 10
185.3602891770011
 20
39.08517775812749
 30
0.0
 10
185.7635305510366
 20
39.26010018541674
 30
0.0
 10
186.5737931562868
 20
39.61158470753722
 30
0.0
 10
187.7057583344752
 20
40.25507180587678
 30
0.0
 10
188.7763266799057
 20
40.97805408927026
 30
0.0
 10
189.8310507253564
 20
41.82908400930879
 30
0.0
 10
190.8465230369542
 20
42.80913116600677
 30
0.0
 10
191.8072806260115
 20
43.93134527564992
 30
0.0
 10
192.6600487655018
 20
45.14378543513459
 30
0.0
 10
193.2916234054518
 20
46.25463100794656
 30
0.0
 10
193.7493234472642
 20
47.22430887636
 30
0.0
 10
194.074661737017
 20
48.025029652514
 30
0.0
 10
194.3614473173861
 20
48.86327423712928
 30
0.0
 10
194.5929024624916
 20
49.69415316345668
 30
0.0
 10
194.7731140274919
 20
50.51271296638967
 30
0.0
 10
194.9160851617891
 20
51.3698688533641
 30
0.0
 10
195.0122393880409
 20
52.26949002642591
 30
0.0
 10
195.0520158202562
 20
53.15461423197095
 30
0.0
 10
195.0459543943743
 20
53.94833527610576
 30
0.0
 10
195.0107008829919
 20
54.57615394536553
 30
0.0
 10
194.9520766801724
 20
55.20717496958873
 30
0.0
 10
194.8694723715241
 20
55.83851756441104
 30
0.0
 10
194.7359846620013
 20
56.57721439816827
 30
0.0
 10
194.5694797358641
 20
57.29851157542045
 30
0.0
 10
194.3166074047364
 20
58.19686859171139
 30
0.0
 10
193.9452025850397
 20
59.24376986286715
 30
0.0
 10
193.415145974329
 20
60.41799114403047
 30
0.0
 10
192.7917301214551
 20
61.54120375503834
 30
0.0
 10
192.0612202979409
 20
62.63296868652443
 30
0.0
 10
191.218151003328
 20
63.68581587592951
 30
0.0
 10
190.2480003823983
 20
64.69790867397
 30
0.0
 10
189.1574945551518
 20
65.64595725325803
 30
0.0
 10
187.9714156381392
 20
66.490331523829
 30
0.0
 10
186.7106452626404
 20
67.23228672053769
 30
0.0
 10
185.8120104932007
 20
67.6253591670575
 30
0.0
 10
185.3602891770011
 20
67.82294689562318
 30
0.0
  0
LWPOLYLINE
  5
25D
330
1F
100
AcDbEntity
  8
0
  6
Continuous
 62
     7
370
    15
100
AcDbPolyline
 90
        9
 70
   128
 43
0.0
 10
185.360289177
 20
67.8229468956
 10
185.3370526075
 20
67.8411052564
 10
185.3206603718
 20
67.8737278926
 10
185.3116448595
 20
67.9197552812
 10
185.3102988777
 20
67.9776925379
 10
185.3166661413
 20
68.0456579677
 10
185.3305398536
 20
68.1214441793
 10
185.3514694218
 20
68.2025897767
 10
185.3787750925
 20
68.2864593011
  0
ARC
  5
25E
330
1F
100
AcDbEntity
  8
0
  6
Continuous
 62
     7
370
    15
100
AcDbCircle
 10
173.547789177
 20
69.3600360475
 30
0.0
 40
0.5000000000000029
100
AcDbArc
 50
0.0
 51
110.6673164935
  0
LINE
  5
25F
330
1F
100
AcDbEntity
  8
0
  6
Continuous
 62
     7
370
    15
100
AcDbLine
 10
173.7168032615
 20
69.3600360475
 30
0.0
 11
174.047789177
 21
69.3600360475
 31
0.0
  0
LINE
  5
260
330
1F
100
AcDbEntity
  8
0
  6
Continuous
 62
     7
370
    15
100
AcDbLine
 10
185.047789177
 20
69.3600360475
 30
0.0
 11
185.3787750925
 21
69.3600360475
 31
0.0
  0
ARC
  5
261
330
1F
100
AcDbEntity
  8
0
  6
Continuous
 62
     7
370
    15
100
AcDbCircle
 10
185.547789177
 20
69.3600360475
 30
0.0
 40
0.5
100
AcDbArc
 50
69.3326835065
 51
180.0
  0
ARC
  5
262
330
1F
100
AcDbEntity
  8
0
  6
Continuous
 62
     7
370
    15
100
AcDbCircle
 10
185.547789177
 20
37.5480886063
 30
0.0
 40
0.5
100
AcDbArc
 50
180.0
 51
290.6673164935
  0
LINE
  5
263
330
1F
100
AcDbEntity
  8
0
  6
Continuous
 62
     7
370
    15
100
AcDbLine
 10
185.3787750925
 20
37.5480886063
 30
0.0
 11
185.047789177
 21
37.5480886063
 31
0.0
  0
LINE
  5
264
330
1F
100
AcDbEntity
  8
0
  6
Continuous
 62
     7
370
    15
100
AcDbLine
 10
174.047789177
 20
37.5480886063
 30
0.0
 11
173.7168032615
 21
37.5480886063
 31
0.0
  0
ARC
  5
265
330
1F
100
AcDbEntity
  8
0
  6
Continuous
 62
     7
370
    15
100
AcDbCircle
 10
173.547789177
 20
37.5480886063
 30
0.0
 40
0.5000000000000029
100
AcDbArc
 50
249.3326835065
 51
0.0
  0
LINE
  5
266
330
1F
100
AcDbEntity
  8
0
  6
Continuous
 62
     7
370
    15
100
AcDbLine
 10
185.047789177
 20
68.2864593011
 30
0.0
 11
185.047789177
 21
69.3600360475
 31
0.0
  0
LINE
  5
267
330
1F
100
AcDbEntity
  8
0
  6
Continuous
 62
     7
370
    15
100
AcDbLine
 10
185.047789177
 20
68.2864593011
 30
0.0
 11
185.3787750925
 21
68.2864593011
 31
0.0
  0
LINE
  5
268
330
1F
100
AcDbEntity
  8
0
  6
Continuous
 62
     7
370
    15
100
AcDbLine
 10
174.047789177
 20
69.3600360475
 30
0.0
 11
174.047789177
 21
68.2864593011
 31
0.0
  0
LINE
  5
269
330
1F
100
AcDbEntity
  8
0
  6
Continuous
 62
     7
370
    15
100
AcDbLine
 10
173.7168032615
 20
68.2864593011
 30
0.0
 11
174.047789177
 21
68.2864593011
 31
0.0
  0
ARC
  5
26A
330
1F
100
AcDbEntity
  8
0
  6
Continuous
 62
     7
370
    15
100
AcDbCircle
 10
185.547789177
 20
68.2864593011
 30
0.0
 40
0.5000000000000152
100
AcDbArc
 50
180.0
 51
247.975687163
  0
ARC
  5
26B
330
1F
100
AcDbEntity
  8
0
  6
Continuous
 62
     7
370
    15
100
AcDbCircle
 10
173.547789177
 20
68.2864593011
 30
0.0
 40
0.5000000000000259
100
AcDbArc
 50
292.024312837
 51
0.0
  0
LINE
  5
26C
330
1F
100
AcDbEntity
  8
0
  6
Continuous
 62
     7
370
    15
100
AcDbLine
 10
185.3787750925
 20
38.6216653527
 30
0.0
 11
185.047789177
 21
38.6216653527
 31
0.0
  0
ARC
  5
26D
330
1F
100
AcDbEntity
  8
0
  6
Continuous
 62
     7
370
    15
100
AcDbCircle
 10
185.547789177
 20
38.6216653527
 30
0.0
 40
0.500000000000002
100
AcDbArc
 50
112.024312837
 51
180.0
  0
ARC
  5
26E
330
1F
100
AcDbEntity
  8
0
  6
Continuous
 62
     7
370
    15
100
AcDbCircle
 10
173.547789177
 20
38.6216653527
 30
0.0
 40
0.5000000000000127
100
AcDbArc
 50
0.0
 51
67.975687163
  0
LINE
  5
26F
330
1F
100
AcDbEntity
  8
0
  6
Continuous
 62
     7
370
    15
100
AcDbLine
 10
174.047789177
 20
38.6216653527
 30
0.0
 11
173.7168032615
 21
38.6216653527
 31
0.0
  0
LINE
  5
270
330
1F
100
AcDbEntity
  8
0
  6
Continuous
 62
     7
370
    15
100
AcDbLine
 10
174.047789177
 20
38.6216653527
 30
0.0
 11
174.047789177
 21
37.5480886063
 31
0.0
  0
LINE
  5
271
330
1F
100
AcDbEntity
  8
0
  6
Continuous
 62
     7
370
    15
100
AcDbLine
 10
185.047789177
 20
37.5480886063
 30
0.0
 11
185.047789177
 21
38.6216653527
 31
0.0
  0
ARC
  5
272
330
1F
100
AcDbEntity
  8
0
  6
Continuous
 62
     7
370
    15
100
AcDbCircle
 10
179.547789177
 20
53.4540623269
 30
0.0
 40
17.00000000000001
100
AcDbArc
 50
251.0179142381
 51
288.9820857619
  0
ARC
  5
273
330
1F
100
AcDbEntity
  8
0
  6
Continuous
 62
     7
370
    15
100
AcDbCircle
 10
179.547789177
 20
53.4540623269
 30
0.0
 40
17.50000000000002
100
AcDbArc
 50
249.3326835065
 51
290.6673164935
  0
LINE
  5
274
330
1F
100
AcDbEntity
  8
0
  6
Continuous
 62
     7
370
    15
100
AcDbLine
 10
175.047789177
 20
72.9540623269
 30
0.0
 11
174.547789177
 21
72.9540623269
 31
0.0
  0
ARC
  5
275
330
1F
100
AcDbEntity
  8
0
  6
Continuous
 62
     7
370
    15
100
AcDbCircle
 10
175.047789177
 20
72.9540623269
 30
0.0
 40
0.5
100
AcDbArc
 50
90.0
 51
180.0
  0
LINE
  5
276
330
1F
100
AcDbEntity
  8
0
  6
Continuous
 62
     7
370
    15
100
AcDbLine
 10
175.047789177
 20
73.4540623269
 30
0.0
 11
175.047789177
 21
72.9540623269
 31
0.0
  0
LINE
  5
277
330
1F
100
AcDbEntity
  8
0
  6
Continuous
 62
     7
370
    15
100
AcDbLine
 10
184.047789177
 20
70.8824873848
 30
0.0
 11
184.047789177
 21
72.9540623269
 31
0.0
  0
SPLINE
  5
278
330
1F
100
AcDbEntity
  8
0
  6
Continuous
 62
     7
370
    15
100
AcDbSpline
210
0.0
220
0.0
230
1.0
 70
     8
 71
     3
 72
    11
 73
     7
 74
     0
 42
0.000000001
 43
0.00000001
 40
0.0
 40
0.0
 40
0.0
 40
0.0
 40
0.2440955486902936
 40
0.6150436422341996
 40
0.9954186510554908
 40
1.0
 40
1.0
 40
1.0
 40
1.0
 10
184.7647583195692
 20
70.158350188544
 30
0.0
 10
184.6866935683685
 20
70.192692433572
 30
0.0
 10
184.4899950658099
 20
70.27922403801074
 30
0.0
 10
184.2576469612134
 20
70.547828979306
 30
0.0
 10
184.1199102465443
 20
70.7684376948259
 30
0.0
 10
184.0486373921549
 20
70.88114604758302
 30
0.0
 10
184.0477891770011
 20
70.88248738480873
 30
0.0
  0
ARC
  5
279
330
1F
100
AcDbEntity
  8
0
  6
Continuous
 62
     7
370
    15
100
AcDbCircle
 10
185.247789177
 20
67.6526538063
 30
0.0
 40
0.2000000000000187
100
AcDbArc
 50
68.1270919336
 51
180.0
  0
LINE
  5
27A
330
1F
100
AcDbEntity
  8
0
  6
Continuous
 62
     7
370
    15
100
AcDbLine
 10
185.047789177
 20
59.9540623269
 30
0.0
 11
185.047789177
 21
67.6526538063
 31
0.0
  0
ARC
  5
27B
330
1F
100
AcDbEntity
  8
0
  6
Continuous
 62
     7
370
    15
100
AcDbCircle
 10
186.047789177
 20
59.9540623269
 30
0.0
 40
1.000000000000007
100
AcDbArc
 50
180.0
 51
270.0
  0
LINE
  5
27C
330
1F
100
AcDbEntity
  8
0
  6
Continuous
 62
     7
370
    15
100
AcDbLine
 10
192.5092705738
 20
58.9540623269
 30
0.0
 11
186.047789177
 21
58.9540623269
 31
0.0
  0
ARC
  5
27D
330
1F
100
AcDbEntity
  8
0
  6
Continuous
 62
     7
370
    15
100
AcDbCircle
 10
192.5092705738
 20
59.9540623269
 30
0.0
 40
1.00000000000001
100
AcDbArc
 50
270.0
 51
26.6331187492
  0
ARC
  5
27E
330
1F
100
AcDbEntity
  8
0
  6
Continuous
 62
     7
370
    15
100
AcDbCircle
 10
192.5092705738
 20
46.9540623269
 30
0.0
 40
1.000000000000007
100
AcDbArc
 50
333.3668812508
 51
90.0
  0
LINE
  5
27F
330
1F
100
AcDbEntity
  8
0
  6
Continuous
 62
     7
370
    15
100
AcDbLine
 10
186.047789177
 20
47.9540623269
 30
0.0
 11
192.5092705738
 21
47.9540623269
 31
0.0
  0
ARC
  5
280
330
1F
100
AcDbEntity
  8
0
  6
Continuous
 62
     7
370
    15
100
AcDbCircle
 10
186.047789177
 20
46.9540623269
 30
0.0
 40
1.0
100
AcDbArc
 50
90.0
 51
180.0
  0
LINE
  5
281
330
1F
100
AcDbEntity
  8
0
  6
Continuous
 62
     7
370
    15
100
AcDbLine
 10
185.047789177
 20
39.2554708474
 30
0.0
 11
185.047789177
 21
46.9540623269
 31
0.0
  0
ARC
  5
282
330
1F
100
AcDbEntity
  8
0
  6
Continuous
 62
     7
370
    15
100
AcDbCircle
 10
185.247789177
 20
39.2554708474
 30
0.0
 40
0.2000000000000055
100
AcDbArc
 50
180.0
 51
291.8729080664
  0
ARC
  5
283
330
1F
100
AcDbEntity
  8
0
  6
Continuous
 62
     7
370
    15
100
AcDbCircle
 10
173.847789177
 20
39.2554708474
 30
0.0
 40
0.2000000000000055
100
AcDbArc
 50
248.1270919336
 51
0.0
  0
LINE
  5
284
330
1F
100
AcDbEntity
  8
0
  6
Continuous
 62
     7
370
    15
100
AcDbLine
 10
174.047789177
 20
46.9540623269
 30
0.0
 11
174.047789177
 21
39.2554708474
 31
0.0
  0
ARC
  5
285
330
1F
100
AcDbEntity
  8
0
  6
Continuous
 62
     7
370
    15
100
AcDbCircle
 10
173.047789177
 20
46.9540623269
 30
0.0
 40
1.0
100
AcDbArc
 50
0.0
 51
90.0
  0
LINE
  5
286
330
1F
100
AcDbEntity
  8
0
  6
Continuous
 62
     7
370
    15
100
AcDbLine
 10
166.5863077802
 20
47.9540623269
 30
0.0
 11
173.047789177
 21
47.9540623269
 31
0.0
  0
ARC
  5
287
330
1F
100
AcDbEntity
  8
0
  6
Continuous
 62
     7
370
    15
100
AcDbCircle
 10
166.5863077802
 20
46.9540623269
 30
0.0
 40
1.0
100
AcDbArc
 50
90.0
 51
206.6331187492
  0
ARC
  5
288
330
1F
100
AcDbEntity
  8
0
  6
Continuous
 62
     7
370
    15
100
AcDbCircle
 10
166.5863077802
 20
59.9540623269
 30
0.0
 40
1.000000000000007
100
AcDbArc
 50
153.3668812508
 51
270.0
  0
LINE
  5
289
330
1F
100
AcDbEntity
  8
0
  6
Continuous
 62
     7
370
    15
100
AcDbLine
 10
173.047789177
 20
58.9540623269
 30
0.0
 11
166.5863077802
 21
58.9540623269
 31
0.0
  0
ARC
  5
28A
330
1F
100
AcDbEntity
  8
0
  6
Continuous
 62
     7
370
    15
100
AcDbCircle
 10
173.047789177
 20
59.9540623269
 30
0.0
 40
1.000000000000007
100
AcDbArc
 50
270.0
 51
0.0
  0
LINE
  5
28B
330
1F
100
AcDbEntity
  8
0
  6
Continuous
 62
     7
370
    15
100
AcDbLine
 10
174.047789177
 20
67.6526538063
 30
0.0
 11
174.047789177
 21
59.9540623269
 31
0.0
  0
ARC
  5
28C
330
1F
100
AcDbEntity
  8
0
  6
Continuous
 62
     7
370
    15
100
AcDbCircle
 10
173.847789177
 20
67.6526538063
 30
0.0
 40
0.2000000000000187
100
AcDbArc
 50
0.0
 51
111.8729080664
  0
SPLINE
  5
28D
330
1F
100
AcDbEntity
  8
0
  6
Continuous
 62
     7
370
    15
100
AcDbSpline
210
0.0
220
0.0
230
1.0
 70
     8
 71
     3
 72
    11
 73
     7
 74
     0
 42
0.000000001
 43
0.00000001
 40
0.0
 40
0.0
 40
0.0
 40
0.0
 40
0.0045813489432637
 40
0.3849563577650364
 40
0.7559044513094011
 40
1.0
 40
1.0
 40
1.0
 40
1.0
 10
175.047789177001
 20
70.88248738480718
 30
0.0
 10
175.0469409618472
 20
70.881146047582
 30
0.0
 10
174.9756681074372
 20
70.76843769483827
 30
0.0
 10
174.8379313927979
 20
70.54782897930023
 30
0.0
 10
174.6055832881907
 20
70.27922403801159
 30
0.0
 10
174.4088847856331
 20
70.19269243357225
 30
0.0
 10
174.3308200344328
 20
70.15835018854399
 30
0.0
  0
LINE
  5
28E
330
1F
100
AcDbEntity
  8
0
  6
Continuous
 62
     7
370
    15
100
AcDbLine
 10
175.047789177
 20
72.9540623269
 30
0.0
 11
175.047789177
 21
70.8824873848
 31
0.0
  0
LINE
  5
28F
330
1F
100
AcDbEntity
  8
0
  6
Continuous
 62
     7
370
    15
100
AcDbLine
 10
184.047789177
 20
72.9540623269
 30
0.0
 11
175.047789177
 21
72.9540623269
 31
0.0
  0
CIRCLE
  5
290
330
1F
100
AcDbEntity
  8
0
  6
Continuous
 62
     7
370
    15
100
AcDbCircle
 10
179.547789177
 20
53.4540623269
 30
0.0
 40
3.200000000000017
  0
CIRCLE
  5
291
330
1F
100
AcDbEntity
  8
0
  6
Continuous
 62
     7
370
    15
100
AcDbCircle
 10
179.547789177
 20
63.4540623269
 30
0.0
 40
2.099999999999994
  0
CIRCLE
  5
292
330
1F
100
AcDbEntity
  8
0
  6
Continuous
 62
     7
370
    15
100
AcDbCircle
 10
179.547789177
 20
43.4540623269
 30
0.0
 40
2.099999999999994
  0
ARC
  5
293
330
1F
100
AcDbEntity
  8
0
  6
Continuous
 62
     7
370
    15
100
AcDbCircle
 10
179.547789177
 20
53.4540623269
 30
0.0
 40
17.5
100
AcDbArc
 50
69.3326835065
 51
72.6557279393
  0
ARC
  5
294
330
1F
100
AcDbEntity
  8
0
  6
Continuous
 62
     7
370
    15
100
AcDbCircle
 10
179.547789177
 20
53.4540623269
 30
0.0
 40
17.50000000000001
100
AcDbArc
 50
107.3442720607
 51
110.6673164935
  0
SPLINE
  5
295
330
1F
100
AcDbEntity
  8
0
  6
Continuous
 62
     7
370
    15
100
AcDbSpline
210
0.0
220
0.0
230
1.0
 70
     8
 71
     3
 72
    24
 73
    20
 74
     0
 42
0.000000001
 43
0.00000001
 40
0.0
 40
0.0
 40
0.0
 40
0.0
 40
0.0954259502197732
 40
0.1440796117871442
 40
0.1936356623551271
 40
0.2423212510752009
 40
0.2913954575363032
 40
0.3416229049850794
 40
0.3922159177469309
 40
0.4438393906782465
 40
0.4958006812368232
 40
0.5487571217398457
 40
0.6020295793347702
 40
0.6571823358621381
 40
0.7126554503193743
 40
0.7690999670401497
 40
0.8258666253269733
 40
0.9123527863002449
 40
1.0
 40
1.0
 40
1.0
 40
1.0
 10
174.547789177001
 20
70.59319882787794
 30
0.0
 10
174.5489986231192
 20
70.59397616178262
 30
0.0
 10
174.5508247147305
 20
70.59514982541351
 30
0.0
 10
174.5620570514488
 20
70.6023342746618
 30
0.0
 10
174.573448729247
 20
70.6095897306205
 30
0.0
 10
174.587980879627
 20
70.61879724969693
 30
0.0
 10
174.605372835416
 20
70.62974557769365
 30
0.0
 10
174.6256696063029
 20
70.64242464088926
 30
0.0
 10
174.6488307411632
 20
70.65676416095862
 30
0.0
 10
174.6745987261873
 20
70.67255688231
 30
0.0
 10
174.7029286675885
 20
70.68972476177174
 30
0.0
 10
174.7335402881242
 20
70.70804662716003
 30
0.0
 10
174.7665857832249
 20
70.72756004802791
 30
0.0
 10
174.8018052252322
 20
70.7480548548285
 30
0.0
 10
174.8392021380859
 20
70.76947429893762
 30
0.0
 10
174.8782666803
 20
70.79147830513519
 30
0.0
 10
174.9258146636134
 20
70.81777612973312
 30
0.0
 10
174.9823193831151
 20
70.8483731528109
 30
0.0
 10
175.0258691215406
 20
70.87106553951084
 30
0.0
 10
175.047789177001
 20
70.88248738480718
 30
0.0
  0
LINE
  5
296
330
1F
100
AcDbEntity
  8
0
  6
Continuous
 62
     7
370
    15
100
AcDbLine
 10
174.547789177
 20
70.5931988279
 30
0.0
 11
174.547789177
 21
72.9540623269
 31
0.0
  0
ARC
  5
297
330
1F
100
AcDbEntity
  8
0
  6
Continuous
 62
     7
370
    15
100
AcDbCircle
 10
184.047789177
 20
72.9540623269
 30
0.0
 40
0.5
100
AcDbArc
 50
360.0
 51
90.0
  0
LINE
  5
298
330
1F
100
AcDbEntity
  8
0
  6
Continuous
 62
     7
370
    15
100
AcDbLine
 10
184.047789177
 20
72.9540623269
 30
0.0
 11
184.547789177
 21
72.9540623269
 31
0.0
  0
LINE
  5
299
330
1F
100
AcDbEntity
  8
0
  6
Continuous
 62
     7
370
    15
100
AcDbLine
 10
184.047789177
 20
72.9540623269
 30
0.0
 11
184.047789177
 21
73.4540623269
 31
0.0
  0
LINE
  5
29A
330
1F
100
AcDbEntity
  8
0
  6
Continuous
 62
     7
370
    15
100
AcDbLine
 10
175.047789177
 20
73.4540623269
 30
0.0
 11
184.047789177
 21
73.4540623269
 31
0.0
  0
LINE
  5
29B
330
1F
100
AcDbEntity
  8
0
  6
Continuous
 62
     7
370
    15
100
AcDbLine
 10
184.547789177
 20
72.9540623269
 30
0.0
 11
184.547789177
 21
70.5931988279
 31
0.0
  0
SPLINE
  5
29C
330
1F
100
AcDbEntity
  8
0
  6
Continuous
 62
     7
370
    15
100
AcDbSpline
210
0.0
220
0.0
230
1.0
 70
     8
 71
     3
 72
    24
 73
    20
 74
     0
 42
0.000000001
 43
0.00000001
 40
0.0
 40
0.0
 40
0.0
 40
0.0
 40
0.0864822783919459
 40
0.1741322209834927
 40
0.2293060630700326
 40
0.2847787361016592
 40
0.3412041815775272
 40
0.3979676745518625
 40
0.4496415451855102
 40
0.501602411017822
 40
0.5545141324998579
 40
0.6077797120506689
 40
0.6565297137028618
 40
0.7056040084091358
 40
0.7557740544736286
 40
0.8063583047534449
 40
0.9018139944983654
 40
0.9504488912567386
 40
0.9999999999999999
 40
0.9999999999999999
 40
0.9999999999999999
 40
0.9999999999999999
 10
184.0477891770011
 20
70.88248738480871
 30
0.0
 10
184.0694179865865
 20
70.871218495989
 30
0.0
 10
184.1129676330617
 20
70.84852856835667
 30
0.0
 10
184.1690971872269
 20
70.81814013373128
 30
0.0
 10
184.2163253748435
 20
70.79202581486831
 30
0.0
 10
184.2550593958999
 20
70.77022215979193
 30
0.0
 10
184.2928666515072
 20
70.74858082188011
 30
0.0
 10
184.3283192808017
 20
70.7279546364993
 30
0.0
 10
184.3611867051531
 20
70.70855073473884
 30
0.0
 10
184.3915528235482
 20
70.69038538585458
 30
0.0
 10
184.4202578299963
 20
70.6729984228463
 30
0.0
 10
184.4461898956903
 20
70.65710750382065
 30
0.0
 10
184.4691861712191
 20
70.64287289286452
 30
0.0
 10
184.4893464452669
 20
70.6302844152569
 30
0.0
 10
184.5070955327437
 20
70.61911504742126
 30
0.0
 10
184.5265205484639
 20
70.6068082145236
 30
0.0
 10
184.5397551607402
 20
70.59835054706795
 30
0.0
 10
184.5467764786653
 20
70.59384905615867
 30
0.0
 10
184.5474495174265
 20
70.59341691479814
 30
0.0
 10
184.5477891770011
 20
70.59319882787794
 30
0.0
  0
ARC
  5
29D
330
1F
100
AcDbEntity
  8
0
  6
Continuous
 62
     7
370
    15
100
AcDbCircle
 10
185.047789177
 20
70.5931988279
 30
0.0
 40
0.5000000000000193
100
AcDbArc
 50
180.0
 51
248.0856822642
  0
ARC
  5
29E
330
1F
100
AcDbEntity
  8
0
  6
Continuous
 62
     7
370
    15
100
AcDbCircle
 10
174.047789177
 20
70.5931988279
 30
0.0
 40
0.5000000000000022
100
AcDbArc
 50
287.791590573
 51
0.0
  0
SPLINE
  5
29F
330
1F
100
AcDbEntity
  8
0
  6
Continuous
 62
     7
370
    15
100
AcDbSpline
210
0.0
220
0.0
230
1.0
 70
     8
 71
     3
 72
    17
 73
    13
 74
     0
 42
0.000000001
 43
0.00000001
 40
0.0
 40
0.0
 40
0.0
 40
0.0
 40
0.0755416022318911
 40
0.1523063614545865
 40
0.2597999906246293
 40
0.3706714076242482
 40
0.4762123765675878
 40
0.5846777189903957
 40
0.687119753310537
 40
0.7923332121136939
 40
0.8946281919132173
 40
1.0
 40
1.0
 40
1.0
 40
1.0
 10
179.5477891770011
 20
35.45406232687533
 30
0.0
 10
179.3486495467637
 20
35.45639036152689
 30
0.0
 10
178.9471458506976
 20
35.46108412597779
 30
0.0
 10
178.273307648453
 20
35.50342884928213
 30
0.0
 10
177.5366819852849
 20
35.58322682862071
 30
0.0
 10
176.7905729978049
 20
35.70559852184093
 30
0.0
 10
176.1240790264858
 20
35.84794121387836
 30
0.0
 10
175.5690817966426
 20
35.99115894667572
 30
0.0
 10
175.120535074532
 20
36.12354066790789
 30
0.0
 10
174.7975679093563
 20
36.2282763207777
 30
0.0
 10
174.5876110535065
 20
36.30075941086205
 30
0.0
 10
174.5611936043872
 20
36.31015727406159
 30
0.0
 10
174.547789177001
 20
36.31492582587272
 30
0.0
  0
ARC
  5
2A0
330
1F
100
AcDbEntity
  8
0
  6
Continuous
 62
     7
370
    15
100
AcDbCircle
 10
174.047789177
 20
36.3149258259
 30
0.0
 40
0.500000000000009
100
AcDbArc
 50
0.0
 51
72.208409427
  0
LINE
  5
2A1
330
1F
100
AcDbEntity
  8
0
  6
Continuous
 62
     7
370
    15
100
AcDbLine
 10
179.547789177
 20
35.4540623269
 30
0.0
 11
179.547789177
 21
35.9540623269
 31
0.0
  0
LINE
  5
2A2
330
1F
100
AcDbEntity
  8
0
  6
Continuous
 62
     7
370
    15
100
AcDbLine
 10
174.2005669548
 20
36.7910129509
 30
0.0
 11
174.2035769298
 21
36.7900539866
 31
0.0
  0
SPLINE
  5
2A3
330
1F
100
AcDbEntity
  8
0
  6
Continuous
 62
     7
370
    15
100
AcDbSpline
210
0.0
220
0.0
230
1.0
 70
     8
 71
     3
 72
    17
 73
    13
 74
     0
 42
0.000000001
 43
0.00000001
 40
0.0
 40
0.0
 40
0.0
 40
0.0
 40
0.0753969313878999
 40
0.1520210222322129
 40
0.2595616387857665
 40
0.3704797670381796
 40
0.4758664829107491
 40
0.5841586055545274
 40
0.6867251013345622
 40
0.7920859580121644
 40
0.8945081105937216
 40
1.0
 40
1.0
 40
1.0
 40
1.0
 10
184.5477891770011
 20
36.31492582587272
 30
0.0
 10
184.5409122350405
 20
36.31248833921487
 30
0.0
 10
184.5270464221031
 20
36.30757369339863
 30
0.0
 10
184.4002289264807
 20
36.26332145187116
 30
0.0
 10
184.1536671338491
 20
36.18036327381304
 30
0.0
 10
183.7489384015942
 20
36.05469603232539
 30
0.0
 10
183.2262762313578
 20
35.91085417647072
 30
0.0
 10
182.6164998846239
 20
35.76837165754645
 30
0.0
 10
181.9227041047523
 20
35.63851409735333
 30
0.0
 10
181.1756404156017
 20
35.53703756750539
 30
0.0
 10
180.374485355952
 20
35.46756240111534
 30
0.0
 10
179.8260536677034
 20
35.45860642829795
 30
0.0
 10
179.5477891770011
 20
35.45406232687533
 30
0.0
  0
ARC
  5
2A4
330
1F
100
AcDbEntity
  8
0
  6
Continuous
 62
     7
370
    15
100
AcDbCircle
 10
185.047789177
 20
36.3149258259
 30
0.0
 40
0.500000000000009
100
AcDbArc
 50
107.791590573
 51
180.0
  0
LINE
  5
2A5
330
1F
100
AcDbEntity
  8
0
  6
Continuous
 62
     7
370
    15
100
AcDbLine
 10
184.8927928389
 20
36.7903038777
 30
0.0
 11
184.8950113992
 21
36.7910129509
 31
0.0
  0
LINE
  5
2A6
330
1F
100
AcDbEntity
  8
0
  6
Continuous
 62
     7
370
    15
100
AcDbLine
 10
179.547789177
 20
33.9540623269
 30
0.0
 11
184.547789177
 21
33.9540623269
 31
0.0
  0
LINE
  5
2A7
330
1F
100
AcDbEntity
  8
0
  6
Continuous
 62
     7
370
    15
100
AcDbLine
 10
179.547789177
 20
35.4540623269
 30
0.0
 11
179.547789177
 21
33.9540623269
 31
0.0
  0
LINE
  5
2A8
330
1F
100
AcDbEntity
  8
0
  6
Continuous
 62
     7
370
    15
100
AcDbLine
 10
184.547789177
 20
36.3149258259
 30
0.0
 11
184.547789177
 21
33.9540623269
 31
0.0
  0
LINE
  5
2A9
330
1F
100
AcDbEntity
  8
0
  6
Continuous
 62
     7
370
    15
100
AcDbLine
 10
174.547789177
 20
33.9540623269
 30
0.0
 11
179.547789177
 21
33.9540623269
 31
0.0
  0
LINE
  5
2AA
330
1F
100
AcDbEntity
  8
0
  6
Continuous
 62
     7
370
    15
100
AcDbLine
 10
174.547789177
 20
33.9540623269
 30
0.0
 11
174.547789177
 21
36.3149258259
 31
0.0
  0
LINE
  5
2AB
330
1F
100
AcDbEntity
  8
0
  6
Continuous
 62
     7
370
    15
100
AcDbLine
 10
184.047789177
 20
33.4540623269
 30
0.0
 11
179.547789177
 21
33.4540623269
 31
0.0
  0
LINE
  5
2AC
330
1F
100
AcDbEntity
  8
0
  6
Continuous
 62
     7
370
    15
100
AcDbLine
 10
179.547789177
 20
33.4540623269
 30
0.0
 11
179.547789177
 21
33.9540623269
 31
0.0
  0
ARC
  5
2AD
330
1F
100
AcDbEntity
  8
0
  6
Continuous
 62
     7
370
    15
100
AcDbCircle
 10
184.047789177
 20
33.9540623269
 30
0.0
 40
0.5
100
AcDbArc
 50
270.0
 51
0.0
  0
LINE
  5
2AE
330
1F
100
AcDbEntity
  8
0
  6
Continuous
 62
     7
370
    15
100
AcDbLine
 10
179.547789177
 20
33.4540623269
 30
0.0
 11
175.047789177
 21
33.4540623269
 31
0.0
  0
ARC
  5
2AF
330
1F
100
AcDbEntity
  8
0
  6
Continuous
 62
     7
370
    15
100
AcDbCircle
 10
175.047789177
 20
33.9540623269
 30
0.0
 40
0.5
100
AcDbArc
 50
180.0
 51
270.0
  0
ARC
  5
2B0
330
1F
100
AcDbEntity
  8
0
  6
Continuous
 62
     7
370
    15
100
AcDbCircle
 10
185.047789177
 20
71.6405958063
 30
0.0
 40
0.5000000000000138
100
AcDbArc
 50
180.0
 51
253.1735511073
  0
SPLINE
  5
2B1
330
1F
100
AcDbEntity
  8
0
  6
Continuous
 62
     7
370
    15
100
AcDbSpline
210
0.0
220
0.0
230
1.0
 70
     8
 71
     3
 72
    17
 73
    13
 74
     0
 42
0.000000001
 43
0.00000001
 40
0.0
 40
0.0
 40
0.0
 40
0.0
 40
0.0511800635057501
 40
0.1028938755676296
 40
0.2022395769618782
 40
0.3053167969105837
 40
0.4132270987305981
 40
0.5247978449451274
 40
0.6404070137877572
 40
0.7592622920234466
 40
0.8782503514259519
 40
1.0
 40
1.0
 40
1.0
 40
1.0
 10
184.9030523348958
 20
71.16200282004661
 30
0.0
 10
184.9031540623326
 20
71.16158443363777
 30
0.0
 10
184.9033585781052
 20
71.16074329753626
 30
0.0
 10
184.9055040870328
 20
71.15192557616635
 30
0.0
 10
184.910578609539
 20
71.13110348225219
 30
0.0
 10
184.920574507869
 20
71.09029664996636
 30
0.0
 10
184.9344654916918
 20
71.03402387525895
 30
0.0
 10
184.9520305123809
 20
70.96358488350133
 30
0.0
 10
184.9728030915676
 20
70.8812836067825
 30
0.0
 10
184.9961169450861
 20
70.79022185891382
 30
0.0
 10
185.0213188314053
 20
70.69313831935266
 30
0.0
 10
185.0388985075317
 20
70.6267657861341
 30
0.0
 10
185.0477891770011
 20
70.59319882787794
 30
0.0
  0
LINE
  5
2B2
330
1F
100
AcDbEntity
  8
0
  6
Continuous
 62
     7
370
    15
100
AcDbLine
 10
185.047789177
 20
70.5931988279
 30
0.0
 11
184.547789177
 21
70.5931988279
 31
0.0
  0
ARC
  5
2B3
330
1F
100
AcDbEntity
  8
0
  6
Continuous
 62
     7
370
    15
100
AcDbCircle
 10
174.047789177
 20
35.2675288474
 30
0.0
 40
0.5
100
AcDbArc
 50
0.0
 51
73.1735511073
  0
SPLINE
  5
2B4
330
1F
100
AcDbEntity
  8
0
  6
Continuous
 62
     7
370
    15
100
AcDbSpline
210
0.0
220
0.0
230
1.0
 70
     8
 71
     3
 72
    24
 73
    20
 74
     0
 42
0.000000001
 43
0.00000001
 40
0.0
 40
0.0
 40
0.0
 40
0.0
 40
0.0593510391352149
 40
0.1190173683651378
 40
0.1796957079133044
 40
0.2407362169262371
 40
0.2984090752767087
 40
0.3564300143533401
 40
0.4156127762443667
 40
0.475230727742867
 40
0.5290525085927292
 40
0.5832585427240788
 40
0.6387696810696895
 40
0.6947767123373108
 40
0.7945673144240267
 40
0.8453961157047942
 40
0.8971793433882339
 40
0.9483243260030325
 40
0.9999999999999999
 40
0.9999999999999999
 40
0.9999999999999999
 40
0.9999999999999999
 10
174.047789177001
 20
36.31492582587273
 30
0.0
 10
174.0521328140571
 20
36.29856550990609
 30
0.0
 10
174.0608431628409
 20
36.26575796718495
 30
0.0
 10
174.0738049069137
 20
36.21645137668251
 30
0.0
 10
174.0866584632463
 20
36.16720005770362
 30
0.0
 10
174.0990585978927
 20
36.11930589278358
 30
0.0
 10
174.1109024791152
 20
36.07321990618893
 30
0.0
 10
174.1221913494437
 20
36.02898102199229
 30
0.0
 10
174.1330865620751
 20
35.98598820678961
 30
0.0
 10
174.1431250429941
 20
35.94610947487241
 30
0.0
 10
174.1522339850746
 20
35.90970498199519
 30
0.0
 10
174.1604514853838
 20
35.87668588883852
 30
0.0
 10
174.1680106270944
 20
35.84615855255134
 30
0.0
 10
174.1765413766815
 20
35.81154781051023
 30
0.0
 10
174.1832318646679
 20
35.78423980890926
 30
0.0
 10
174.1879684990684
 20
35.76483889068889
 30
0.0
 10
174.1905644802393
 20
35.75418450139939
 30
0.0
 10
174.1922171699637
 20
35.74739204066059
 30
0.0
 10
174.1924227157621
 20
35.74654669040024
 30
0.0
 10
174.1925260191063
 20
35.74612183370404
 30
0.0
  0
LINE
  5
2B5
330
1F
100
AcDbEntity
  8
0
  6
Continuous
 62
     7
370
    15
100
AcDbLine
 10
174.547789177
 20
36.3149258259
 30
0.0
 11
174.047789177
 21
36.3149258259
 31
0.0
  0
SPLINE
  5
2B6
330
1F
100
AcDbEntity
  8
0
  6
Continuous
 62
     7
370
    15
100
AcDbSpline
210
0.0
220
0.0
230
1.0
 70
     8
 71
     3
 72
    17
 73
    13
 74
     0
 42
0.000000001
 43
0.00000001
 40
0.0
 40
0.0
 40
0.0
 40
0.0
 40
0.0909277075070817
 40
0.1830180897881747
 40
0.293156154031791
 40
0.4057557583757545
 40
0.5078194188164833
 40
0.6124774788525424
 40
0.7089880672812497
 40
0.8084465483339465
 40
0.9025480604684114
 40
0.9999999999999999
 40
0.9999999999999999
 40
0.9999999999999999
 40
0.9999999999999999
 10
174.047789177001
 20
70.59319882787794
 30
0.0
 10
174.054434059981
 20
70.61825720634744
 30
0.0
 10
174.0678087927574
 20
70.66869437986048
 30
0.0
 10
174.0886667479357
 20
70.74855673637367
 30
0.0
 10
174.1101793593674
 20
70.83193290335913
 30
0.0
 10
174.1308584342599
 20
70.91321195518779
 30
0.0
 10
174.1492388907177
 20
70.98634062489923
 30
0.0
 10
174.1644300881217
 20
71.04743118733045
 30
0.0
 10
174.1768027836925
 20
71.09762778395259
 30
0.0
 10
174.1856688238248
 20
71.13384543024118
 30
0.0
 10
174.191433068904
 20
71.15750579323648
 30
0.0
 10
174.1921574788635
 20
71.16048643316208
 30
0.0
 10
174.1925260191063
 20
71.16200282004661
 30
0.0
  0
ARC
  5
2B7
330
1F
100
AcDbEntity
  8
0
  6
Continuous
 62
     7
370
    15
100
AcDbCircle
 10
174.047789177
 20
71.6405958063
 30
0.0
 40
0.5000000000000056
100
AcDbArc
 50
286.8264488927
 51
0.0
  0
LINE
  5
2B8
330
1F
100
AcDbEntity
  8
0
  6
Continuous
 62
     7
370
    15
100
AcDbLine
 10
174.047789177
 20
70.5931988279
 30
0.0
 11
174.547789177
 21
70.5931988279
 31
0.0
  0
LINE
  5
2B9
330
1F
100
AcDbEntity
  8
0
  6
Continuous
 62
     7
370
    15
100
AcDbLine
 10
184.547789177
 20
36.3149258259
 30
0.0
 11
185.047789177
 21
36.3149258259
 31
0.0
  0
SPLINE
  5
2BA
330
1F
100
AcDbEntity
  8
0
  6
Continuous
 62
     7
370
    15
100
AcDbSpline
210
0.0
220
0.0
230
1.0
 70
     8
 71
     3
 72
    12
 73
     8
 74
     0
 42
0.000000001
 43
0.00000001
 40
0.0
 40
0.0
 40
0.0
 40
0.0
 40
0.1913187904457576
 40
0.3871593850822248
 40
0.593874435102082
 40
0.8166932164673646
 40
0.9999999999999999
 40
0.9999999999999999
 40
0.9999999999999999
 40
0.9999999999999999
 10
184.9030523348958
 20
35.74612183370405
 30
0.0
 10
184.9045024015257
 20
35.75209758203503
 30
0.0
 10
184.9074368069934
 20
35.76419031502711
 30
0.0
 10
184.930110771408
 20
35.85678166363036
 30
0.0
 10
184.9640389784118
 20
35.99264240731011
 30
0.0
 10
185.0049533600773
 20
36.15279998015589
 30
0.0
 10
185.0344677231629
 20
36.26450652434477
 30
0.0
 10
185.0477891770011
 20
36.31492582587273
 30
0.0
  0
ARC
  5
2BB
330
1F
100
AcDbEntity
  8
0
  6
Continuous
 62
     7
370
    15
100
AcDbCircle
 10
185.047789177
 20
35.2675288474
 30
0.0
 40
0.5000000000000138
100
AcDbArc
 50
106.8264488927
 51
180.0
  0
LINE
  5
2BC
330
1F
100
AcDbEntity
  8
0
  6
Continuous
 62
     7
370
    15
100
AcDbLine
 10
185.047789177
 20
70.5931988279
 30
0.0
 11
184.8950113992
 21
70.1171117029
 31
0.0
  0
LINE
  5
2BD
330
1F
100
AcDbEntity
  8
0
  6
Continuous
 62
     7
370
    15
100
AcDbLine
 10
174.2005669548
 20
70.1171117029
 30
0.0
 11
174.047789177
 21
70.5931988279
 31
0.0
  0
ARC
  5
2BE
330
1F
100
AcDbEntity
  8
0
  6
Continuous
 62
     7
370
    15
100
AcDbCircle
 10
179.547789177
 20
53.4540623269
 30
0.0
 40
18.00000000000001
100
AcDbArc
 50
287.791590573
 51
72.208409427
  0
LINE
  5
2BF
330
1F
100
AcDbEntity
  8
0
  6
Continuous
 62
     7
370
    15
100
AcDbLine
 10
185.047789177
 20
36.3149258259
 30
0.0
 11
184.8950113992
 21
36.7910129509
 31
0.0
  0
ARC
  5
2C0
330
1F
100
AcDbEntity
  8
0
  6
Continuous
 62
     7
370
    15
100
AcDbCircle
 10
179.547789177
 20
53.4540623269
 30
0.0
 40
18.00000000000001
100
AcDbArc
 50
107.791590573
 51
252.208409427
  0
LINE
  5
2C1
330
1F
100
AcDbEntity
  8
0
  6
Continuous
 62
     7
370
    15
100
AcDbLine
 10
174.2005669548
 20
36.7910129509
 30
0.0
 11
174.047789177
 21
36.3149258259
 31
0.0
  0
ARC
  5
2C2
330
1F
100
AcDbEntity
  8
0
  6
Continuous
 62
     7
370
    15
100
AcDbCircle
 10
179.547789177
 20
53.4540623269
 30
0.0
 40
18.49999999999999
100
AcDbArc
 50
286.8264488927
 51
73.1735511073
  0
ARC
  5
2C3
330
1F
100
AcDbEntity
  8
0
  6
Continuous
 62
     7
370
    15
100
AcDbCircle
 10
179.547789177
 20
53.4540623269
 30
0.0
 40
18.50000000000001
100
AcDbArc
 50
106.8264488927
 51
253.1735511073
  0
ENDSEC
  0
SECTION
  2
OBJECTS
  0
DICTIONARY
  5
C
330
0
100
AcDbDictionary
281
     1
  3
ACAD_GROUP
350
D
  3
ACAD_LAYOUT
350
1A
  3
ACAD_MLINESTYLE
350
17
  3
ACAD_PLOTSETTINGS
350
19
  3
ACAD_PLOTSTYLENAME
350
E
  3
ACAD_SCALELIST
350
47
  0
DICTIONARY
  5
D
102
{ACAD_REACTORS
330
C
102
}
330
C
100
AcDbDictionary
281
     1
  0
DICTIONARY
  5
1A
102
{ACAD_REACTORS
330
C
102
}
330
C
100
AcDbDictionary
281
     1
  3
Layout1
350
1E
  3
Layout2
350
26
  3
Model
350
22
  0
DICTIONARY
  5
17
102
{ACAD_REACTORS
330
C
102
}
330
C
100
AcDbDictionary
281
     1
  3
Standard
350
18
  0
DICTIONARY
  5
19
102
{ACAD_REACTORS
330
C
102
}
330
C
100
AcDbDictionary
281
     1
  0
ACDBDICTIONARYWDFLT
  5
E
102
{ACAD_REACTORS
330
C
102
}
330
C
100
AcDbDictionary
281
     1
  3
Normal
350
F
100
AcDbDictionaryWithDefault
340
F
  0
DICTIONARY
  5
47
102
{ACAD_REACTORS
330
C
102
}
330
C
100
AcDbDictionary
281
     1
  3
A0
350
48
  3
A1
350
49
  3
A2
350
4A
  3
A3
350
4B
  3
A4
350
4C
  3
A5
350
4D
  3
A6
350
4E
  3
A7
350
4F
  3
A8
350
50
  3
A9
350
51
  3
B0
350
52
  3
B1
350
53
  3
B2
350
54
  3
B3
350
55
  3
B4
350
56
  3
B5
350
57
  3
B6
350
58
  3
B7
350
59
  3
B8
350
5A
  3
B9
350
5B
  3
C0
350
5C
  3
C1
350
5D
  3
C2
350
5E
  3
C3
350
5F
  3
C4
350
60
  3
C5
350
61
  3
C6
350
62
  3
C7
350
63
  3
C8
350
64
  3
C9
350
65
  3
D0
350
66
  3
D1
350
67
  3
D2
350
68
  0
LAYOUT
  5
1E
102
{ACAD_REACTORS
330
1A
102
}
330
1A
100
AcDbPlotSettings
  1

  2
none_device
  4

  6

 40
0.0
 41
0.0
 42
0.0
 43
0.0
 44
0.0
 45
0.0
 46
0.0
 47
0.0
 48
0.0
 49
0.0
140
0.0
141
0.0
142
1.0
143
1.0
 70
   688
 72
     1
 73
     0
 74
     5
  7

 75
    16
147
1.0
148
0.0
149
0.0
100
AcDbLayout
  1
Layout1
 70
     1
 71
     1
 10
0.0
 20
0.0
 11
420.0
 21
297.0
 12
0.0
 22
0.0
 32
0.0
 14
1.0000000000E+20
 24
1.0000000000E+20
 34
1.0000000000E+20
 15
-1.0000000000E+20
 25
-1.0000000000E+20
 35
-1.0000000000E+20
146
0.0
 13
0.0
 23
0.0
 33
0.0
 16
1.0
 26
0.0
 36
0.0
 17
0.0
 27
1.0
 37
0.0
 76
     0
330
1B
  0
LAYOUT
  5
26
102
{ACAD_REACTORS
330
1A
102
}
330
1A
100
AcDbPlotSettings
  1

  2
none_device
  4

  6

 40
0.0
 41
0.0
 42
0.0
 43
0.0
 44
0.0
 45
0.0
 46
0.0
 47
0.0
 48
0.0
 49
0.0
140
0.0
141
0.0
142
1.0
143
1.0
 70
   688
 72
     1
 73
     0
 74
     5
  7

 75
    16
147
1.0
148
0.0
149
0.0
100
AcDbLayout
  1
Layout2
 70
     1
 71
     2
 10
0.0
 20
0.0
 11
0.0
 21
0.0
 12
0.0
 22
0.0
 32
0.0
 14
0.0
 24
0.0
 34
0.0
 15
0.0
 25
0.0
 35
0.0
146
0.0
 13
0.0
 23
0.0
 33
0.0
 16
1.0
 26
0.0
 36
0.0
 17
0.0
 27
1.0
 37
0.0
 76
     0
330
23
  0
LAYOUT
  5
22
102
{ACAD_REACTORS
330
1A
102
}
330
1A
100
AcDbPlotSettings
  1

  2
none_device
  4
Letter_(8.50_x_11.00_Inches)
  6

 40
6.35
 41
6.35
 42
6.35000508
 43
6.35000508
 44
215.9
 45
279.4
 46
0.0
 47
0.0
 48
0.0
 49
0.0
140
0.0
141
0.0
142
1.0
143
1.0
 70
  1712
 72
     1
 73
     0
 74
     0
  7

 75
     0
147
1.0
148
0.0
149
0.0
100
AcDbLayout
  1
Model
 70
     1
 71
     0
 10
0.0
 20
0.0
 11
279.4
 21
215.9
 12
0.0
 22
0.0
 32
0.0
 14
0.0
 24
0.0
 34
0.0
 15
279.4
 25
215.9
 35
0.0
146
0.0
 13
0.0
 23
0.0
 33
0.0
 16
1.0
 26
0.0
 36
0.0
 17
0.0
 27
1.0
 37
0.0
 76
     0
330
1F
331
29
  0
MLINESTYLE
  5
18
102
{ACAD_REACTORS
330
17
102
}
330
17
100
AcDbMlineStyle
  2
Standard
 70
     0
  3

 62
   256
 51
90.0
 52
90.0
 71
     2
 49
0.5
 62
   256
  6
BYLAYER
 49
-0.5
 62
   256
  6
BYLAYER
  0
ACDBPLACEHOLDER
  5
F
102
{ACAD_REACTORS
330
E
102
}
330
E
  0
SCALE
  5
48
102
{ACAD_REACTORS
330
47
102
}
330
47
100
AcDbScale
 70
     0
300
1:1
140
1.0
141
1.0
290
     1
  0
SCALE
  5
49
102
{ACAD_REACTORS
330
47
102
}
330
47
100
AcDbScale
 70
     0
300
1:2
140
1.0
141
2.0
290
     0
  0
SCALE
  5
4A
102
{ACAD_REACTORS
330
47
102
}
330
47
100
AcDbScale
 70
     0
300
1:4
140
1.0
141
4.0
290
     0
  0
SCALE
  5
4B
102
{ACAD_REACTORS
330
47
102
}
330
47
100
AcDbScale
 70
     0
300
1:5
140
1.0
141
5.0
290
     0
  0
SCALE
  5
4C
102
{ACAD_REACTORS
330
47
102
}
330
47
100
AcDbScale
 70
     0
300
1:8
140
1.0
141
8.0
290
     0
  0
SCALE
  5
4D
102
{ACAD_REACTORS
330
47
102
}
330
47
100
AcDbScale
 70
     0
300
1:10
140
1.0
141
10.0
290
     0
  0
SCALE
  5
4E
102
{ACAD_REACTORS
330
47
102
}
330
47
100
AcDbScale
 70
     0
300
1:16
140
1.0
141
16.0
290
     0
  0
SCALE
  5
4F
102
{ACAD_REACTORS
330
47
102
}
330
47
100
AcDbScale
 70
     0
300
1:20
140
1.0
141
20.0
290
     0
  0
SCALE
  5
50
102
{ACAD_REACTORS
330
47
102
}
330
47
100
AcDbScale
 70
     0
300
1:30
140
1.0
141
30.0
290
     0
  0
SCALE
  5
51
102
{ACAD_REACTORS
330
47
102
}
330
47
100
AcDbScale
 70
     0
300
1:40
140
1.0
141
40.0
290
     0
  0
SCALE
  5
52
102
{ACAD_REACTORS
330
47
102
}
330
47
100
AcDbScale
 70
     0
300
1:50
140
1.0
141
50.0
290
     0
  0
SCALE
  5
53
102
{ACAD_REACTORS
330
47
102
}
330
47
100
AcDbScale
 70
     0
300
1:100
140
1.0
141
100.0
290
     0
  0
SCALE
  5
54
102
{ACAD_REACTORS
330
47
102
}
330
47
100
AcDbScale
 70
     0
300
2:1
140
2.0
141
1.0
290
     0
  0
SCALE
  5
55
102
{ACAD_REACTORS
330
47
102
}
330
47
100
AcDbScale
 70
     0
300
4:1
140
4.0
141
1.0
290
     0
  0
SCALE
  5
56
102
{ACAD_REACTORS
330
47
102
}
330
47
100
AcDbScale
 70
     0
300
8:1
140
8.0
141
1.0
290
     0
  0
SCALE
  5
57
102
{ACAD_REACTORS
330
47
102
}
330
47
100
AcDbScale
 70
     0
300
10:1
140
10.0
141
1.0
290
     0
  0
SCALE
  5
58
102
{ACAD_REACTORS
330
47
102
}
330
47
100
AcDbScale
 70
     0
300
100:1
140
100.0
141
1.0
290
     0
  0
SCALE
  5
59
102
{ACAD_REACTORS
330
47
102
}
330
47
100
AcDbScale
 70
     0
300
1/128" = 1'-0"
140
0.0078125
141
12.0
290
     0
  0
SCALE
  5
5A
102
{ACAD_REACTORS
330
47
102
}
330
47
100
AcDbScale
 70
     0
300
1/64" = 1'-0"
140
0.015625
141
12.0
290
     0
  0
SCALE
  5
5B
102
{ACAD_REACTORS
330
47
102
}
330
47
100
AcDbScale
 70
     0
300
1/32" = 1'-0"
140
0.03125
141
12.0
290
     0
  0
SCALE
  5
5C
102
{ACAD_REACTORS
330
47
102
}
330
47
100
AcDbScale
 70
     0
300
1/16" = 1'-0"
140
0.0625
141
12.0
290
     0
  0
SCALE
  5
5D
102
{ACAD_REACTORS
330
47
102
}
330
47
100
AcDbScale
 70
     0
300
3/32" = 1'-0"
140
0.09375
141
12.0
290
     0
  0
SCALE
  5
5E
102
{ACAD_REACTORS
330
47
102
}
330
47
100
AcDbScale
 70
     0
300
1/8" = 1'-0"
140
0.125
141
12.0
290
     0
  0
SCALE
  5
5F
102
{ACAD_REACTORS
330
47
102
}
330
47
100
AcDbScale
 70
     0
300
3/16" = 1'-0"
140
0.1875
141
12.0
290
     0
  0
SCALE
  5
60
102
{ACAD_REACTORS
330
47
102
}
330
47
100
AcDbScale
 70
     0
300
1/4" = 1'-0"
140
0.25
141
12.0
290
     0
  0
SCALE
  5
61
102
{ACAD_REACTORS
330
47
102
}
330
47
100
AcDbScale
 70
     0
300
3/8" = 1'-0"
140
0.375
141
12.0
290
     0
  0
SCALE
  5
62
102
{ACAD_REACTORS
330
47
102
}
330
47
100
AcDbScale
 70
     0
300
1/2" = 1'-0"
140
0.5
141
12.0
290
     0
  0
SCALE
  5
63
102
{ACAD_REACTORS
330
47
102
}
330
47
100
AcDbScale
 70
     0
300
3/4" = 1'-0"
140
0.75
141
12.0
290
     0
  0
SCALE
  5
64
102
{ACAD_REACTORS
330
47
102
}
330
47
100
AcDbScale
 70
     0
300
1" = 1'-0"
140
1.0
141
12.0
290
     0
  0
SCALE
  5
65
102
{ACAD_REACTORS
330
47
102
}
330
47
100
AcDbScale
 70
     0
300
1-1/2" = 1'-0"
140
1.5
141
12.0
290
     0
  0
SCALE
  5
66
102
{ACAD_REACTORS
330
47
102
}
330
47
100
AcDbScale
 70
     0
300
3" = 1'-0"
140
3.0
141
12.0
290
     0
  0
SCALE
  5
67
102
{ACAD_REACTORS
330
47
102
}
330
47
100
AcDbScale
 70
     0
300
6" = 1'-0"
140
6.0
141
12.0
290
     0
  0
SCALE
  5
68
102
{ACAD_REACTORS
330
47
102
}
330
47
100
AcDbScale
 70
     0
300
1'-0" = 1'-0"
140
12.0
141
12.0
290
     0
  0
ENDSEC
  0
EOF
