  0
SECTION
  2
HEADER
  9
$ACADVER
  1
AC1015
  9
$ACADMAINTVER
 70
     6
  9
$DWGCODEPAGE
  3
ANSI_1252
  9
$INSBASE
 10
0.0
 20
0.0
 30
0.0
  9
$EXTMIN
 10
0.0
 20
0.0
 30
0.0
  9
$EXTMAX
 10
279.4
 20
215.9
 30
0.0
  9
$LIMMIN
 10
0.0
 20
0.0
  9
$LIMMAX
 10
279.4
 20
215.9
  9
$ORTHOMODE
 70
     0
  9
$REGENMODE
 70
     1
  9
$FILLMODE
 70
     1
  9
$QTEXTMODE
 70
     0
  9
$MIRRTEXT
 70
     1
  9
$LTSCALE
 40
1.0
  9
$ATTMODE
 70
     1
  9
$TEXTSIZE
 40
3.5
  9
$TRACEWID
 40
1.0
  9
$TEXTSTYLE
  7
Standard
  9
$CLAYER
  8
0
  9
$CELTYPE
  6
ByLayer
  9
$CECOLOR
 62
   256
  9
$CELTSCALE
 40
1.0
  9
$DISPSILH
 70
     0
  9
$DIMSCALE
 40
1.0
  9
$DIMASZ
 40
3.302
  9
$DIMEXO
 40
1.0
  9
$DIMDLI
 40
3.75
  9
$DIMRND
 40
0.0
  9
$DIMDLE
 40
0.0
  9
$DIMEXE
 40
1.0
  9
$DIMTP
 40
0.0
  9
$DIMTM
 40
0.0
  9
$DIMTXT
 40
3.5
  9
$DIMCEN
 40
2.5
  9
$DIMTSZ
 40
0.0
  9
$DIMTOL
 70
     0
  9
$DIMLIM
 70
     0
  9
$DIMTIH
 70
     1
  9
$DIMTOH
 70
     1
  9
$DIMSE1
 70
     0
  9
$DIMSE2
 70
     0
  9
$DIMTAD
 70
     1
  9
$DIMZIN
 70
     0
  9
$DIMBLK
  1

  9
$DIMASO
 70
     1
  9
$DIMSHO
 70
     1
  9
$DIMPOST
  1

  9
$DIMAPOST
  1

  9
$DIMALT
 70
     0
  9
$DIMALTD
 70
     3
  9
$DIMALTF
 40
0.0393700787
  9
$DIMLFAC
 40
5.0
  9
$DIMTOFL
 70
     1
  9
$DIMTVP
 40
0.0
  9
$DIMTIX
 70
     0
  9
$DIMSOXD
 70
     0
  9
$DIMSAH
 70
     0
  9
$DIMBLK1
  1

  9
$DIMBLK2
  1

  9
$DIMSTYLE
  2
ISO-25
  9
$DIMCLRD
 70
     0
  9
$DIMCLRE
 70
     0
  9
$DIMCLRT
 70
     0
  9
$DIMTFAC
 40
1.0
  9
$DIMGAP
 40
1.524
  9
$DIMJUST
 70
     0
  9
$DIMSD1
 70
     0
  9
$DIMSD2
 70
     0
  9
$DIMTOLJ
 70
     0
  9
$DIMTZIN
 70
     0
  9
$DIMALTZ
 70
     0
  9
$DIMALTTZ
 70
     0
  9
$DIMUPT
 70
     0
  9
$DIMDEC
 70
     2
  9
$DIMTDEC
 70
     2
  9
$DIMALTU
 70
     2
  9
$DIMALTTD
 70
     3
  9
$DIMTXSTY
  7
Standard
  9
$DIMAUNIT
 70
     0
  9
$DIMADEC
 70
     2
  9
$DIMALTRND
 40
0.0
  9
$DIMAZIN
 70
     0
  9
$DIMDSEP
 70
    44
  9
$DIMATFIT
 70
     3
  9
$DIMFRAC
 70
     0
  9
$DIMLDRBLK
  1

  9
$DIMLUNIT
 70
     2
  9
$DIMLWD
 70
    -2
  9
$DIMLWE
 70
    -2
  9
$DIMTMOVE
 70
     0
  9
$LUNITS
 70
     2
  9
$LUPREC
 70
     2
  9
$SKETCHINC
 40
1.0
  9
$FILLETRAD
 40
10.0
  9
$AUNITS
 70
     0
  9
$AUPREC
 70
     2
  9
$MENU
  1
.
  9
$ELEVATION
 40
0.0
  9
$PELEVATION
 40
0.0
  9
$THICKNESS
 40
0.0
  9
$LIMCHECK
 70
     0
  9
$CHAMFERA
 40
0.0
  9
$CHAMFERB
 40
0.0
  9
$CHAMFERC
 40
0.0
  9
$CHAMFERD
 40
0.0
  9
$SKPOLY
 70
     0
  9
$TDCREATE
 40
2458206.732714537
  9
$TDUCREATE
 40
2458206.691047871
  9
$TDUPDATE
 40
2458206.732714884
  9
$TDUUPDATE
 40
2458206.691048217
  9
$TDINDWG
 40
0.0000000116
  9
$TDUSRTIMER
 40
0.0000000116
  9
$USRTIMER
 70
     1
  9
$ANGBASE
 50
0.0
  9
$ANGDIR
 70
     0
  9
$PDMODE
 70
     0
  9
$PDSIZE
 40
-1.0
  9
$PLINEWID
 40
0.0
  9
$SPLFRAME
 70
     0
  9
$SPLINETYPE
 70
     6
  9
$SPLINESEGS
 70
     8
  9
$HANDSEED
  5
300
  9
$SURFTAB1
 70
     6
  9
$SURFTAB2
 70
     6
  9
$SURFTYPE
 70
     6
  9
$SURFU
 70
     6
  9
$SURFV
 70
     6
  9
$UCSBASE
  2

  9
$UCSNAME
  2

  9
$UCSORG
 10
0.0
 20
0.0
 30
0.0
  9
$UCSXDIR
 10
1.0
 20
0.0
 30
0.0
  9
$UCSYDIR
 10
0.0
 20
1.0
 30
0.0
  9
$UCSORTHOREF
  2

  9
$UCSORTHOVIEW
 70
     0
  9
$UCSORGTOP
 10
0.0
 20
0.0
 30
0.0
  9
$UCSORGBOTTOM
 10
0.0
 20
0.0
 30
0.0
  9
$UCSORGLEFT
 10
0.0
 20
0.0
 30
0.0
  9
$UCSORGRIGHT
 10
0.0
 20
0.0
 30
0.0
  9
$UCSORGFRONT
 10
0.0
 20
0.0
 30
0.0
  9
$UCSORGBACK
 10
0.0
 20
0.0
 30
0.0
  9
$PUCSBASE
  2

  9
$PUCSNAME
  2

  9
$PUCSORG
 10
0.0
 20
0.0
 30
0.0
  9
$PUCSXDIR
 10
1.0
 20
0.0
 30
0.0
  9
$PUCSYDIR
 10
0.0
 20
1.0
 30
0.0
  9
$PUCSORTHOREF
  2

  9
$PUCSORTHOVIEW
 70
     0
  9
$PUCSORGTOP
 10
0.0
 20
0.0
 30
0.0
  9
$PUCSORGBOTTOM
 10
0.0
 20
0.0
 30
0.0
  9
$PUCSORGLEFT
 10
0.0
 20
0.0
 30
0.0
  9
$PUCSORGRIGHT
 10
0.0
 20
0.0
 30
0.0
  9
$PUCSORGFRONT
 10
0.0
 20
0.0
 30
0.0
  9
$PUCSORGBACK
 10
0.0
 20
0.0
 30
0.0
  9
$USERI1
 70
     0
  9
$USERI2
 70
     0
  9
$USERI3
 70
     0
  9
$USERI4
 70
     0
  9
$USERI5
 70
     0
  9
$USERR1
 40
0.0
  9
$USERR2
 40
0.0
  9
$USERR3
 40
0.0
  9
$USERR4
 40
0.0
  9
$USERR5
 40
0.0
  9
$WORLDVIEW
 70
     1
  9
$SHADEDGE
 70
     3
  9
$SHADEDIF
 70
    70
  9
$TILEMODE
 70
     1
  9
$MAXACTVP
 70
    64
  9
$PINSBASE
 10
0.0
 20
0.0
 30
0.0
  9
$PLIMCHECK
 70
     0
  9
$PEXTMIN
 10
1.0000000000E+20
 20
1.0000000000E+20
 30
1.0000000000E+20
  9
$PEXTMAX
 10
-1.0000000000E+20
 20
-1.0000000000E+20
 30
-1.0000000000E+20
  9
$PLIMMIN
 10
0.0
 20
0.0
  9
$PLIMMAX
 10
420.0
 20
297.0
  9
$UNITMODE
 70
     0
  9
$VISRETAIN
 70
     1
  9
$PLINEGEN
 70
     0
  9
$PSLTSCALE
 70
     1
  9
$TREEDEPTH
 70
  3020
  9
$CMLSTYLE
  2
Standard
  9
$CMLJUST
 70
     0
  9
$CMLSCALE
 40
20.0
  9
$PROXYGRAPHICS
 70
     1
  9
$MEASUREMENT
 70
     1
  9
$CELWEIGHT
370
    -1
  9
$ENDCAPS
280
     0
  9
$JOINSTYLE
280
     0
  9
$LWDISPLAY
290
     1
  9
$INSUNITS
 70
     4
  9
$HYPERLINKBASE
  1

  9
$STYLESHEET
  1

  9
$XEDIT
290
     1
  9
$CEPSNTYPE
380
     0
  9
$PSTYLEMODE
290
     1
  9
$FINGERPRINTGUID
  2
{F66C9909-ED18-479D-A41B-ABF070AA5091}
  9
$VERSIONGUID
  2
{FAEB1C32-E019-11D5-929B-00C0DF256EC4}
  9
$EXTNAMES
290
     1
  9
$PSVPSCALE
 40
0.0
  9
$OLESTARTUP
290
     0
  0
ENDSEC
  0
SECTION
  2
CLASSES
  0
CLASS
  1
ACDBDICTIONARYWDFLT
  2
AcDbDictionaryWithDefault
  3
ObjectDBX Classes
 90
        0
280
     0
281
     0
  0
CLASS
  1
VISUALSTYLE
  2
AcDbVisualStyle
  3
ObjectDBX Classes
 90
     4095
280
     0
281
     0
  0
CLASS
  1
MATERIAL
  2
AcDbMaterial
  3
ObjectDBX Classes
 90
     1153
280
     0
281
     0
  0
CLASS
  1
SCALE
  2
AcDbScale
  3
ObjectDBX Classes
 90
     1153
280
     0
281
     0
  0
CLASS
  1
TABLESTYLE
  2
AcDbTableStyle
  3
ObjectDBX Classes
 90
     4095
280
     0
281
     0
  0
CLASS
  1
MLEADERSTYLE
  2
AcDbMLeaderStyle
  3
ACDB_MLEADERSTYLE_CLASS
 90
     4095
280
     0
281
     0
  0
CLASS
  1
SUN
  2
AcDbSun
  3
SCENEOE
 90
     1153
280
     0
281
     0
  0
CLASS
  1
ACDBPLACEHOLDER
  2
AcDbPlaceHolder
  3
ObjectDBX Classes
 90
        0
280
     0
281
     0
  0
CLASS
  1
LAYOUT
  2
AcDbLayout
  3
ObjectDBX Classes
 90
        0
280
     0
281
     0
  0
ENDSEC
  0
SECTION
  2
TABLES
  0
TABLE
  2
VPORT
  5
8
330
0
100
AcDbSymbolTable
 70
     1
  0
VPORT
  5
29
330
8
100
AcDbSymbolTableRecord
100
AcDbViewportTableRecord
  2
*Active
 70
     0
 10
0.0
 20
0.0
 11
1.0
 21
1.0
 12
139.7
 22
107.95
 13
0.0
 23
0.0
 14
10.0
 24
10.0
 15
10.0
 25
10.0
 16
0.0
 26
0.0
 36
1.0
 17
0.0
 27
0.0
 37
0.0
 40
215.9
 41
1.2941176471
 42
50.0
 43
0.0
 44
0.0
 50
0.0
 51
0.0
 71
     0
 72
  2000
 73
     1
 74
     3
 75
     0
 76
     0
 77
     0
 78
     0
281
     0
 65
     1
110
0.0
120
0.0
130
0.0
111
1.0
121
0.0
131
0.0
112
0.0
122
1.0
132
0.0
 79
     0
146
0.0
  0
ENDTAB
  0
TABLE
  2
LTYPE
  5
5
330
0
100
AcDbSymbolTable
 70
     6
  0
LTYPE
  5
14
330
5
100
AcDbSymbolTableRecord
100
AcDbLinetypeTableRecord
  2
ByBlock
 70
     0
  3

 72
    65
 73
     0
 40
0.0
  0
LTYPE
  5
15
330
5
100
AcDbSymbolTableRecord
100
AcDbLinetypeTableRecord
  2
ByLayer
 70
     0
  3

 72
    65
 73
     0
 40
0.0
  0
LTYPE
  5
16
330
5
100
AcDbSymbolTableRecord
100
AcDbLinetypeTableRecord
  2
Continuous
 70
     0
  3
Solid line
 72
    65
 73
     0
 40
0.0
  0
LTYPE
  5
6E
330
5
100
AcDbSymbolTableRecord
100
AcDbLinetypeTableRecord
  2
HIDDEN
 70
     0
  3
Hidden __ __ __ __ __ __ __ __ __ __ __ __ __ __
 72
    65
 73
     2
 40
1.905
 49
1.27
 74
     0
 49
-0.635
 74
     0
  0
LTYPE
  5
6F
330
5
100
AcDbSymbolTableRecord
100
AcDbLinetypeTableRecord
  2
PHANTOM
 70
     0
  3
Phantom ______  __  __  ______  __  __  ______
 72
    65
 73
     6
 40
12.7
 49
6.35
 74
     0
 49
-1.27
 74
     0
 49
1.27
 74
     0
 49
-1.27
 74
     0
 49
1.27
 74
     0
 49
-1.27
 74
     0
  0
LTYPE
  5
70
330
5
100
AcDbSymbolTableRecord
100
AcDbLinetypeTableRecord
  2
CENTER
 70
     0
  3
Center ____ _ ____ _ ____ _ ____ _ ____ _ ____
 72
    65
 73
     4
 40
10.16
 49
6.35
 74
     0
 49
-1.27
 74
     0
 49
1.27
 74
     0
 49
-1.27
 74
     0
  0
LTYPE
  5
71
330
5
100
AcDbSymbolTableRecord
100
AcDbLinetypeTableRecord
  2
CENTERX2
 70
     0
  3
Center (2x) ________  __  ________  __  _____
 72
    65
 73
     4
 40
20.32
 49
12.7
 74
     0
 49
-2.54
 74
     0
 49
2.54
 74
     0
 49
-2.54
 74
     0
  0
LTYPE
  5
72
330
5
100
AcDbSymbolTableRecord
100
AcDbLinetypeTableRecord
  2
DOT2
 70
     0
  3
Dot (.5x) ........................................
 72
    65
 73
     2
 40
0.635
 49
0.0
 74
     0
 49
-0.635
 74
     0
  0
ENDTAB
  0
TABLE
  2
LAYER
  5
2
330
0
100
AcDbSymbolTable
 70
     1
  0
LAYER
  5
10
330
2
100
AcDbSymbolTableRecord
100
AcDbLayerTableRecord
  2
0
 70
     0
 62
     7
  6
Continuous
370
    -3
390
F
  0
ENDTAB
  0
TABLE
  2
STYLE
  5
3
330
0
100
AcDbSymbolTable
 70
     1
  0
STYLE
  5
11
330
3
100
AcDbSymbolTableRecord
100
AcDbTextStyleTableRecord
  2
Standard
 70
     0
 40
0.0
 41
1.0
 50
0.0
 71
     0
 42
3.5
  3
txt
  4

  0
ENDTAB
  0
TABLE
  2
VIEW
  5
6
330
0
100
AcDbSymbolTable
 70
     0
  0
ENDTAB
  0
TABLE
  2
UCS
  5
7
330
0
100
AcDbSymbolTable
 70
     0
  0
ENDTAB
  0
TABLE
  2
APPID
  5
9
330
0
100
AcDbSymbolTable
 70
     1
  0
APPID
  5
12
330
9
100
AcDbSymbolTableRecord
100
AcDbRegAppTableRecord
  2
ACAD
 70
     0
  0
ENDTAB
  0
TABLE
  2
DIMSTYLE
  5
A
330
0
100
AcDbSymbolTable
 70
     1
100
AcDbDimStyleTable
  0
DIMSTYLE
105
27
330
A
100
AcDbSymbolTableRecord
100
AcDbDimStyleTableRecord
  2
ISO-25
 70
     0
 41
2.5
 42
0.625
 43
3.75
 44
1.25
 73
     0
 74
     0
 77
     1
 78
     8
140
2.5
141
2.5
143
0.0393700787
147
0.625
171
     3
172
     1
178
     0
271
     2
272
     2
274
     3
278
    44
283
     0
284
     8
340
11
  0
ENDTAB
  0
TABLE
  2
BLOCK_RECORD
  5
1
330
0
100
AcDbSymbolTable
 70
     1
  0
BLOCK_RECORD
  5
1F
330
1
100
AcDbSymbolTableRecord
100
AcDbBlockTableRecord
  2
*Model_Space
340
22
  0
BLOCK_RECORD
  5
1B
330
1
100
AcDbSymbolTableRecord
100
AcDbBlockTableRecord
  2
*Paper_Space
340
1E
  0
BLOCK_RECORD
  5
23
330
1
100
AcDbSymbolTableRecord
100
AcDbBlockTableRecord
  2
*Paper_Space0
340
26
  0
ENDTAB
  0
ENDSEC
  0
SECTION
  2
BLOCKS
  0
BLOCK
  5
20
330
1F
100
AcDbEntity
  8
0
100
AcDbBlockBegin
  2
*Model_Space
 70
     0
 10
0.0
 20
0.0
 30
0.0
  3
*Model_Space
  1

  0
ENDBLK
  5
21
330
1F
100
AcDbEntity
  8
0
100
AcDbBlockEnd
  0
BLOCK
  5
1C
330
1B
100
AcDbEntity
 67
     1
  8
0
100
AcDbBlockBegin
  2
*Paper_Space
 70
     0
 10
0.0
 20
0.0
 30
0.0
  3
*Paper_Space
  1

  0
ENDBLK
  5
1D
330
1B
100
AcDbEntity
 67
     1
  8
0
100
AcDbBlockEnd
  0
BLOCK
  5
24
330
23
100
AcDbEntity
  8
0
100
AcDbBlockBegin
  2
*Paper_Space0
 70
     0
 10
0.0
 20
0.0
 30
0.0
  3
*Paper_Space0
  1

  0
ENDBLK
  5
25
330
23
100
AcDbEntity
  8
0
100
AcDbBlockEnd
  0
ENDSEC
  0
SECTION
  2
ENTITIES
  0
LINE
  5
73
330
1F
100
AcDbEntity
  8
0
  6
Continuous
 62
     7
370
    15
100
AcDbLine
 10
137.9079128494
 20
146.8737833263
 30
0.0
 11
130.9079210152
 21
146.8737833263
 31
0.0
  0
LINE
  5
74
330
1F
100
AcDbEntity
  8
0
  6
Continuous
 62
     7
370
    15
100
AcDbLine
 10
95.9079171409
 20
146.8737833263
 30
0.0
 11
15.9079198604
 21
146.8737833263
 31
0.0
  0
LINE
  5
75
330
1F
100
AcDbEntity
  8
0
  6
Continuous
 62
     7
370
    15
100
AcDbLine
 10
-19.0920793573
 20
146.8737833263
 30
0.0
 11
-26.0920805047
 21
146.8737833263
 31
0.0
  0
LINE
  5
76
330
1F
100
AcDbEntity
  8
0
  6
Continuous
 62
     7
370
    15
100
AcDbLine
 10
-26.0920805047
 20
126.8737837733
 30
0.0
 11
-19.0920793573
 21
126.8737837733
 31
0.0
  0
LINE
  5
77
330
1F
100
AcDbEntity
  8
0
  6
Continuous
 62
     7
370
    15
100
AcDbLine
 10
15.9079198604
 20
126.8737837733
 30
0.0
 11
95.9079171409
 21
126.8737837733
 31
0.0
  0
LINE
  5
78
330
1F
100
AcDbEntity
  8
0
  6
Continuous
 62
     7
370
    15
100
AcDbLine
 10
130.9079210152
 20
126.8737837733
 30
0.0
 11
137.9079128494
 21
126.8737837733
 31
0.0
  0
LINE
  5
79
330
1F
100
AcDbEntity
  8
0
  6
Continuous
 62
     7
370
    15
100
AcDbLine
 10
137.9079128494
 20
126.8737837733
 30
0.0
 11
138.4079213132
 21
127.3737847866
 31
0.0
  0
LINE
  5
7A
330
1F
100
AcDbEntity
  8
0
  6
Continuous
 62
     7
370
    15
100
AcDbLine
 10
138.4079213132
 20
146.3737860383
 30
0.0
 11
137.9079128494
 21
146.8737833263
 31
0.0
  0
LINE
  5
7B
330
1F
100
AcDbEntity
  8
0
  6
Continuous
 62
     7
370
    15
100
AcDbLine
 10
-26.0920805047
 20
146.8737833263
 30
0.0
 11
-26.592081518
 21
146.3737860383
 31
0.0
  0
LINE
  5
7C
330
1F
100
AcDbEntity
  8
0
  6
Continuous
 62
     7
370
    15
100
AcDbLine
 10
-26.592081518
 20
127.3737847866
 30
0.0
 11
-26.0920805047
 21
126.8737837733
 31
0.0
  0
LINE
  5
7D
330
1F
100
AcDbEntity
  8
0
  6
Continuous
 62
     7
370
    15
100
AcDbLine
 10
-19.0920793573
 20
87.3737846912
 30
0.0
 11
-18.5920802067
 21
86.8737846674
 31
0.0
  0
LINE
  5
7E
330
1F
100
AcDbEntity
  8
0
  6
Continuous
 62
     7
370
    15
100
AcDbLine
 10
15.4079197784
 20
86.8737846674
 30
0.0
 11
15.9079198604
 21
87.3737846912
 31
0.0
  0
LINE
  5
7F
330
1F
100
AcDbEntity
  8
0
  6
Continuous
 62
     7
370
    15
100
AcDbLine
 10
15.9079198604
 20
146.8737833263
 30
0.0
 11
15.9079198604
 21
186.3737851443
 31
0.0
  0
LINE
  5
80
330
1F
100
AcDbEntity
  8
0
  6
Continuous
 62
     7
370
    15
100
AcDbLine
 10
15.9079198604
 20
87.3737846912
 30
0.0
 11
15.9079198604
 21
126.8737837733
 31
0.0
  0
LINE
  5
81
330
1F
100
AcDbEntity
  8
0
  6
Continuous
 62
     7
370
    15
100
AcDbLine
 10
-19.0920793573
 20
126.8737837733
 30
0.0
 11
-19.0920793573
 21
87.3737846912
 31
0.0
  0
LINE
  5
82
330
1F
100
AcDbEntity
  8
0
  6
Continuous
 62
     7
370
    15
100
AcDbLine
 10
-19.0920793573
 20
186.3737851443
 30
0.0
 11
-19.0920793573
 21
146.8737833263
 31
0.0
  0
LINE
  5
83
330
1F
100
AcDbEntity
  8
0
  6
Continuous
 62
     7
370
    15
100
AcDbLine
 10
15.9079198604
 20
186.3737851443
 30
0.0
 11
15.4079197784
 21
186.8737861575
 31
0.0
  0
LINE
  5
84
330
1F
100
AcDbEntity
  8
0
  6
Continuous
 62
     7
370
    15
100
AcDbLine
 10
-18.5920802067
 20
186.8737861575
 30
0.0
 11
-19.0920793573
 21
186.3737851443
 31
0.0
  0
LINE
  5
85
330
1F
100
AcDbEntity
  8
0
  6
Continuous
 62
     7
370
    15
100
AcDbLine
 10
130.9079210152
 20
146.8737833263
 30
0.0
 11
130.9079210152
 21
186.3737851443
 31
0.0
  0
LINE
  5
86
330
1F
100
AcDbEntity
  8
0
  6
Continuous
 62
     7
370
    15
100
AcDbLine
 10
130.9079210152
 20
87.3737846912
 30
0.0
 11
130.9079210152
 21
126.8737837733
 31
0.0
  0
LINE
  5
87
330
1F
100
AcDbEntity
  8
0
  6
Continuous
 62
     7
370
    15
100
AcDbLine
 10
95.9079171409
 20
126.8737837733
 30
0.0
 11
95.9079171409
 21
87.3737846912
 31
0.0
  0
LINE
  5
88
330
1F
100
AcDbEntity
  8
0
  6
Continuous
 62
     7
370
    15
100
AcDbLine
 10
95.9079171409
 20
186.3737851443
 30
0.0
 11
95.9079171409
 21
146.8737833263
 31
0.0
  0
LINE
  5
89
330
1F
100
AcDbEntity
  8
0
  6
Continuous
 62
     7
370
    15
100
AcDbLine
 10
130.9079210152
 20
186.3737851443
 30
0.0
 11
130.4079200019
 21
186.8737861575
 31
0.0
  0
LINE
  5
8A
330
1F
100
AcDbEntity
  8
0
  6
Continuous
 62
     7
370
    15
100
AcDbLine
 10
96.4079181542
 20
186.8737861575
 30
0.0
 11
95.9079171409
 21
186.3737851443
 31
0.0
  0
LINE
  5
8B
330
1F
100
AcDbEntity
  8
0
  6
Continuous
 62
     7
370
    15
100
AcDbLine
 10
95.9079171409
 20
87.3737846912
 30
0.0
 11
96.4079181542
 21
86.8737846674
 31
0.0
  0
LINE
  5
8C
330
1F
100
AcDbEntity
  8
0
  6
Continuous
 62
     7
370
    15
100
AcDbLine
 10
130.4079200019
 20
86.8737846674
 30
0.0
 11
130.9079210152
 21
87.3737846912
 31
0.0
  0
LINE
  5
8D
330
1F
100
AcDbEntity
  8
0
  6
Continuous
 62
     7
370
    15
100
AcDbLine
 10
137.9079128494
 20
128.0829384984
 30
0.0
 11
137.9079128494
 21
146.8737833263
 31
0.0
  0
LINE
  5
8E
330
1F
100
AcDbEntity
  8
0
  6
Continuous
 62
     7
370
    15
100
AcDbLine
 10
137.9079128494
 20
126.8737837733
 30
0.0
 11
137.9079128494
 21
128.0829384984
 31
0.0
  0
LINE
  5
8F
330
1F
100
AcDbEntity
  8
0
  6
Continuous
 62
     7
370
    15
100
AcDbLine
 10
-26.0920805047
 20
128.0829384984
 30
0.0
 11
-26.0920805047
 21
126.8737837733
 31
0.0
  0
LINE
  5
90
330
1F
100
AcDbEntity
  8
0
  6
Continuous
 62
     7
370
    15
100
AcDbLine
 10
-26.0920805047
 20
146.8737833263
 30
0.0
 11
-26.0920805047
 21
128.0829384984
 31
0.0
  0
LINE
  5
91
330
1F
100
AcDbEntity
  8
0
  6
Continuous
 62
     7
370
    15
100
AcDbLine
 10
138.4079213132
 20
128.5224817754
 30
0.0
 11
138.4079213132
 21
127.3737847866
 31
0.0
  0
LINE
  5
92
330
1F
100
AcDbEntity
  8
0
  6
Continuous
 62
     7
370
    15
100
AcDbLine
 10
138.4079213132
 20
146.3737860383
 30
0.0
 11
138.4079213132
 21
128.5224817754
 31
0.0
  0
LINE
  5
93
330
1F
100
AcDbEntity
  8
0
  6
Continuous
 62
     7
370
    15
100
AcDbLine
 10
-26.592081518
 20
128.5224817754
 30
0.0
 11
-26.592081518
 21
146.3737860383
 31
0.0
  0
LINE
  5
94
330
1F
100
AcDbEntity
  8
0
  6
Continuous
 62
     7
370
    15
100
AcDbLine
 10
-26.592081518
 20
127.3737847866
 30
0.0
 11
-26.592081518
 21
128.5224817754
 31
0.0
  0
LINE
  5
95
330
1F
100
AcDbEntity
  8
0
  6
Continuous
 62
     7
370
    15
100
AcDbLine
 10
-19.0920793573
 20
87.3737846912
 30
0.0
 11
15.9079198604
 21
87.3737846912
 31
0.0
  0
LINE
  5
96
330
1F
100
AcDbEntity
  8
0
  6
Continuous
 62
     7
370
    15
100
AcDbLine
 10
15.4079197784
 20
86.8737846674
 30
0.0
 11
-18.5920802067
 21
86.8737846674
 31
0.0
  0
LWPOLYLINE
  5
97
330
1F
100
AcDbEntity
  8
0
  6
Continuous
 62
     7
370
    15
100
AcDbPolyline
 90
       23
 70
   128
 43
0.0
 10
15.9077308019
 20
126.8741153242
 10
15.8458723565
 20
126.9827708663
 10
15.6575994444
 20
127.3186057867
 10
15.3728419793
 20
127.8428062858
 10
15.000035881
 20
128.5642534556
 10
14.5380821888
 20
129.5299343826
 10
14.0411978466
 20
130.6972652735
 10
13.5290006985
 20
132.1412287714
 10
13.0941270729
 20
133.8021904291
 10
12.871156807
 20
135.1605355801
 10
12.7718140249
 20
136.6064772071
 10
12.8151647625
 20
138.022132224
 10
12.9978464794
 20
139.4459344508
 10
13.2814435166
 20
140.7431140603
 10
13.6493201246
 20
141.9777311446
 10
14.1179909808
 20
143.2421691777
 10
14.610460854
 20
144.3752721013
 10
15.1129037951
 20
145.4064548077
 10
15.5370355462
 20
146.2095528902
 10
15.7718876255
 20
146.6337740483
 10
15.8951248852
 20
146.8513757052
 10
15.9079198604
 20
146.8737833263
 10
15.9079198604
 20
146.8737833263
  0
LWPOLYLINE
  5
98
330
1F
100
AcDbEntity
  8
0
  6
Continuous
 62
     7
370
    15
100
AcDbPolyline
 90
       23
 70
   128
 43
0.0
 10
-19.0918912302
 20
146.8734517755
 10
-19.0300327848
 20
146.7647999586
 10
-18.8417584757
 20
146.4289650382
 10
-18.5570028733
 20
145.9047645392
 10
-18.1841963093
 20
145.1833173694
 10
-17.7222416858
 20
144.2176327171
 10
-17.2253587405
 20
143.0503018262
 10
-16.7131611268
 20
141.6063383283
 10
-16.2782875012
 20
139.9453766705
 10
-16.0553177009
 20
138.5870315196
 10
-15.9559735219
 20
137.1410936178
 10
-15.9993247251
 20
135.7254386009
 10
-16.1820073734
 20
134.3016363742
 10
-16.4656044106
 20
133.0044567646
 10
-16.8334805529
 20
131.7698359551
 10
-17.3021518747
 20
130.505397922
 10
-17.794620351
 20
129.3722949983
 10
-18.2970632921
 20
128.341112292
 10
-18.7211950432
 20
127.5380142094
 10
-18.9560485194
 20
127.1137967767
 10
-19.0792848478
 20
126.8961913945
 10
-19.0920793573
 20
126.8737837733
 10
-19.0920793573
 20
126.8737837733
  0
LINE
  5
99
330
1F
100
AcDbEntity
  8
0
  6
Continuous
 62
     7
370
    15
100
AcDbLine
 10
15.9079198604
 20
186.3737851443
 30
0.0
 11
-19.0920793573
 21
186.3737851443
 31
0.0
  0
LINE
  5
9A
330
1F
100
AcDbEntity
  8
0
  6
Continuous
 62
     7
370
    15
100
AcDbLine
 10
-18.5920802067
 20
186.8737861575
 30
0.0
 11
15.4079197784
 21
186.8737861575
 31
0.0
  0
LWPOLYLINE
  5
9B
330
1F
100
AcDbEntity
  8
0
  6
Continuous
 62
     7
370
    15
100
AcDbPolyline
 90
       23
 70
   128
 43
0.0
 10
130.9077273001
 20
126.8741153242
 10
130.84587258
 20
126.9827708663
 10
130.6575964083
 20
127.3186057867
 10
130.3728426685
 20
127.8428062858
 10
130.0000379671
 20
128.5642534556
 10
129.5380796184
 20
129.5299343826
 10
129.0412003984
 20
130.6972652735
 10
128.5290027847
 20
132.1412287714
 10
128.0941272964
 20
133.8021904291
 10
127.8711537709
 20
135.1605355801
 10
127.7718151798
 20
136.6064772071
 10
127.8151626577
 20
138.022132224
 10
127.9978434433
 20
139.4459344508
 10
128.2814423432
 20
140.7431140603
 10
128.6493222107
 20
141.9777311446
 10
129.1179935326
 20
143.2421691777
 10
129.6104620089
 20
144.3752721013
 10
130.1129068126
 20
145.4064548077
 10
130.5370385637
 20
146.2095528902
 10
130.7718883147
 20
146.6337740483
 10
130.8951283683
 20
146.8513757052
 10
130.9079210152
 20
146.8737833263
 10
130.9079210152
 20
146.8737833263
  0
LWPOLYLINE
  5
9C
330
1F
100
AcDbEntity
  8
0
  6
Continuous
 62
     7
370
    15
100
AcDbPolyline
 90
       23
 70
   128
 43
0.0
 10
95.908110856
 20
146.8734517755
 10
95.9699655761
 20
146.7647999586
 10
96.1582417478
 20
146.4289650382
 10
96.4429954876
 20
145.9047645392
 10
96.8158076395
 20
145.1833173694
 10
97.2777585377
 20
144.2176327171
 10
97.7746452083
 20
143.0503018262
 10
98.286842822
 20
141.6063383283
 10
98.7217108597
 20
139.9453766705
 10
98.9446843852
 20
138.5870315196
 10
99.0440229763
 20
137.1410936178
 10
99.0006754984
 20
135.7254386009
 10
98.8179947128
 20
134.3016363742
 10
98.5343958129
 20
133.0044567646
 10
98.1665159454
 20
131.7698359551
 10
97.6978520741
 20
130.505397922
 10
97.2053761472
 20
129.3722949983
 10
96.7029387941
 20
128.341112292
 10
96.278807043
 20
127.5380142094
 10
96.0439498414
 20
127.1137967767
 10
95.9207172384
 20
126.8961913945
 10
95.9079171409
 20
126.8737837733
 10
95.9079171409
 20
126.8737837733
  0
LINE
  5
9D
330
1F
100
AcDbEntity
  8
0
  6
Continuous
 62
     7
370
    15
100
AcDbLine
 10
95.9079171409
 20
87.3737846912
 30
0.0
 11
130.9079210152
 21
87.3737846912
 31
0.0
  0
LINE
  5
9E
330
1F
100
AcDbEntity
  8
0
  6
Continuous
 62
     7
370
    15
100
AcDbLine
 10
130.9079210152
 20
186.3737851443
 30
0.0
 11
95.9079171409
 21
186.3737851443
 31
0.0
  0
LINE
  5
9F
330
1F
100
AcDbEntity
  8
0
  6
Continuous
 62
     7
370
    15
100
AcDbLine
 10
96.4079181542
 20
186.8737861575
 30
0.0
 11
130.4079200019
 21
186.8737861575
 31
0.0
  0
LINE
  5
A0
330
1F
100
AcDbEntity
  8
0
  6
Continuous
 62
     7
370
    15
100
AcDbLine
 10
130.4079200019
 20
86.8737846674
 30
0.0
 11
96.4079181542
 21
86.8737846674
 31
0.0
  0
CIRCLE
  5
A1
330
1F
100
AcDbEntity
  8
0
  6
Continuous
 62
     7
370
    15
100
AcDbCircle
 10
-1.5920800451
 20
161.8737846674
 30
0.0
 40
15.49999999999999
  0
CIRCLE
  5
A2
330
1F
100
AcDbEntity
  8
0
  6
Continuous
 62
     7
370
    15
100
AcDbCircle
 10
-1.5920800451
 20
161.8737846674
 30
0.0
 40
17.50000000000001
  0
CIRCLE
  5
A3
330
1F
100
AcDbEntity
  8
0
  6
Continuous
 62
     7
370
    15
100
AcDbCircle
 10
113.4079199549
 20
111.8737846674
 30
0.0
 40
15.49999999999998
  0
CIRCLE
  5
A4
330
1F
100
AcDbEntity
  8
0
  6
Continuous
 62
     7
370
    15
100
AcDbCircle
 10
113.4079199549
 20
111.8737846674
 30
0.0
 40
17.50000000000001
  0
CIRCLE
  5
A5
330
1F
100
AcDbEntity
  8
0
  6
Continuous
 62
     7
370
    15
100
AcDbCircle
 10
113.4079199549
 20
161.8737846674
 30
0.0
 40
15.5
  0
CIRCLE
  5
A6
330
1F
100
AcDbEntity
  8
0
  6
Continuous
 62
     7
370
    15
100
AcDbCircle
 10
113.4079199549
 20
161.8737846674
 30
0.0
 40
17.49999999999999
  0
CIRCLE
  5
A7
330
1F
100
AcDbEntity
  8
0
  6
Continuous
 62
     7
370
    15
100
AcDbCircle
 10
-1.5920800451
 20
111.8737846674
 30
0.0
 40
15.49999999999999
  0
CIRCLE
  5
A8
330
1F
100
AcDbEntity
  8
0
  6
Continuous
 62
     7
370
    15
100
AcDbCircle
 10
-1.5920800451
 20
111.8737846674
 30
0.0
 40
17.50000000000002
  0
LINE
  5
A9
330
1F
100
AcDbEntity
  8
0
  6
Continuous
 62
     7
370
    15
100
AcDbLine
 10
157.5758522934
 20
132.8737847568
 30
0.0
 11
158.177191913
 21
132.8737847568
 31
0.0
  0
LINE
  5
AA
330
1F
100
AcDbEntity
  8
0
  6
Continuous
 62
     7
370
    15
100
AcDbLine
 10
158.177191913
 20
140.8737860681
 30
0.0
 11
157.5758522934
 21
140.8737860681
 31
0.0
  0
LINE
  5
AB
330
1F
100
AcDbEntity
  8
0
  6
Continuous
 62
     7
370
    15
100
AcDbLine
 10
157.5758522934
 20
140.8737860681
 30
0.0
 11
157.1771917491
 21
140.1832848849
 31
0.0
  0
LINE
  5
AC
330
1F
100
AcDbEntity
  8
0
  6
Continuous
 62
     7
370
    15
100
AcDbLine
 10
157.1771917491
 20
133.5642859401
 30
0.0
 11
157.5758522934
 21
132.8737847568
 31
0.0
  0
LINE
  5
AD
330
1F
100
AcDbEntity
  8
0
  6
Continuous
 62
     7
370
    15
100
AcDbLine
 10
193.1771911307
 20
169.3737879457
 30
0.0
 11
193.1771911307
 21
186.3737851443
 31
0.0
  0
LINE
  5
AE
330
1F
100
AcDbEntity
  8
0
  6
Continuous
 62
     7
370
    15
100
AcDbLine
 10
193.1771911307
 20
119.3737834753
 30
0.0
 11
193.1771911307
 21
154.3737873496
 31
0.0
  0
LINE
  5
AF
330
1F
100
AcDbEntity
  8
0
  6
Continuous
 62
     7
370
    15
100
AcDbLine
 10
193.1771911307
 20
87.3737846912
 30
0.0
 11
193.1771911307
 21
104.3737847419
 31
0.0
  0
LINE
  5
B0
330
1F
100
AcDbEntity
  8
0
  6
Continuous
 62
     7
370
    15
100
AcDbLine
 10
158.177191913
 20
104.3737847419
 30
0.0
 11
158.177191913
 21
87.3737846912
 31
0.0
  0
LINE
  5
B1
330
1F
100
AcDbEntity
  8
0
  6
Continuous
 62
     7
370
    15
100
AcDbLine
 10
158.177191913
 20
132.8737847568
 30
0.0
 11
158.177191913
 21
119.3570680978
 31
0.0
  0
LINE
  5
B2
330
1F
100
AcDbEntity
  8
0
  6
Continuous
 62
     7
370
    15
100
AcDbLine
 10
158.177191913
 20
154.3737873496
 30
0.0
 11
158.177191913
 21
140.8737860681
 31
0.0
  0
LINE
  5
B3
330
1F
100
AcDbEntity
  8
0
  6
Continuous
 62
     7
370
    15
100
AcDbLine
 10
158.177191913
 20
186.3737851443
 30
0.0
 11
158.177191913
 21
169.3570688428
 31
0.0
  0
LINE
  5
B4
330
1F
100
AcDbEntity
  8
0
  6
Continuous
 62
     7
370
    15
100
AcDbLine
 10
158.177191913
 20
87.3737846912
 30
0.0
 11
158.677191995
 21
86.8737846674
 31
0.0
  0
LINE
  5
B5
330
1F
100
AcDbEntity
  8
0
  6
Continuous
 62
     7
370
    15
100
AcDbLine
 10
192.6771901175
 20
86.8737846674
 30
0.0
 11
193.1771911307
 21
87.3737846912
 31
0.0
  0
LINE
  5
B6
330
1F
100
AcDbEntity
  8
0
  6
Continuous
 62
     7
370
    15
100
AcDbLine
 10
193.1771911307
 20
186.3737851443
 30
0.0
 11
192.6771901175
 21
186.8737861575
 31
0.0
  0
LINE
  5
B7
330
1F
100
AcDbEntity
  8
0
  6
Continuous
 62
     7
370
    15
100
AcDbLine
 10
158.677191995
 20
186.8737861575
 30
0.0
 11
158.177191913
 21
186.3737851443
 31
0.0
  0
LINE
  5
B8
330
1F
100
AcDbEntity
  8
0
  6
Continuous
 62
     7
370
    15
100
AcDbLine
 10
214.1771927103
 20
144.3737857105
 30
0.0
 11
216.1771893128
 21
146.3737860383
 31
0.0
  0
LINE
  5
B9
330
1F
100
AcDbEntity
  8
0
  6
Continuous
 62
     7
370
    15
100
AcDbLine
 10
216.1771893128
 20
177.3737818064
 30
0.0
 11
214.1771927103
 21
179.3737858595
 31
0.0
  0
LINE
  5
BA
330
1F
100
AcDbEntity
  8
0
  6
Continuous
 62
     7
370
    15
100
AcDbLine
 10
214.1771927103
 20
179.3737858595
 30
0.0
 11
213.3771940692
 21
179.3737858595
 31
0.0
  0
LINE
  5
BB
330
1F
100
AcDbEntity
  8
0
  6
Continuous
 62
     7
370
    15
100
AcDbLine
 10
213.3771940692
 20
144.3737857105
 30
0.0
 11
214.1771927103
 21
144.3737857105
 31
0.0
  0
LINE
  5
BC
330
1F
100
AcDbEntity
  8
0
  6
Continuous
 62
     7
370
    15
100
AcDbLine
 10
213.3771940692
 20
179.3737858595
 30
0.0
 11
213.1771906837
 21
179.173782474
 31
0.0
  0
LINE
  5
BD
330
1F
100
AcDbEntity
  8
0
  6
Continuous
 62
     7
370
    15
100
AcDbLine
 10
213.1771906837
 20
144.5737853708
 30
0.0
 11
213.3771940692
 21
144.3737857105
 31
0.0
  0
LINE
  5
BE
330
1F
100
AcDbEntity
  8
0
  6
Continuous
 62
     7
370
    15
100
AcDbLine
 10
208.1771917268
 20
169.8737815084
 30
0.0
 11
201.3771921023
 21
169.8737815084
 31
0.0
  0
LINE
  5
BF
330
1F
100
AcDbEntity
  8
0
  6
Continuous
 62
     7
370
    15
100
AcDbLine
 10
201.3771921023
 20
153.8737863363
 30
0.0
 11
208.1771917268
 21
153.8737863363
 31
0.0
  0
LINE
  5
C0
330
1F
100
AcDbEntity
  8
0
  6
Continuous
 62
     7
370
    15
100
AcDbLine
 10
201.3771921023
 20
169.8737815084
 30
0.0
 11
201.177192442
 21
169.6737855734
 31
0.0
  0
LINE
  5
C1
330
1F
100
AcDbEntity
  8
0
  6
Continuous
 62
     7
370
    15
100
AcDbLine
 10
201.177192442
 20
154.0737822713
 30
0.0
 11
201.3771921023
 21
153.8737863363
 31
0.0
  0
LINE
  5
C2
330
1F
100
AcDbEntity
  8
0
  6
Continuous
 62
     7
370
    15
100
AcDbLine
 10
214.1771927103
 20
94.3737844998
 30
0.0
 11
216.1771893128
 21
96.3737843619
 31
0.0
  0
LINE
  5
C3
330
1F
100
AcDbEntity
  8
0
  6
Continuous
 62
     7
370
    15
100
AcDbLine
 10
216.1771893128
 20
127.3737847866
 30
0.0
 11
214.1771927103
 21
129.3737851145
 31
0.0
  0
LINE
  5
C4
330
1F
100
AcDbEntity
  8
0
  6
Continuous
 62
     7
370
    15
100
AcDbLine
 10
214.1771927103
 20
129.3737851145
 30
0.0
 11
213.3771940692
 21
129.3737851145
 31
0.0
  0
LINE
  5
C5
330
1F
100
AcDbEntity
  8
0
  6
Continuous
 62
     7
370
    15
100
AcDbLine
 10
213.3771940692
 20
94.3737844998
 30
0.0
 11
214.1771927103
 21
94.3737844998
 31
0.0
  0
LINE
  5
C6
330
1F
100
AcDbEntity
  8
0
  6
Continuous
 62
     7
370
    15
100
AcDbLine
 10
213.3771940692
 20
129.3737851145
 30
0.0
 11
213.1771906837
 21
129.1737854542
 31
0.0
  0
LINE
  5
C7
330
1F
100
AcDbEntity
  8
0
  6
Continuous
 62
     7
370
    15
100
AcDbLine
 10
213.1771906837
 20
94.5737846257
 30
0.0
 11
213.3771940692
 21
94.3737844998
 31
0.0
  0
LINE
  5
C8
330
1F
100
AcDbEntity
  8
0
  6
Continuous
 62
     7
370
    15
100
AcDbLine
 10
201.3771921023
 20
119.8737844886
 30
0.0
 11
201.177192442
 21
119.6737848284
 31
0.0
  0
LINE
  5
C9
330
1F
100
AcDbEntity
  8
0
  6
Continuous
 62
     7
370
    15
100
AcDbLine
 10
201.177192442
 20
104.0737852515
 30
0.0
 11
201.3771921023
 21
103.8737855913
 31
0.0
  0
LINE
  5
CA
330
1F
100
AcDbEntity
  8
0
  6
Continuous
 62
     7
370
    15
100
AcDbLine
 10
208.1771917268
 20
119.8737844886
 30
0.0
 11
201.3771921023
 21
119.8737844886
 31
0.0
  0
LINE
  5
CB
330
1F
100
AcDbEntity
  8
0
  6
Continuous
 62
     7
370
    15
100
AcDbLine
 10
201.3771921023
 20
103.8737855913
 30
0.0
 11
208.1771917268
 21
103.8737855913
 31
0.0
  0
LINE
  5
CC
330
1F
100
AcDbEntity
  8
0
  6
Continuous
 62
     7
370
    15
100
AcDbLine
 10
213.1771906837
 20
129.3737851145
 30
0.0
 11
212.1771923824
 21
129.3737851145
 31
0.0
  0
LINE
  5
CD
330
1F
100
AcDbEntity
  8
0
  6
Continuous
 62
     7
370
    15
100
AcDbLine
 10
212.1771923824
 20
94.3737844998
 30
0.0
 11
213.1771906837
 21
94.3737844998
 31
0.0
  0
LINE
  5
CE
330
1F
100
AcDbEntity
  8
0
  6
Continuous
 62
     7
370
    15
100
AcDbLine
 10
212.1771923824
 20
121.8737848164
 30
0.0
 11
208.1771917268
 21
121.8737848164
 31
0.0
  0
LINE
  5
CF
330
1F
100
AcDbEntity
  8
0
  6
Continuous
 62
     7
370
    15
100
AcDbLine
 10
208.1771917268
 20
101.8737843321
 30
0.0
 11
212.1771923824
 21
101.8737843321
 31
0.0
  0
LINE
  5
D0
330
1F
100
AcDbEntity
  8
0
  6
Continuous
 62
     7
370
    15
100
AcDbLine
 10
196.1771934851
 20
94.3737844998
 30
0.0
 11
197.1771917864
 21
94.3737844998
 31
0.0
  0
LINE
  5
D1
330
1F
100
AcDbEntity
  8
0
  6
Continuous
 62
     7
370
    15
100
AcDbLine
 10
197.1771917864
 20
129.3737851145
 30
0.0
 11
196.1771934851
 21
129.3737851145
 31
0.0
  0
LINE
  5
D2
330
1F
100
AcDbEntity
  8
0
  6
Continuous
 62
     7
370
    15
100
AcDbLine
 10
197.1771917864
 20
101.8737843321
 30
0.0
 11
201.177192442
 21
101.8737843321
 31
0.0
  0
LINE
  5
D3
330
1F
100
AcDbEntity
  8
0
  6
Continuous
 62
     7
370
    15
100
AcDbLine
 10
201.177192442
 20
121.8737848164
 30
0.0
 11
197.1771917864
 21
121.8737848164
 31
0.0
  0
LINE
  5
D4
330
1F
100
AcDbEntity
  8
0
  6
Continuous
 62
     7
370
    15
100
AcDbLine
 10
196.1771934851
 20
144.3737857105
 30
0.0
 11
197.1771917864
 21
144.3737857105
 31
0.0
  0
LINE
  5
D5
330
1F
100
AcDbEntity
  8
0
  6
Continuous
 62
     7
370
    15
100
AcDbLine
 10
197.1771917864
 20
179.3737858595
 30
0.0
 11
196.1771934851
 21
179.3737858595
 31
0.0
  0
LINE
  5
D6
330
1F
100
AcDbEntity
  8
0
  6
Continuous
 62
     7
370
    15
100
AcDbLine
 10
197.1771917864
 20
151.8737822832
 30
0.0
 11
201.177192442
 21
151.8737822832
 31
0.0
  0
LINE
  5
D7
330
1F
100
AcDbEntity
  8
0
  6
Continuous
 62
     7
370
    15
100
AcDbLine
 10
201.177192442
 20
171.8737855615
 30
0.0
 11
197.1771917864
 21
171.8737855615
 31
0.0
  0
LINE
  5
D8
330
1F
100
AcDbEntity
  8
0
  6
Continuous
 62
     7
370
    15
100
AcDbLine
 10
213.1771906837
 20
179.3737858595
 30
0.0
 11
212.1771923824
 21
179.3737858595
 31
0.0
  0
LINE
  5
D9
330
1F
100
AcDbEntity
  8
0
  6
Continuous
 62
     7
370
    15
100
AcDbLine
 10
212.1771923824
 20
144.3737857105
 30
0.0
 11
213.1771906837
 21
144.3737857105
 31
0.0
  0
LINE
  5
DA
330
1F
100
AcDbEntity
  8
0
  6
Continuous
 62
     7
370
    15
100
AcDbLine
 10
212.1771923824
 20
171.8737855615
 30
0.0
 11
208.1771917268
 21
171.8737855615
 31
0.0
  0
LINE
  5
DB
330
1F
100
AcDbEntity
  8
0
  6
Continuous
 62
     7
370
    15
100
AcDbLine
 10
208.1771917268
 20
151.8737822832
 30
0.0
 11
212.1771923824
 21
151.8737822832
 31
0.0
  0
LINE
  5
DC
330
1F
100
AcDbEntity
  8
0
  6
Continuous
 62
     7
370
    15
100
AcDbLine
 10
196.1771934851
 20
129.3737851145
 30
0.0
 11
194.1771931573
 21
129.3737851145
 31
0.0
  0
LINE
  5
DD
330
1F
100
AcDbEntity
  8
0
  6
Continuous
 62
     7
370
    15
100
AcDbLine
 10
194.1771931573
 20
94.3737844998
 30
0.0
 11
196.1771934851
 21
94.3737844998
 31
0.0
  0
LINE
  5
DE
330
1F
100
AcDbEntity
  8
0
  6
Continuous
 62
     7
370
    15
100
AcDbLine
 10
194.1771931573
 20
120.3737855019
 30
0.0
 11
193.1771911307
 21
119.3737834753
 31
0.0
  0
LINE
  5
DF
330
1F
100
AcDbEntity
  8
0
  6
Continuous
 62
     7
370
    15
100
AcDbLine
 10
193.1771911307
 20
104.3737847419
 30
0.0
 11
194.1771931573
 21
103.373784578
 31
0.0
  0
LINE
  5
E0
330
1F
100
AcDbEntity
  8
0
  6
Continuous
 62
     7
370
    15
100
AcDbLine
 10
196.1771934851
 20
179.3737858595
 30
0.0
 11
194.1771931573
 21
179.3737858595
 31
0.0
  0
LINE
  5
E1
330
1F
100
AcDbEntity
  8
0
  6
Continuous
 62
     7
370
    15
100
AcDbLine
 10
194.1771931573
 20
144.3737857105
 30
0.0
 11
196.1771934851
 21
144.3737857105
 31
0.0
  0
LINE
  5
E2
330
1F
100
AcDbEntity
  8
0
  6
Continuous
 62
     7
370
    15
100
AcDbLine
 10
194.1771931573
 20
170.3737825217
 30
0.0
 11
193.1771911307
 21
169.3737879457
 31
0.0
  0
LINE
  5
E3
330
1F
100
AcDbEntity
  8
0
  6
Continuous
 62
     7
370
    15
100
AcDbLine
 10
193.1771911307
 20
154.3737873496
 30
0.0
 11
194.1771931573
 21
153.3737853231
 31
0.0
  0
ARC
  5
E4
330
1F
100
AcDbEntity
  8
0
  6
Continuous
 62
     7
370
    15
100
AcDbCircle
 10
157.9771917565
 20
156.1737846674
 30
0.0
 40
0.8000000000000398
100
AcDbArc
 50
180.0
 51
270.0
  0
ARC
  5
E5
330
1F
100
AcDbEntity
  8
0
  6
Continuous
 62
     7
370
    15
100
AcDbCircle
 10
157.9771917565
 20
167.5737846674
 30
0.0
 40
0.8000000000000398
100
AcDbArc
 50
90.0
 51
180.0
  0
LINE
  5
E6
330
1F
100
AcDbEntity
  8
0
  6
Continuous
 62
     7
370
    15
100
AcDbLine
 10
157.9771913215
 20
155.3737819256
 30
0.0
 11
158.5799442231
 21
155.3737819256
 31
0.0
  0
LINE
  5
E7
330
1F
100
AcDbEntity
  8
0
  6
Continuous
 62
     7
370
    15
100
AcDbLine
 10
158.5809034853
 20
168.3737859191
 30
0.0
 11
157.9771913215
 21
168.3737859191
 31
0.0
  0
ARC
  5
E8
330
1F
100
AcDbEntity
  8
0
  6
Continuous
 62
     7
370
    15
100
AcDbCircle
 10
157.9771917565
 20
106.1737846674
 30
0.0
 40
0.8000000000000398
100
AcDbArc
 50
180.0
 51
270.0
  0
ARC
  5
E9
330
1F
100
AcDbEntity
  8
0
  6
Continuous
 62
     7
370
    15
100
AcDbCircle
 10
157.9771917565
 20
117.5737846674
 30
0.0
 40
0.8000000000000398
100
AcDbArc
 50
90.0
 51
180.0
  0
LINE
  5
EA
330
1F
100
AcDbEntity
  8
0
  6
Continuous
 62
     7
370
    15
100
AcDbLine
 10
157.9771913215
 20
105.3737849058
 30
0.0
 11
158.5799442231
 21
105.3737849058
 31
0.0
  0
LINE
  5
EB
330
1F
100
AcDbEntity
  8
0
  6
Continuous
 62
     7
370
    15
100
AcDbLine
 10
158.5809034853
 20
118.3737851741
 30
0.0
 11
157.9771913215
 21
118.3737851741
 31
0.0
  0
LINE
  5
EC
330
1F
100
AcDbEntity
  8
0
  6
Continuous
 62
     7
370
    15
100
AcDbLine
 10
157.5758522934
 20
136.8737854125
 30
0.0
 11
157.5758522934
 21
140.8737860681
 31
0.0
  0
LINE
  5
ED
330
1F
100
AcDbEntity
  8
0
  6
Continuous
 62
     7
370
    15
100
AcDbLine
 10
157.5758522934
 20
132.8737847568
 30
0.0
 11
157.5758522934
 21
136.8737854125
 31
0.0
  0
LINE
  5
EE
330
1F
100
AcDbEntity
  8
0
  6
Continuous
 62
     7
370
    15
100
AcDbLine
 10
157.1771917491
 20
136.8737854125
 30
0.0
 11
157.1771917491
 21
140.1832848849
 31
0.0
  0
LINE
  5
EF
330
1F
100
AcDbEntity
  8
0
  6
Continuous
 62
     7
370
    15
100
AcDbLine
 10
157.1771917491
 20
133.5642859401
 30
0.0
 11
157.1771917491
 21
136.8737854125
 31
0.0
  0
CIRCLE
  5
F0
330
1F
100
AcDbEntity
  8
0
  6
Continuous
 62
     7
370
    15
100
AcDbCircle
 10
175.6771917565
 20
136.8737846674
 30
0.0
 40
9.499999999999986
  0
CIRCLE
  5
F1
330
1F
100
AcDbEntity
  8
0
  6
Continuous
 62
     7
370
    15
100
AcDbCircle
 10
175.6771917565
 20
136.8737846674
 30
0.0
 40
9.999999999999982
  0
LINE
  5
F2
330
1F
100
AcDbEntity
  8
0
  6
Continuous
 62
     7
370
    15
100
AcDbLine
 10
175.6771910562
 20
87.3737846912
 30
0.0
 11
193.1771911307
 21
87.3737846912
 31
0.0
  0
LINE
  5
F3
330
1F
100
AcDbEntity
  8
0
  6
Continuous
 62
     7
370
    15
100
AcDbLine
 10
158.177191913
 20
87.3737846912
 30
0.0
 11
175.6771910562
 21
87.3737846912
 31
0.0
  0
SPLINE
  5
F4
330
1F
100
AcDbEntity
  8
0
  6
Continuous
 62
     7
370
    15
100
AcDbSpline
210
0.0
220
0.0
230
1.0
 70
     8
 71
     3
 72
    27
 73
    23
 74
     0
 42
0.000000001
 43
0.00000001
 40
0.0
 40
0.0
 40
0.0
 40
0.0
 40
0.0497373680430339
 40
0.1009927531642403
 40
0.1507112037837771
 40
0.2017508618587907
 40
0.2538734368115109
 40
0.3073584776117644
 40
0.3620756733301407
 40
0.4185370554515909
 40
0.4704177456898515
 40
0.5240832171939389
 40
0.5718516817119075
 40
0.6209562109519908
 40
0.6698657090667349
 40
0.719973861275767
 40
0.7732210362236529
 40
0.8279294508271556
 40
0.882385233030732
 40
0.9386416558964485
 40
0.9894906963312532
 40
0.9999999999999999
 40
0.9999999999999999
 40
0.9999999999999999
 40
0.9999999999999999
 10
158.1771919130435
 20
104.3737847419241
 30
0.0
 10
158.1850168582148
 20
104.3919514822849
 30
0.0
 10
158.2009055710137
 20
104.4288394238316
 30
0.0
 10
158.3255887235343
 20
104.7241136916411
 30
0.0
 10
158.5122543554918
 20
105.186737854474
 30
0.0
 10
158.7507342280758
 20
105.8195835613297
 30
0.0
 10
159.0229852404978
 20
106.6207427866692
 30
0.0
 10
159.3041519991191
 20
107.583037283467
 30
0.0
 10
159.5643371579628
 20
108.6995561640349
 30
0.0
 10
159.7604372039261
 20
109.9102950623387
 30
0.0
 10
159.8672653238976
 20
111.179398124866
 30
0.0
 10
159.8723832667016
 20
112.4046848751209
 30
0.0
 10
159.786170113518
 20
113.5887270823635
 30
0.0
 10
159.628971680958
 20
114.6876736167156
 30
0.0
 10
159.4123972894024
 20
115.7281952874971
 30
0.0
 10
159.1542796754669
 20
116.6977002484759
 30
0.0
 10
158.8746085988779
 20
117.5769675969762
 30
0.0
 10
158.6052452343721
 20
118.3217989721883
 30
0.0
 10
158.3758384085094
 20
118.9020363574585
 30
0.0
 10
158.2318372053584
 20
119.2464644167855
 30
0.0
 10
158.1690704205136
 20
119.3928054806068
 30
0.0
 10
158.182102178896
 20
119.3622940237513
 30
0.0
 10
158.1843342258682
 20
119.3570680977562
 30
0.0
  0
ARC
  5
F5
330
1F
100
AcDbEntity
  8
0
  6
Continuous
 62
     7
370
    15
100
AcDbCircle
 10
209.7085858319
 20
161.8742625275
 30
0.0
 40
18.15295822351958
100
AcDbArc
 50
155.5984127712
 51
204.3469702497
  0
ARC
  5
F6
330
1F
100
AcDbEntity
  8
0
  6
Continuous
 62
     7
370
    15
100
AcDbCircle
 10
209.7085564625
 20
111.8742608621
 30
0.0
 40
18.15293031879015
100
AcDbArc
 50
155.5983825375
 51
204.3470004631
  0
SPLINE
  5
F7
330
1F
100
AcDbEntity
  8
0
  6
Continuous
 62
     7
370
    15
100
AcDbSpline
210
0.0
220
0.0
230
1.0
 70
     8
 71
     3
 72
    27
 73
    23
 74
     0
 42
0.000000001
 43
0.00000001
 40
0.0
 40
0.0
 40
0.0
 40
0.0
 40
0.0497373609931482
 40
0.1009927452067733
 40
0.1507111649747985
 40
0.2017508221460507
 40
0.2538733961758343
 40
0.3073584948811596
 40
0.3620756231563493
 40
0.4185371496626016
 40
0.4704176855802981
 40
0.5240832342959497
 40
0.5718517750344153
 40
0.620956155643284
 40
0.6698657906976494
 40
0.7199738795501381
 40
0.7732209990352594
 40
0.827929547611398
 40
0.882385260726469
 40
0.9386416825960506
 40
0.9894907043461256
 40
1.0
 40
1.0
 40
1.0
 40
1.0
 10
158.1771919130435
 20
154.3737873496273
 30
0.0
 10
158.185016863479
 20
154.3919532605769
 30
0.0
 10
158.2009055879671
 20
154.4288395203089
 30
0.0
 10
158.3255886511936
 20
154.7241151049243
 30
0.0
 10
158.5122544496938
 20
155.1867361972509
 30
0.0
 10
158.7507341794497
 20
155.8195827057537
 30
0.0
 10
159.0229854931377
 20
156.6207415959301
 30
0.0
 10
159.3041515171851
 20
157.5830377724873
 30
0.0
 10
159.5643378161116
 20
158.6995560604209
 30
0.0
 10
159.7604365936808
 20
159.9102956843921
 30
0.0
 10
159.8672656122901
 20
161.1793987412205
 30
0.0
 10
159.8723831032842
 20
162.4046855513616
 30
0.0
 10
159.7861705866791
 20
163.5887281973644
 30
0.0
 10
159.6289708976578
 20
164.6876741091378
 30
0.0
 10
159.4123979442403
 20
165.7281969510285
 30
0.0
 10
159.1542796238062
 20
166.697701428776
 30
0.0
 10
158.8746079611373
 20
167.576965479609
 30
0.0
 10
158.6052458960105
 20
168.3218054830982
 30
0.0
 10
158.375838155165
 20
168.9020345935962
 30
0.0
 10
158.2318372807554
 20
169.2464697556791
 30
0.0
 10
158.1690704155603
 20
169.3927967020535
 30
0.0
 10
158.1821021787958
 20
169.3622933746979
 30
0.0
 10
158.1843342258682
 20
169.3570688428142
 30
0.0
  0
LINE
  5
F8
330
1F
100
AcDbEntity
  8
0
  6
Continuous
 62
     7
370
    15
100
AcDbLine
 10
175.6771910562
 20
186.3737851443
 30
0.0
 11
158.177191913
 21
186.3737851443
 31
0.0
  0
LINE
  5
F9
330
1F
100
AcDbEntity
  8
0
  6
Continuous
 62
     7
370
    15
100
AcDbLine
 10
193.1771911307
 20
186.3737851443
 30
0.0
 11
175.6771910562
 21
186.3737851443
 31
0.0
  0
LINE
  5
FA
330
1F
100
AcDbEntity
  8
0
  6
Continuous
 62
     7
370
    15
100
AcDbLine
 10
175.6771910562
 20
86.8737846674
 30
0.0
 11
158.677191995
 21
86.8737846674
 31
0.0
  0
LINE
  5
FB
330
1F
100
AcDbEntity
  8
0
  6
Continuous
 62
     7
370
    15
100
AcDbLine
 10
192.6771901175
 20
86.8737846674
 30
0.0
 11
175.6771910562
 21
86.8737846674
 31
0.0
  0
LINE
  5
FC
330
1F
100
AcDbEntity
  8
0
  6
Continuous
 62
     7
370
    15
100
AcDbLine
 10
175.6771910562
 20
186.8737861575
 30
0.0
 11
192.6771901175
 21
186.8737861575
 31
0.0
  0
LINE
  5
FD
330
1F
100
AcDbEntity
  8
0
  6
Continuous
 62
     7
370
    15
100
AcDbLine
 10
158.677191995
 20
186.8737861575
 30
0.0
 11
175.6771910562
 21
186.8737861575
 31
0.0
  0
LINE
  5
FE
330
1F
100
AcDbEntity
  8
0
  6
Continuous
 62
     7
370
    15
100
AcDbLine
 10
216.1771893128
 20
156.4633473815
 30
0.0
 11
216.1771893128
 21
146.3737860383
 31
0.0
  0
LINE
  5
FF
330
1F
100
AcDbEntity
  8
0
  6
Continuous
 62
     7
370
    15
100
AcDbLine
 10
216.1771893128
 20
177.3737818064
 30
0.0
 11
216.1771893128
 21
156.4633473815
 31
0.0
  0
LINE
  5
100
330
1F
100
AcDbEntity
  8
0
  6
Continuous
 62
     7
370
    15
100
AcDbLine
 10
214.1771927103
 20
155.7652279796
 30
0.0
 11
214.1771927103
 21
179.3737858595
 31
0.0
  0
LINE
  5
101
330
1F
100
AcDbEntity
  8
0
  6
Continuous
 62
     7
370
    15
100
AcDbLine
 10
214.1771927103
 20
144.3737857105
 30
0.0
 11
214.1771927103
 21
155.7652279796
 31
0.0
  0
LINE
  5
102
330
1F
100
AcDbEntity
  8
0
  6
Continuous
 62
     7
370
    15
100
AcDbLine
 10
213.3771940692
 20
179.3737858595
 30
0.0
 11
213.3771940692
 21
144.3737857105
 31
0.0
  0
LINE
  5
103
330
1F
100
AcDbEntity
  8
0
  6
Continuous
 62
     7
370
    15
100
AcDbLine
 10
201.3771921023
 20
169.8737815084
 30
0.0
 11
201.3771921023
 21
153.8737863363
 31
0.0
  0
LINE
  5
104
330
1F
100
AcDbEntity
  8
0
  6
Continuous
 62
     7
370
    15
100
AcDbLine
 10
216.1771893128
 20
126.8950887086
 30
0.0
 11
216.1771893128
 21
96.3737843619
 31
0.0
  0
LINE
  5
105
330
1F
100
AcDbEntity
  8
0
  6
Continuous
 62
     7
370
    15
100
AcDbLine
 10
216.1771893128
 20
127.3737847866
 30
0.0
 11
216.1771893128
 21
126.8950887086
 31
0.0
  0
LINE
  5
106
330
1F
100
AcDbEntity
  8
0
  6
Continuous
 62
     7
370
    15
100
AcDbLine
 10
214.1771927103
 20
128.8333237232
 30
0.0
 11
214.1771927103
 21
129.3737851145
 31
0.0
  0
LINE
  5
107
330
1F
100
AcDbEntity
  8
0
  6
Continuous
 62
     7
370
    15
100
AcDbLine
 10
214.1771927103
 20
94.3737844998
 30
0.0
 11
214.1771927103
 21
128.8333237232
 31
0.0
  0
LINE
  5
108
330
1F
100
AcDbEntity
  8
0
  6
Continuous
 62
     7
370
    15
100
AcDbLine
 10
213.3771940692
 20
129.3737851145
 30
0.0
 11
213.3771940692
 21
94.3737844998
 31
0.0
  0
LINE
  5
109
330
1F
100
AcDbEntity
  8
0
  6
Continuous
 62
     7
370
    15
100
AcDbLine
 10
201.3771921023
 20
119.8737844886
 30
0.0
 11
201.3771921023
 21
103.8737855913
 31
0.0
  0
LINE
  5
10A
330
1F
100
AcDbEntity
  8
0
  6
Continuous
 62
     7
370
    15
100
AcDbLine
 10
212.1771923824
 20
129.3737851145
 30
0.0
 11
212.1771923824
 21
94.3737844998
 31
0.0
  0
LINE
  5
10B
330
1F
100
AcDbEntity
  8
0
  6
Continuous
 62
     7
370
    15
100
AcDbLine
 10
213.1771906837
 20
129.3737851145
 30
0.0
 11
213.1771906837
 21
94.3737844998
 31
0.0
  0
LINE
  5
10C
330
1F
100
AcDbEntity
  8
0
  6
Continuous
 62
     7
370
    15
100
AcDbLine
 10
208.1771917268
 20
121.8737848164
 30
0.0
 11
208.1771917268
 21
101.8737843321
 31
0.0
  0
LINE
  5
10D
330
1F
100
AcDbEntity
  8
0
  6
Continuous
 62
     7
370
    15
100
AcDbLine
 10
197.1771917864
 20
94.3737844998
 30
0.0
 11
197.1771917864
 21
129.3737851145
 31
0.0
  0
LINE
  5
10E
330
1F
100
AcDbEntity
  8
0
  6
Continuous
 62
     7
370
    15
100
AcDbLine
 10
196.1771934851
 20
94.3737844998
 30
0.0
 11
196.1771934851
 21
129.3737851145
 31
0.0
  0
LINE
  5
10F
330
1F
100
AcDbEntity
  8
0
  6
Continuous
 62
     7
370
    15
100
AcDbLine
 10
201.177192442
 20
101.8737843321
 30
0.0
 11
201.177192442
 21
121.8737848164
 31
0.0
  0
LINE
  5
110
330
1F
100
AcDbEntity
  8
0
  6
Continuous
 62
     7
370
    15
100
AcDbLine
 10
197.1771917864
 20
145.905762917
 30
0.0
 11
197.1771917864
 21
179.3737858595
 31
0.0
  0
LINE
  5
111
330
1F
100
AcDbEntity
  8
0
  6
Continuous
 62
     7
370
    15
100
AcDbLine
 10
197.1771917864
 20
144.3737857105
 30
0.0
 11
197.1771917864
 21
145.905762917
 31
0.0
  0
LINE
  5
112
330
1F
100
AcDbEntity
  8
0
  6
Continuous
 62
     7
370
    15
100
AcDbLine
 10
196.1771934851
 20
145.905762917
 30
0.0
 11
196.1771934851
 21
179.3737858595
 31
0.0
  0
LINE
  5
113
330
1F
100
AcDbEntity
  8
0
  6
Continuous
 62
     7
370
    15
100
AcDbLine
 10
196.1771934851
 20
144.3737857105
 30
0.0
 11
196.1771934851
 21
145.905762917
 31
0.0
  0
LINE
  5
114
330
1F
100
AcDbEntity
  8
0
  6
Continuous
 62
     7
370
    15
100
AcDbLine
 10
201.177192442
 20
152.7492031516
 30
0.0
 11
201.177192442
 21
171.8737855615
 31
0.0
  0
LINE
  5
115
330
1F
100
AcDbEntity
  8
0
  6
Continuous
 62
     7
370
    15
100
AcDbLine
 10
201.177192442
 20
151.8737822832
 30
0.0
 11
201.177192442
 21
152.7492031516
 31
0.0
  0
LINE
  5
116
330
1F
100
AcDbEntity
  8
0
  6
Continuous
 62
     7
370
    15
100
AcDbLine
 10
213.1771906837
 20
179.3737858595
 30
0.0
 11
213.1771906837
 21
144.3737857105
 31
0.0
  0
LINE
  5
117
330
1F
100
AcDbEntity
  8
0
  6
Continuous
 62
     7
370
    15
100
AcDbLine
 10
212.1771923824
 20
179.3737858595
 30
0.0
 11
212.1771923824
 21
144.3737857105
 31
0.0
  0
LINE
  5
118
330
1F
100
AcDbEntity
  8
0
  6
Continuous
 62
     7
370
    15
100
AcDbLine
 10
208.1771917268
 20
171.8737855615
 30
0.0
 11
208.1771917268
 21
151.8737822832
 31
0.0
  0
LINE
  5
119
330
1F
100
AcDbEntity
  8
0
  6
Continuous
 62
     7
370
    15
100
AcDbLine
 10
194.1771931573
 20
129.3737851145
 30
0.0
 11
194.1771931573
 21
94.3737844998
 31
0.0
  0
LINE
  5
11A
330
1F
100
AcDbEntity
  8
0
  6
Continuous
 62
     7
370
    15
100
AcDbLine
 10
193.1771911307
 20
104.3737847419
 30
0.0
 11
193.1771911307
 21
119.3737834753
 31
0.0
  0
LINE
  5
11B
330
1F
100
AcDbEntity
  8
0
  6
Continuous
 62
     7
370
    15
100
AcDbLine
 10
196.1771934851
 20
179.3737858595
 30
0.0
 11
196.1771934851
 21
144.3737857105
 31
0.0
  0
LINE
  5
11C
330
1F
100
AcDbEntity
  8
0
  6
Continuous
 62
     7
370
    15
100
AcDbLine
 10
194.1771931573
 20
179.3737858595
 30
0.0
 11
194.1771931573
 21
144.3737857105
 31
0.0
  0
LINE
  5
11D
330
1F
100
AcDbEntity
  8
0
  6
Continuous
 62
     7
370
    15
100
AcDbLine
 10
193.1771911307
 20
169.3590283455
 30
0.0
 11
193.1771911307
 21
169.3737879457
 31
0.0
  0
LINE
  5
11E
330
1F
100
AcDbEntity
  8
0
  6
Continuous
 62
     7
370
    15
100
AcDbLine
 10
193.1771911307
 20
154.3737873496
 30
0.0
 11
193.1771911307
 21
169.3590283455
 31
0.0
  0
LINE
  5
11F
330
1F
100
AcDbEntity
  8
0
  6
Continuous
 62
     7
370
    15
100
AcDbLine
 10
157.1771917491
 20
156.1737880172
 30
0.0
 11
157.1771917491
 21
167.5737872781
 31
0.0
  0
LINE
  5
120
330
1F
100
AcDbEntity
  8
0
  6
Continuous
 62
     7
370
    15
100
AcDbLine
 10
157.1771917491
 20
111.8737850399
 30
0.0
 11
157.1771917491
 21
117.5737846704
 31
0.0
  0
LINE
  5
121
330
1F
100
AcDbEntity
  8
0
  6
Continuous
 62
     7
370
    15
100
AcDbLine
 10
157.1771917491
 20
106.1737854095
 30
0.0
 11
157.1771917491
 21
111.8737850399
 31
0.0
  0
LINE
  5
122
330
1F
100
AcDbEntity
  8
0
  6
Continuous
 62
     8
370
    15
100
AcDbLine
 10
157.9771913215
 20
168.3737859191
 30
0.0
 11
157.9771913215
 21
155.3737819256
 31
0.0
  0
LINE
  5
123
330
1F
100
AcDbEntity
  8
0
  6
Continuous
 62
     8
370
    15
100
AcDbLine
 10
157.9771913215
 20
111.8737850399
 30
0.0
 11
157.9771913215
 21
105.3737849058
 31
0.0
  0
LINE
  5
124
330
1F
100
AcDbEntity
  8
0
  6
Continuous
 62
     8
370
    15
100
AcDbLine
 10
157.9771913215
 20
118.3737851741
 30
0.0
 11
157.9771913215
 21
111.8737850399
 31
0.0
  0
LINE
  5
125
330
1F
100
AcDbEntity
  8
0
  6
Continuous
 62
     7
370
    15
100
AcDbLine
 10
232.0947874618
 20
146.8737833263
 30
0.0
 11
231.5947789979
 21
146.3737860383
 31
0.0
  0
LINE
  5
126
330
1F
100
AcDbEntity
  8
0
  6
Continuous
 62
     7
370
    15
100
AcDbLine
 10
231.5947789979
 20
127.3737847866
 30
0.0
 11
232.0947874618
 21
126.8737837733
 31
0.0
  0
LINE
  5
127
330
1F
100
AcDbEntity
  8
0
  6
Continuous
 62
     7
370
    15
100
AcDbLine
 10
232.0947874618
 20
126.8737837733
 30
0.0
 11
239.094779296
 21
126.8737837733
 31
0.0
  0
LINE
  5
128
330
1F
100
AcDbEntity
  8
0
  6
Continuous
 62
     7
370
    15
100
AcDbLine
 10
274.0947831703
 20
126.8737837733
 30
0.0
 11
354.0947804508
 21
126.8737837733
 31
0.0
  0
LINE
  5
129
330
1F
100
AcDbEntity
  8
0
  6
Continuous
 62
     7
370
    15
100
AcDbLine
 10
389.0947796685
 20
126.8737837733
 30
0.0
 11
396.0947808159
 21
126.8737837733
 31
0.0
  0
LINE
  5
12A
330
1F
100
AcDbEntity
  8
0
  6
Continuous
 62
     7
370
    15
100
AcDbLine
 10
396.0947808159
 20
146.8737833263
 30
0.0
 11
389.0947796685
 21
146.8737833263
 31
0.0
  0
LINE
  5
12B
330
1F
100
AcDbEntity
  8
0
  6
Continuous
 62
     7
370
    15
100
AcDbLine
 10
354.0947804508
 20
146.8737833263
 30
0.0
 11
274.0947831703
 21
146.8737833263
 31
0.0
  0
LINE
  5
12C
330
1F
100
AcDbEntity
  8
0
  6
Continuous
 62
     7
370
    15
100
AcDbLine
 10
239.094779296
 20
146.8737833263
 30
0.0
 11
232.0947874618
 21
146.8737833263
 31
0.0
  0
LINE
  5
12D
330
1F
100
AcDbEntity
  8
0
  6
Continuous
 62
     7
370
    15
100
AcDbLine
 10
396.0947808159
 20
126.8737837733
 30
0.0
 11
396.5947818292
 21
127.3737847866
 31
0.0
  0
LINE
  5
12E
330
1F
100
AcDbEntity
  8
0
  6
Continuous
 62
     7
370
    15
100
AcDbLine
 10
396.5947818292
 20
146.3737860383
 30
0.0
 11
396.0947808159
 21
146.8737833263
 31
0.0
  0
LINE
  5
12F
330
1F
100
AcDbEntity
  8
0
  6
Continuous
 62
     7
370
    15
100
AcDbLine
 10
389.0947796685
 20
146.8737833263
 30
0.0
 11
389.0947796685
 21
186.3737851443
 31
0.0
  0
LINE
  5
130
330
1F
100
AcDbEntity
  8
0
  6
Continuous
 62
     7
370
    15
100
AcDbLine
 10
389.0947796685
 20
87.3737846912
 30
0.0
 11
389.0947796685
 21
126.8737837733
 31
0.0
  0
LINE
  5
131
330
1F
100
AcDbEntity
  8
0
  6
Continuous
 62
     7
370
    15
100
AcDbLine
 10
354.0947804508
 20
126.8737837733
 30
0.0
 11
354.0947804508
 21
87.3737846912
 31
0.0
  0
LINE
  5
132
330
1F
100
AcDbEntity
  8
0
  6
Continuous
 62
     7
370
    15
100
AcDbLine
 10
354.0947804508
 20
186.3737851443
 30
0.0
 11
354.0947804508
 21
146.8737833263
 31
0.0
  0
LINE
  5
133
330
1F
100
AcDbEntity
  8
0
  6
Continuous
 62
     7
370
    15
100
AcDbLine
 10
354.0947804508
 20
87.3737846912
 30
0.0
 11
354.5947805328
 21
86.8737846674
 31
0.0
  0
LINE
  5
134
330
1F
100
AcDbEntity
  8
0
  6
Continuous
 62
     7
370
    15
100
AcDbLine
 10
388.5947805179
 20
86.8737846674
 30
0.0
 11
389.0947796685
 21
87.3737846912
 31
0.0
  0
LINE
  5
135
330
1F
100
AcDbEntity
  8
0
  6
Continuous
 62
     7
370
    15
100
AcDbLine
 10
389.0947796685
 20
186.3737851443
 30
0.0
 11
388.5947805179
 21
186.8737861575
 31
0.0
  0
LINE
  5
136
330
1F
100
AcDbEntity
  8
0
  6
Continuous
 62
     7
370
    15
100
AcDbLine
 10
354.5947805328
 20
186.8737861575
 30
0.0
 11
354.0947804508
 21
186.3737851443
 31
0.0
  0
LINE
  5
137
330
1F
100
AcDbEntity
  8
0
  6
Continuous
 62
     7
370
    15
100
AcDbLine
 10
239.094779296
 20
87.3737846912
 30
0.0
 11
239.5947803092
 21
86.8737846674
 31
0.0
  0
LINE
  5
138
330
1F
100
AcDbEntity
  8
0
  6
Continuous
 62
     7
370
    15
100
AcDbLine
 10
273.594782157
 20
86.8737846674
 30
0.0
 11
274.0947831703
 21
87.3737846912
 31
0.0
  0
LINE
  5
139
330
1F
100
AcDbEntity
  8
0
  6
Continuous
 62
     7
370
    15
100
AcDbLine
 10
274.0947831703
 20
146.8737833263
 30
0.0
 11
274.0947831703
 21
186.3737851443
 31
0.0
  0
LINE
  5
13A
330
1F
100
AcDbEntity
  8
0
  6
Continuous
 62
     7
370
    15
100
AcDbLine
 10
274.0947831703
 20
87.3737846912
 30
0.0
 11
274.0947831703
 21
126.8737837733
 31
0.0
  0
LINE
  5
13B
330
1F
100
AcDbEntity
  8
0
  6
Continuous
 62
     7
370
    15
100
AcDbLine
 10
239.094779296
 20
126.8737837733
 30
0.0
 11
239.094779296
 21
87.3737846912
 31
0.0
  0
LINE
  5
13C
330
1F
100
AcDbEntity
  8
0
  6
Continuous
 62
     7
370
    15
100
AcDbLine
 10
239.094779296
 20
186.3737851443
 30
0.0
 11
239.094779296
 21
146.8737833263
 31
0.0
  0
LINE
  5
13D
330
1F
100
AcDbEntity
  8
0
  6
Continuous
 62
     7
370
    15
100
AcDbLine
 10
274.0947831703
 20
186.3737851443
 30
0.0
 11
273.594782157
 21
186.8737861575
 31
0.0
  0
LINE
  5
13E
330
1F
100
AcDbEntity
  8
0
  6
Continuous
 62
     7
370
    15
100
AcDbLine
 10
239.5947803092
 20
186.8737861575
 30
0.0
 11
239.094779296
 21
186.3737851443
 31
0.0
  0
CIRCLE
  5
13F
330
1F
100
AcDbEntity
  8
0
  6
Continuous
 62
     7
370
    15
100
AcDbCircle
 10
371.5947803563
 20
136.8737846674
 30
0.0
 40
3.309500000000014
  0
CIRCLE
  5
140
330
1F
100
AcDbEntity
  8
0
  6
Continuous
 62
     7
370
    15
100
AcDbCircle
 10
371.5947803563
 20
136.8737846674
 30
0.0
 40
4.0
  0
LINE
  5
141
330
1F
100
AcDbEntity
  8
0
  6
Continuous
 62
     7
370
    15
100
AcDbLine
 10
370.4400802312
 20
138.8737857403
 30
0.0
 11
369.2853794714
 21
136.8737854125
 31
0.0
  0
LINE
  5
142
330
1F
100
AcDbEntity
  8
0
  6
Continuous
 62
     7
370
    15
100
AcDbLine
 10
370.4400802312
 20
134.8737850847
 30
0.0
 11
369.2853794714
 21
136.8737854125
 31
0.0
  0
LINE
  5
143
330
1F
100
AcDbEntity
  8
0
  6
Continuous
 62
     7
370
    15
100
AcDbLine
 10
372.7494808195
 20
134.8737850847
 30
0.0
 11
370.4400802312
 21
134.8737850847
 31
0.0
  0
LINE
  5
144
330
1F
100
AcDbEntity
  8
0
  6
Continuous
 62
     7
370
    15
100
AcDbLine
 10
372.7494808195
 20
134.8737850847
 30
0.0
 11
373.9041811136
 21
136.8737854125
 31
0.0
  0
LINE
  5
145
330
1F
100
AcDbEntity
  8
0
  6
Continuous
 62
     7
370
    15
100
AcDbLine
 10
372.7494808195
 20
138.8737857403
 30
0.0
 11
373.9041811136
 21
136.8737854125
 31
0.0
  0
LINE
  5
146
330
1F
100
AcDbEntity
  8
0
  6
Continuous
 62
     7
370
    15
100
AcDbLine
 10
372.7494808195
 20
138.8737857403
 30
0.0
 11
370.4400802312
 21
138.8737857403
 31
0.0
  0
CIRCLE
  5
147
330
1F
100
AcDbEntity
  8
0
  6
Continuous
 62
     7
370
    15
100
AcDbCircle
 10
256.5947803563
 20
136.8737846674
 30
0.0
 40
3.309500000000014
  0
CIRCLE
  5
148
330
1F
100
AcDbEntity
  8
0
  6
Continuous
 62
     7
370
    15
100
AcDbCircle
 10
256.5947803563
 20
136.8737846674
 30
0.0
 40
4.0
  0
LINE
  5
149
330
1F
100
AcDbEntity
  8
0
  6
Continuous
 62
     7
370
    15
100
AcDbLine
 10
255.4400790763
 20
138.8737857403
 30
0.0
 11
254.2853806448
 21
136.8737854125
 31
0.0
  0
LINE
  5
14A
330
1F
100
AcDbEntity
  8
0
  6
Continuous
 62
     7
370
    15
100
AcDbLine
 10
255.4400790763
 20
134.8737850847
 30
0.0
 11
254.2853806448
 21
136.8737854125
 31
0.0
  0
LINE
  5
14B
330
1F
100
AcDbEntity
  8
0
  6
Continuous
 62
     7
370
    15
100
AcDbLine
 10
257.7494833899
 20
134.8737850847
 30
0.0
 11
255.4400790763
 21
134.8737850847
 31
0.0
  0
LINE
  5
14C
330
1F
100
AcDbEntity
  8
0
  6
Continuous
 62
     7
370
    15
100
AcDbLine
 10
257.7494833899
 20
134.8737850847
 30
0.0
 11
258.9041818214
 21
136.8737854125
 31
0.0
  0
LINE
  5
14D
330
1F
100
AcDbEntity
  8
0
  6
Continuous
 62
     7
370
    15
100
AcDbLine
 10
257.7494833899
 20
138.8737857403
 30
0.0
 11
258.9041818214
 21
136.8737854125
 31
0.0
  0
LINE
  5
14E
330
1F
100
AcDbEntity
  8
0
  6
Continuous
 62
     7
370
    15
100
AcDbLine
 10
257.7494833899
 20
138.8737857403
 30
0.0
 11
255.4400790763
 21
138.8737857403
 31
0.0
  0
LINE
  5
14F
330
1F
100
AcDbEntity
  8
0
  6
Continuous
 62
     7
370
    15
100
AcDbLine
 10
232.0947874618
 20
146.8737833263
 30
0.0
 11
232.0947874618
 21
126.8737837733
 31
0.0
  0
LINE
  5
150
330
1F
100
AcDbEntity
  8
0
  6
Continuous
 62
     7
370
    15
100
AcDbLine
 10
231.5947789979
 20
127.3737847866
 30
0.0
 11
231.5947789979
 21
146.3737860383
 31
0.0
  0
LINE
  5
151
330
1F
100
AcDbEntity
  8
0
  6
Continuous
 62
     7
370
    15
100
AcDbLine
 10
396.0947808159
 20
126.8737837733
 30
0.0
 11
396.0947808159
 21
146.8737833263
 31
0.0
  0
LINE
  5
152
330
1F
100
AcDbEntity
  8
0
  6
Continuous
 62
     7
370
    15
100
AcDbLine
 10
396.5947818292
 20
146.3737860383
 30
0.0
 11
396.5947818292
 21
127.3737847866
 31
0.0
  0
SPLINE
  5
153
330
1F
100
AcDbEntity
  8
0
  6
Continuous
 62
     7
370
    15
100
AcDbSpline
210
0.0
220
0.0
230
1.0
 70
     8
 71
     3
 72
    28
 73
    24
 74
     0
 42
0.000000001
 43
0.00000001
 40
0.0
 40
0.0
 40
0.0
 40
0.0
 40
0.0474299439812459
 40
0.0963568273573485
 40
0.1437591092244611
 40
0.1923693608096109
 40
0.2432649199936102
 40
0.2953642660850667
 40
0.3515345008865262
 40
0.4095321297656041
 40
0.453311570441616
 40
0.4983248828815769
 40
0.5421265305454189
 40
0.587221969973248
 40
0.6310453987227626
 40
0.6758229261555616
 40
0.7266616382159391
 40
0.7786859140325293
 40
0.8350484243520029
 40
0.8932761901570621
 40
0.9455876158154046
 40
0.999859940779507
 40
1.0
 40
1.0
 40
1.0
 40
1.0
 10
354.0947804508075
 20
146.8737833263138
 30
0.0
 10
354.1077211935981
 20
146.8512246054992
 30
0.0
 10
354.1340111027624
 20
146.8053951866876
 30
0.0
 10
354.3405847312912
 20
146.4397475734873
 30
0.0
 10
354.6510460424107
 20
145.8706514663918
 30
0.0
 10
355.0544152828887
 20
145.0912880969327
 30
0.0
 10
355.5275137761191
 20
144.1004871083545
 30
0.0
 10
356.044463397222
 20
142.878797554472
 30
0.0
 10
356.5547619203389
 20
141.4246636940162
 30
0.0
 10
356.9472945687572
 20
139.8867124941122
 30
0.0
 10
357.1791768308349
 20
138.3626375922465
 30
0.0
 10
357.2572195256174
 20
136.941203647905
 30
0.0
 10
357.191281580537
 20
135.5042697346747
 30
0.0
 10
356.9920364766891
 20
134.1202368520235
 30
0.0
 10
356.6835789847113
 20
132.8008286092006
 30
0.0
 10
356.2845557739785
 20
131.5243033669443
 30
0.0
 10
355.8140847400205
 20
130.3030759082464
 30
0.0
 10
355.2997067789237
 20
129.1551425888048
 30
0.0
 10
354.8053241743044
 20
128.1656073489713
 30
0.0
 10
354.4031047578424
 20
127.4199530662782
 30
0.0
 10
354.163831309147
 20
126.9939654824139
 30
0.0
 10
354.070422125256
 20
126.8314452378276
 30
0.0
 10
354.0949064857617
 20
126.8740057720064
 30
0.0
 10
354.0949695092902
 20
126.8741153241852
 30
0.0
  0
SPLINE
  5
154
330
1F
100
AcDbEntity
  8
0
  6
Continuous
 62
     7
370
    15
100
AcDbSpline
210
0.0
220
0.0
230
1.0
 70
     8
 71
     3
 72
    28
 73
    24
 74
     0
 42
0.000000001
 43
0.00000001
 40
0.0
 40
0.0
 40
0.0
 40
0.0
 40
0.0474299518941313
 40
0.0963568130396154
 40
0.1437590952561518
 40
0.1923693398824678
 40
0.2432649657590159
 40
0.2953643252102283
 40
0.3515344538432622
 40
0.4095321978101615
 40
0.4533115205869247
 40
0.4983249495357055
 40
0.5421264813165564
 40
0.5872219190927105
 40
0.6310453481652675
 40
0.675822974798007
 40
0.7266616064125689
 40
0.7786858826126536
 40
0.8350483893960428
 40
0.8932761999327806
 40
0.9455875966744917
 40
0.9998599328947027
 40
1.0
 40
1.0
 40
1.0
 40
1.0
 10
389.0947796684966
 20
126.8737837733486
 30
0.0
 10
389.0818394308231
 20
126.8963444451129
 30
0.0
 10
389.0555505561267
 20
126.9421778129411
 30
0.0
 10
388.8489749696971
 20
127.3078180484438
 30
0.0
 10
388.538514029391
 20
127.8769161843374
 30
0.0
 10
388.1351453572141
 20
128.6562784994515
 30
0.0
 10
387.6620487448588
 20
129.6470842852596
 30
0.0
 10
387.1450962610789
 20
130.8687722514897
 30
0.0
 10
386.6347996819447
 20
132.3229050520418
 30
0.0
 10
386.2422653256832
 20
133.8608561739506
 30
0.0
 10
386.0103848754253
 20
135.3849319019758
 30
0.0
 10
385.9323414155317
 20
136.8063647320228
 30
0.0
 10
385.9982792595884
 20
138.2432984921995
 30
0.0
 10
386.1975233900875
 20
139.6273304501001
 30
0.0
 10
386.5059818491487
 20
140.9467388743142
 30
0.0
 10
386.9050028781252
 20
142.2232671345594
 30
0.0
 10
387.3754774282522
 20
143.4444898825715
 30
0.0
 10
387.889853587808
 20
144.5924292278947
 30
0.0
 10
388.3842389154491
 20
145.5819412030153
 30
0.0
 10
388.7864468780697
 20
146.3276836755802
 30
0.0
 10
389.0257560641156
 20
146.7533860445459
 30
0.0
 10
389.1190770165264
 20
146.9166038469115
 30
0.0
 10
389.0946544094267
 20
146.8735625712979
 30
0.0
 10
389.0945915413365
 20
146.8734517754772
 30
0.0
  0
LINE
  5
155
330
1F
100
AcDbEntity
  8
0
  6
Continuous
 62
     7
370
    15
100
AcDbLine
 10
354.0947804508
 20
87.3737846912
 30
0.0
 11
389.0947796685
 21
87.3737846912
 31
0.0
  0
SPLINE
  5
156
330
1F
100
AcDbEntity
  8
0
  6
Continuous
 62
     7
370
    15
100
AcDbSpline
210
0.0
220
0.0
230
1.0
 70
    11
 71
     3
 72
    46
 73
    42
 74
     0
 42
0.000000001
 43
0.00000001
 40
0.0
 40
0.0
 40
0.0
 40
0.0
 40
0.025245402834472
 40
0.0504962325687708
 40
0.0756821995134717
 40
0.1008764402586683
 40
0.1272790198892239
 40
0.1536819997632629
 40
0.1814842225015078
 40
0.2092716716242209
 40
0.2356602619148534
 40
0.2620432362797736
 40
0.2862574871566952
 40
0.310480106477273
 40
0.3352318303917812
 40
0.3599905952534134
 40
0.3869823851853848
 40
0.4139699422265862
 40
0.4416541571353407
 40
0.4693257608429215
 40
0.4951623418290242
 40
0.5209976972480845
 40
0.5454551148923011
 40
0.5699197213541111
 40
0.5951488586476148
 40
0.620384265615155
 40
0.6475307172711267
 40
0.6746717223836892
 40
0.7023006165987554
 40
0.7299140461776065
 40
0.7552992972644259
 40
0.7806863845629023
 40
0.8047481502827988
 40
0.828819070858505
 40
0.8543836163980676
 40
0.8799520280187987
 40
0.907551535410498
 40
0.9351416504248771
 40
0.9623020180007003
 40
0.9894526504356055
 40
0.9999999999999999
 40
0.9999999999999999
 40
0.9999999999999999
 40
0.9999999999999999
 10
371.5947805253134
 20
104.3737847419241
 30
0.0
 10
371.9962409255309
 20
104.3929123736289
 30
0.0
 10
372.7992480262476
 20
104.4311717488264
 30
0.0
 10
373.9671550696334
 20
104.7271280933113
 30
0.0
 10
375.0643935766217
 20
105.1900950517903
 30
0.0
 10
376.0844045867186
 20
105.8253155295523
 30
0.0
 10
376.9978703353536
 20
106.6253154396387
 30
0.0
 10
377.7968239012716
 20
107.5925592217476
 30
0.0
 10
378.4334251626235
 20
108.706818364957
 30
0.0
 10
378.8757886218743
 20
109.9235869627295
 30
0.0
 10
379.0967873084553
 20
111.1869839299707
 30
0.0
 10
379.1084443615244
 20
112.417046733091
 30
0.0
 10
378.9238582489198
 20
113.5935813068336
 30
0.0
 10
378.5756734894044
 20
114.6969743056653
 30
0.0
 10
378.0600954020304
 20
115.731728363341
 30
0.0
 10
377.3734064629642
 20
116.7060270660651
 30
0.0
 10
376.5145039334632
 20
117.579720844703
 30
0.0
 10
375.484092953159
 20
118.329999087477
 30
0.0
 10
374.320659062135
 20
118.8997992625578
 30
0.0
 10
373.0842980229622
 20
119.2621523473252
 30
0.0
 10
371.826483784158
 20
119.4023601527008
 30
0.0
 10
370.6123808245663
 20
119.3421949908468
 30
0.0
 10
369.451043172181
 20
119.0908112013734
 30
0.0
 10
368.3573493380125
 20
118.6733857082031
 30
0.0
 10
367.3404502721523
 20
118.0867373436011
 30
0.0
 10
366.3986473305252
 20
117.3286306691924
 30
0.0
 10
365.5751652567534
 20
116.404963530084
 30
0.0
 10
364.8926683524434
 20
115.32267145918
 30
0.0
 10
364.4015025882601
 20
114.121137536811
 30
0.0
 10
364.1243534949813
 20
112.8694038037273
 30
0.0
 10
364.0680740427057
 20
111.619155074245
 30
0.0
 10
364.2023392487395
 20
110.4333493208937
 30
0.0
 10
364.516346097062
 20
109.312337843861
 30
0.0
 10
364.9901164244806
 20
108.256072444396
 30
0.0
 10
365.6322922468317
 20
107.2739080800472
 30
0.0
 10
366.4535538673987
 20
106.3657114218342
 30
0.0
 10
367.4421331617508
 20
105.5856647863236
 30
0.0
 10
368.5769248651744
 20
104.965984387304
 30
0.0
 10
369.8062886331836
 20
104.5553632763344
 30
0.0
 10
370.8283159847393
 20
104.3894050027921
 30
0.0
 10
371.4272167595327
 20
104.3771996288431
 30
0.0
 10
371.5947805253134
 20
104.3737847419241
 30
0.0
  0
SPLINE
  5
157
330
1F
100
AcDbEntity
  8
0
  6
Continuous
 62
     7
370
    15
100
AcDbSpline
210
0.0
220
0.0
230
1.0
 70
    11
 71
     3
 72
    46
 73
    42
 74
     0
 42
0.000000001
 43
0.00000001
 40
0.0
 40
0.0
 40
0.0
 40
0.0
 40
0.0252453915852828
 40
0.0504962380135968
 40
0.0756821881458684
 40
0.1008764271161464
 40
0.1272790551224007
 40
0.1536820036918108
 40
0.1814842577532976
 40
0.2092717049184022
 40
0.235660254977661
 40
0.2620432274839169
 40
0.2862574766549596
 40
0.3104800573317969
 40
0.3352318483610743
 40
0.3599905802539928
 40
0.3869823682844094
 40
0.4139699683642605
 40
0.4416541813226793
 40
0.4693257613915916
 40
0.4951623405575232
 40
0.5209976901974857
 40
0.5454551224730498
 40
0.5699197272113433
 40
0.5951488435847906
 40
0.6203842967116805
 40
0.6475307180068158
 40
0.6746717212073112
 40
0.702300649178737
 40
0.7299140008232244
 40
0.7552993281906346
 40
0.7806864137006064
 40
0.804748215105244
 40
0.8288191339851687
 40
0.8543836456778192
 40
0.8799520837645725
 40
0.9075515181445236
 40
0.9351416312151961
 40
0.96230203392994
 40
0.9894526524880647
 40
1.0
 40
1.0
 40
1.0
 40
1.0
 10
371.5947805253134
 20
154.3737873496273
 30
0.0
 10
371.9962410754322
 20
154.3929121944994
 30
0.0
 10
372.7992489203844
 20
154.4311660166027
 30
0.0
 10
373.9671540418414
 20
154.7271308513406
 30
0.0
 10
375.0643939330885
 20
155.1900932350415
 30
0.0
 10
376.0844058388923
 20
155.8253143081477
 30
0.0
 10
376.9978684811787
 20
156.6253182147191
 30
0.0
 10
377.7968252398713
 20
157.5925600640583
 30
0.0
 10
378.4334245519053
 20
158.7068208264424
 30
0.0
 10
378.8757884327027
 20
159.9235889248239
 30
0.0
 10
379.0967874621984
 20
161.1869852966513
 30
0.0
 10
379.1084442195454
 20
162.4170474265593
 30
0.0
 10
378.9238587329131
 20
163.5935816508408
 30
0.0
 10
378.5756720975896
 20
164.6969743066208
 30
0.0
 10
378.060097050096
 20
165.7317301547188
 30
0.0
 10
377.3734058006671
 20
166.7060280257818
 30
0.0
 10
376.5145029560741
 20
167.5797213217505
 30
0.0
 10
375.4840940685643
 20
168.3300038281648
 30
0.0
 10
374.3206595939312
 20
168.8998044953242
 30
0.0
 10
373.0842973471726
 20
169.2621525365507
 30
0.0
 10
371.8264840628937
 20
169.4023594522874
 30
0.0
 10
370.6123801591223
 20
169.3422019624618
 30
0.0
 10
369.4510435978833
 20
169.0908106053883
 30
0.0
 10
368.3573499795448
 20
168.6733862936247
 30
0.0
 10
367.3404484420566
 20
168.0867406833354
 30
0.0
 10
366.3986492319355
 20
167.3286290432878
 30
0.0
 10
365.5751645265755
 20
166.4049645030142
 30
0.0
 10
364.8926679490569
 20
165.3226716705844
 30
0.0
 10
364.4015036047037
 20
164.1211379477255
 30
0.0
 10
364.1243528149045
 20
162.8694040862417
 30
0.0
 10
364.0680740755677
 20
161.619155152797
 30
0.0
 10
364.202339440386
 20
160.4333476602821
 30
0.0
 10
364.516345840618
 20
159.3123354481174
 30
0.0
 10
364.9901158151421
 20
158.2560695602981
 30
0.0
 10
365.6322936554953
 20
157.2739070490474
 30
0.0
 10
366.4535515000855
 20
156.3657080497224
 30
0.0
 10
367.4421349926474
 20
155.5856676404256
 30
0.0
 10
368.5769257952819
 20
154.9659885337054
 30
0.0
 10
369.8062871203372
 20
154.5553577284363
 30
0.0
 10
370.828316216194
 20
154.3894048955509
 30
0.0
 10
371.4272167802869
 20
154.3772016436159
 30
0.0
 10
371.5947805253134
 20
154.3737873496273
 30
0.0
  0
LINE
  5
158
330
1F
100
AcDbEntity
  8
0
  6
Continuous
 62
     7
370
    15
100
AcDbLine
 10
389.0947796685
 20
186.3737851443
 30
0.0
 11
354.0947804508
 21
186.3737851443
 31
0.0
  0
LINE
  5
159
330
1F
100
AcDbEntity
  8
0
  6
Continuous
 62
     7
370
    15
100
AcDbLine
 10
388.5947805179
 20
86.8737846674
 30
0.0
 11
354.5947805328
 21
86.8737846674
 31
0.0
  0
LINE
  5
15A
330
1F
100
AcDbEntity
  8
0
  6
Continuous
 62
     7
370
    15
100
AcDbLine
 10
354.5947805328
 20
186.8737861575
 30
0.0
 11
388.5947805179
 21
186.8737861575
 31
0.0
  0
LINE
  5
15B
330
1F
100
AcDbEntity
  8
0
  6
Continuous
 62
     7
370
    15
100
AcDbLine
 10
239.094779296
 20
87.3737846912
 30
0.0
 11
274.0947831703
 21
87.3737846912
 31
0.0
  0
LINE
  5
15C
330
1F
100
AcDbEntity
  8
0
  6
Continuous
 62
     7
370
    15
100
AcDbLine
 10
273.594782157
 20
86.8737846674
 30
0.0
 11
239.5947803092
 21
86.8737846674
 31
0.0
  0
SPLINE
  5
15D
330
1F
100
AcDbEntity
  8
0
  6
Continuous
 62
     7
370
    15
100
AcDbSpline
210
0.0
220
0.0
230
1.0
 70
     8
 71
     3
 72
    28
 73
    24
 74
     0
 42
0.000000001
 43
0.00000001
 40
0.0
 40
0.0
 40
0.0
 40
0.0
 40
0.0474299496608008
 40
0.0963568140383748
 40
0.1437591068121573
 40
0.1923693651051624
 40
0.243264919488412
 40
0.2953642433007043
 40
0.3515345139702616
 40
0.4095321258096205
 40
0.4533115680288182
 40
0.4983248744752833
 40
0.542126515742366
 40
0.5872219684937161
 40
0.6310453966939101
 40
0.6758229235654291
 40
0.7266616434726063
 40
0.7786859014269469
 40
0.8350484228946196
 40
0.8932761974490635
 40
0.945587606127575
 40
0.9998599340126891
 40
1.0
 40
1.0
 40
1.0
 40
1.0
 10
239.0947792959676
 20
146.8737833263138
 30
0.0
 10
239.1077225425549
 20
146.8512246316564
 30
0.0
 10
239.1340175315519
 20
146.8053952778074
 30
0.0
 10
239.3405810990397
 20
146.4397473872999
 30
0.0
 10
239.6510476598752
 20
145.8706515208617
 30
0.0
 10
240.054416743135
 20
145.0912881517581
 30
0.0
 10
240.5275158808138
 20
144.1004874612938
 30
0.0
 10
241.0444600693619
 20
142.8787965242348
 30
0.0
 10
241.5547675857317
 20
141.424664794443
 30
0.0
 10
241.9472935508784
 20
139.8867120529216
 30
0.0
 10
242.1791800249177
 20
138.3626377774865
 30
0.0
 10
242.2572142984334
 20
136.9412036827461
 30
0.0
 10
242.1912867230722
 20
135.5042693251683
 30
0.0
 10
241.9920337137424
 20
134.1202371515613
 30
0.0
 10
241.6835782527144
 20
132.8008285872138
 30
0.0
 10
241.2845545438849
 20
131.5243032078768
 30
0.0
 10
240.8140832456833
 20
130.3030763249424
 30
0.0
 10
240.2997017160441
 20
129.1551421870977
 30
0.0
 10
239.8053464188964
 20
128.1656073570845
 30
0.0
 10
239.4030125408798
 20
127.4199534948465
 30
0.0
 10
239.1641274515252
 20
126.9939644686489
 30
0.0
 10
239.0697608067736
 20
126.831447279111
 30
0.0
 10
239.0949082775516
 20
126.8740057719876
 30
0.0
 10
239.0949730110631
 20
126.8741153241852
 30
0.0
  0
SPLINE
  5
15E
330
1F
100
AcDbEntity
  8
0
  6
Continuous
 62
     7
370
    15
100
AcDbSpline
210
0.0
220
0.0
230
1.0
 70
     8
 71
     3
 72
    28
 73
    24
 74
     0
 42
0.000000001
 43
0.00000001
 40
0.0
 40
0.0
 40
0.0
 40
0.0
 40
0.0474299583067275
 40
0.0963567962383871
 40
0.1437590888401768
 40
0.1923693469568064
 40
0.2432649716355423
 40
0.2953642952587994
 40
0.3515344713328191
 40
0.4095321878344033
 40
0.4533115179486477
 40
0.4983249520432211
 40
0.5421264879914839
 40
0.5872219405792113
 40
0.6310453686203981
 40
0.6758229941993107
 40
0.7266615567452587
 40
0.7786858833517195
 40
0.8350484046148885
 40
0.8932761758645881
 40
0.9455875876995429
 40
0.9998599255235254
 40
1.0
 40
1.0
 40
1.0
 40
1.0
 10
274.0947831702695
 20
126.8737837733486
 30
0.0
 10
274.0818399427484
 20
126.8963444150747
 30
0.0
 10
274.0555450021361
 20
126.94217770769
 30
0.0
 10
273.8489812651234
 20
127.3078182492633
 30
0.0
 10
273.5385148697171
 20
127.8769161835257
 30
0.0
 10
273.135145311591
 20
128.6562784445059
 30
0.0
 10
272.6620469871382
 20
129.6470836519835
 30
0.0
 10
272.1451029047183
 20
130.8687737498603
 30
0.0
 10
271.6347940299943
 20
132.3229034683733
 30
0.0
 10
271.2422686579355
 20
133.8608569451562
 30
0.0
 10
271.0103852203296
 20
135.3849317746512
 30
0.0
 10
270.9323353793268
 20
136.8063647073375
 30
0.0
 10
270.9982793803926
 20
138.2432987370039
 30
0.0
 10
271.1975279114064
 20
139.627330089234
 30
0.0
 10
271.5059844072782
 20
140.9467390661052
 30
0.0
 10
271.9050091349416
 20
142.2232659024192
 30
0.0
 10
272.3754681476206
 20
143.4444918136255
 30
0.0
 10
272.8898630353991
 20
144.5924284819814
 30
0.0
 10
273.3842186413628
 20
145.5819408905673
 30
0.0
 10
273.7865369717001
 20
146.3276837585291
 30
0.0
 10
274.025439320161
 20
146.7533869275026
 30
0.0
 10
274.1198001476751
 20
146.9166015971186
 30
0.0
 10
274.0946541886951
 20
146.8735625713187
 30
0.0
 10
274.0945894551739
 20
146.8734517754772
 30
0.0
  0
SPLINE
  5
15F
330
1F
100
AcDbEntity
  8
0
  6
Continuous
 62
     7
370
    15
100
AcDbSpline
210
0.0
220
0.0
230
1.0
 70
    11
 71
     3
 72
    46
 73
    42
 74
     0
 42
0.000000001
 43
0.00000001
 40
0.0
 40
0.0
 40
0.0
 40
0.0
 40
0.025245539933669
 40
0.0504963327154943
 40
0.07568221155691
 40
0.1008764531305132
 40
0.1272791054719676
 40
0.1536820376799043
 40
0.1814842994030903
 40
0.2092717231760352
 40
0.2356603143343454
 40
0.2620432892512741
 40
0.2862575349430027
 40
0.3104801317149356
 40
0.3352319077181905
 40
0.359990596289583
 40
0.3869823871090659
 40
0.4139699450376396
 40
0.441654264617335
 40
0.4693257760309026
 40
0.4951623190700551
 40
0.5209978119298094
 40
0.5454552398945641
 40
0.5699197206814456
 40
0.5951489420384074
 40
0.6203842829129704
 40
0.6475307449885002
 40
0.6746718044551877
 40
0.7023006648706057
 40
0.729914098481347
 40
0.7552993483725939
 40
0.7806864326320355
 40
0.8047481913394794
 40
0.828819092991927
 40
0.8543836785491935
 40
0.8799520302030777
 40
0.90755163593596
 40
0.9351416758460627
 40
0.9623020167611608
 40
0.9894526500888002
 40
0.9999999999999999
 40
0.9999999999999999
 40
0.9999999999999999
 40
0.9999999999999999
 10
256.5947775078282
 20
104.3737847419241
 30
0.0
 10
256.9962400969212
 20
104.3929122116362
 30
0.0
 10
257.799248807566
 20
104.4311711309197
 30
0.0
 10
258.967156094982
 20
104.7271275211257
 30
0.0
 10
260.0643917759295
 20
105.1900960191114
 30
0.0
 10
261.0844015056844
 20
105.8253170033436
 30
0.0
 10
261.9978726353766
 20
106.6253125146958
 30
0.0
 10
262.7968201705128
 20
107.5925618588978
 30
0.0
 10
263.4334290030808
 20
108.7068162121622
 30
0.0
 10
263.8757849398955
 20
109.9235879778782
 30
0.0
 10
264.0967863511077
 20
111.1869837411168
 30
0.0
 10
264.1084394860038
 20
112.4170467644958
 30
0.0
 10
263.9238552948332
 20
113.5935804735449
 30
0.0
 10
263.5756777654177
 20
114.6969768057258
 30
0.0
 10
263.0600889123025
 20
115.7317246768192
 30
0.0
 10
262.373410638616
 20
116.706029460891
 30
0.0
 10
261.5145057214177
 20
117.5797202221051
 30
0.0
 10
260.4840948186999
 20
118.3300009437346
 30
0.0
 10
259.3206582784854
 20
118.8997968748933
 30
0.0
 10
258.084299078049
 20
119.2621530473345
 30
0.0
 10
256.8264843994215
 20
119.4023601504876
 30
0.0
 10
255.6123799662677
 20
119.3421951085887
 30
0.0
 10
254.4510412344265
 20
119.0908128105064
 30
0.0
 10
253.357350384762
 20
118.6733826001916
 30
0.0
 10
252.3404494555154
 20
118.0867402550272
 30
0.0
 10
251.3986496132593
 20
117.3286289357229
 30
0.0
 10
250.5751680361821
 20
116.4049624701655
 30
0.0
 10
249.8926632201043
 20
115.3226739287954
 30
0.0
 10
249.4015060771306
 20
114.1211361701869
 30
0.0
 10
249.1243525824321
 20
112.8694041280413
 30
0.0
 10
249.0680783017635
 20
111.6191550793037
 30
0.0
 10
249.2023398519214
 20
110.4333493398708
 30
0.0
 10
249.516346551034
 20
109.312338409332
 30
0.0
 10
249.9901124878931
 20
108.2560705641981
 30
0.0
 10
250.632294499787
 20
107.2739109865894
 30
0.0
 10
251.4535499000252
 20
106.3657076220951
 30
0.0
 10
252.4421351504685
 20
105.5856681896611
 30
0.0
 10
253.5769232874425
 20
104.9659833063543
 30
0.0
 10
254.8062861911722
 20
104.555363312003
 30
0.0
 10
255.828312955549
 20
104.3894049939959
 30
0.0
 10
256.4272137394886
 20
104.3771996269201
 30
0.0
 10
256.5947775078282
 20
104.3737847419241
 30
0.0
  0
SPLINE
  5
160
330
1F
100
AcDbEntity
  8
0
  6
Continuous
 62
     7
370
    15
100
AcDbSpline
210
0.0
220
0.0
230
1.0
 70
    11
 71
     3
 72
    46
 73
    42
 74
     0
 42
0.000000001
 43
0.00000001
 40
0.0
 40
0.0
 40
0.0
 40
0.0
 40
0.0252455286845175
 40
0.0504963381603854
 40
0.0756822001893211
 40
0.1008764399880022
 40
0.1272791407050116
 40
0.1536820416082642
 40
0.1814843346546412
 40
0.2092717564699755
 40
0.2356603073969072
 40
0.2620432804551681
 40
0.2862575244410148
 40
0.3104800825691687
 40
0.3352319256870455
 40
0.359990581289628
 40
0.3869823702075524
 40
0.4139699711747736
 40
0.4416542888041222
 40
0.4693257765789503
 40
0.4951623177979309
 40
0.5209978048785949
 40
0.5454552474746874
 40
0.5699197265380579
 40
0.5951489269750165
 40
0.6203843140090592
 40
0.6475307457237571
 40
0.6746718032783702
 40
0.7023006974501925
 40
0.7299140531265723
 40
0.7552993792984153
 40
0.7806864617693491
 40
0.8047482561615446
 40
0.8288191561182089
 40
0.8543837078286052
 40
0.8799520859485804
 40
0.9075516186699524
 40
0.9351416566363502
 40
0.9623020326904059
 40
0.9894526521412609
 40
0.9999999999999999
 40
0.9999999999999999
 40
0.9999999999999999
 40
0.9999999999999999
 10
256.5947775078282
 20
154.3737873496273
 30
0.0
 10
256.996240246824
 20
154.3929120325006
 30
0.0
 10
257.7992497017043
 20
154.4311653986966
 30
0.0
 10
258.9671550671888
 20
154.7271302791449
 30
0.0
 10
260.0643921323995
 20
155.1900942023625
 30
0.0
 10
261.0844027578539
 20
155.825315781938
 30
0.0
 10
261.9978707812057
 20
156.6253152897762
 30
0.0
 10
262.796821509113
 20
157.5925627012084
 30
0.0
 10
263.4334283923654
 20
158.7068186736479
 30
0.0
 10
263.8757847507269
 20
159.9235899399713
 30
0.0
 10
264.0967865048494
 20
161.1869851077975
 30
0.0
 10
264.1084393440246
 20
162.4170474579642
 30
0.0
 10
263.9238557788251
 20
163.5935808175516
 30
0.0
 10
263.5756763736035
 20
164.6969768066778
 30
0.0
 10
263.0600905603653
 20
165.7317264681963
 30
0.0
 10
262.3734099763157
 20
166.7060304206083
 30
0.0
 10
261.5145047440279
 20
167.5797206991522
 30
0.0
 10
260.4840959341077
 20
168.330005684426
 30
0.0
 10
259.3206588102875
 20
168.8998021076699
 30
0.0
 10
258.0842984022571
 20
169.2621532365544
 30
0.0
 10
256.8264846781571
 20
169.4023594500855
 30
0.0
 10
255.6123793008231
 20
169.3422020802064
 30
0.0
 10
254.4510416601265
 20
169.0908122145346
 30
0.0
 10
253.3573510262898
 20
168.6733831856178
 30
0.0
 10
252.3404476254156
 20
168.0867435947638
 30
0.0
 10
251.3986515146705
 20
167.3286273098222
 30
0.0
 10
250.5751673060001
 20
166.4049634430988
 30
0.0
 10
249.8926628167156
 20
165.3226741401998
 30
0.0
 10
249.4015070935676
 20
164.1211365811053
 30
0.0
 10
249.1243519023587
 20
162.8694044105559
 30
0.0
 10
249.0680783346259
 20
161.6191551578563
 30
0.0
 10
249.2023400435666
 20
160.4333476792583
 30
0.0
 10
249.5163462945924
 20
159.3123360135901
 30
0.0
 10
249.9901118785564
 20
158.2560676800996
 30
0.0
 10
250.6322959084504
 20
157.2739099555893
 30
0.0
 10
251.4535475327203
 20
156.365704249984
 30
0.0
 10
252.4421369813522
 20
155.5856710437577
 30
0.0
 10
253.57692421755
 20
154.965987452749
 30
0.0
 10
254.8062846783239
 20
154.5553577641041
 30
0.0
 10
255.8283131870039
 20
154.3894048867551
 30
0.0
 10
256.4272137602428
 20
154.3772016416929
 30
0.0
 10
256.5947775078282
 20
154.3737873496273
 30
0.0
  0
LINE
  5
161
330
1F
100
AcDbEntity
  8
0
  6
Continuous
 62
     7
370
    15
100
AcDbLine
 10
274.0947831703
 20
186.3737851443
 30
0.0
 11
239.094779296
 21
186.3737851443
 31
0.0
  0
LINE
  5
162
330
1F
100
AcDbEntity
  8
0
  6
Continuous
 62
     7
370
    15
100
AcDbLine
 10
239.5947803092
 20
186.8737861575
 30
0.0
 11
273.594782157
 21
186.8737861575
 31
0.0
  0
CIRCLE
  5
163
330
1F
100
AcDbEntity
  8
0
  6
Continuous
 62
     7
370
    15
100
AcDbCircle
 10
256.5947803563
 20
161.8737846674
 30
0.0
 40
5.699999999999982
  0
CIRCLE
  5
164
330
1F
100
AcDbEntity
  8
0
  6
Continuous
 62
     7
370
    15
100
AcDbCircle
 10
256.5947803563
 20
161.8737846674
 30
0.0
 40
6.499999999999993
  0
LINE
  5
165
330
1F
100
AcDbEntity
  8
0
  6
Continuous
 62
     7
370
    15
100
AcDbLine
 10
255.9916679097
 20
165.2967035832
 30
0.0
 11
253.328890009
 21
163.0629375638
 31
0.0
  0
LINE
  5
166
330
1F
100
AcDbEntity
  8
0
  6
Continuous
 62
     7
370
    15
100
AcDbLine
 10
253.328890009
 20
163.0629375638
 30
0.0
 11
253.9319996071
 21
159.6400141777
 31
0.0
  0
LINE
  5
167
330
1F
100
AcDbEntity
  8
0
  6
Continuous
 62
     7
370
    15
100
AcDbLine
 10
257.1978945566
 20
158.4508642616
 30
0.0
 11
253.9319996071
 21
159.6400141777
 31
0.0
  0
LINE
  5
168
330
1F
100
AcDbEntity
  8
0
  6
Continuous
 62
     7
370
    15
100
AcDbLine
 10
259.8606724573
 20
160.6846302809
 30
0.0
 11
257.1978945566
 21
158.4508642616
 31
0.0
  0
LINE
  5
169
330
1F
100
AcDbEntity
  8
0
  6
Continuous
 62
     7
370
    15
100
AcDbLine
 10
259.8606724573
 20
160.6846302809
 30
0.0
 11
259.2575628591
 21
164.107553667
 31
0.0
  0
LINE
  5
16A
330
1F
100
AcDbEntity
  8
0
  6
Continuous
 62
     7
370
    15
100
AcDbLine
 10
255.9916679097
 20
165.2967035832
 30
0.0
 11
259.2575628591
 21
164.107553667
 31
0.0
  0
ARC
  5
16B
330
1F
100
AcDbEntity
  8
0
  6
Continuous
 62
     7
370
    15
100
AcDbCircle
 10
256.5947803563
 20
161.8737846674
 30
0.0
 40
3.01
100
AcDbArc
 50
309.9928164897
 51
9.9928164897
  0
ARC
  5
16C
330
1F
100
AcDbEntity
  8
0
  6
Continuous
 62
     7
370
    15
100
AcDbCircle
 10
256.5947803563
 20
161.8737846674
 30
0.0
 40
3.01
100
AcDbArc
 50
249.9928164897
 51
309.9928164897
  0
ARC
  5
16D
330
1F
100
AcDbEntity
  8
0
  6
Continuous
 62
     7
370
    15
100
AcDbCircle
 10
256.5947803563
 20
161.8737846674
 30
0.0
 40
3.009999999999992
100
AcDbArc
 50
189.9928164897
 51
249.9928164897
  0
ARC
  5
16E
330
1F
100
AcDbEntity
  8
0
  6
Continuous
 62
     7
370
    15
100
AcDbCircle
 10
256.5947803563
 20
161.8737846674
 30
0.0
 40
3.010000000000022
100
AcDbArc
 50
129.9928164897
 51
189.9928164897
  0
ARC
  5
16F
330
1F
100
AcDbEntity
  8
0
  6
Continuous
 62
     7
370
    15
100
AcDbCircle
 10
256.5947803563
 20
161.8737846674
 30
0.0
 40
3.010000000000022
100
AcDbArc
 50
69.9928164897
 51
129.9928164897
  0
ARC
  5
170
330
1F
100
AcDbEntity
  8
0
  6
Continuous
 62
     7
370
    15
100
AcDbCircle
 10
256.5947803563
 20
161.8737846674
 30
0.0
 40
3.010000000000019
100
AcDbArc
 50
9.9928164897
 51
69.9928164897
  0
CIRCLE
  5
171
330
1F
100
AcDbEntity
  8
0
  6
Continuous
 62
     7
370
    15
100
AcDbCircle
 10
371.5947803563
 20
161.8737846674
 30
0.0
 40
5.7
  0
CIRCLE
  5
172
330
1F
100
AcDbEntity
  8
0
  6
Continuous
 62
     7
370
    15
100
AcDbCircle
 10
371.5947803563
 20
161.8737846674
 30
0.0
 40
6.500000000000022
  0
LINE
  5
173
330
1F
100
AcDbEntity
  8
0
  6
Continuous
 62
     7
370
    15
100
AcDbLine
 10
371.1819941459
 20
158.4227383198
 30
0.0
 11
374.3770834339
 21
159.7907766761
 31
0.0
  0
LINE
  5
174
330
1F
100
AcDbEntity
  8
0
  6
Continuous
 62
     7
370
    15
100
AcDbLine
 10
374.3770834339
 20
159.7907766761
 30
0.0
 11
374.7898698134
 21
163.241826004
 31
0.0
  0
LINE
  5
175
330
1F
100
AcDbEntity
  8
0
  6
Continuous
 62
     7
370
    15
100
AcDbLine
 10
372.0075669048
 20
165.3248369755
 30
0.0
 11
374.7898698134
 21
163.241826004
 31
0.0
  0
LINE
  5
176
330
1F
100
AcDbEntity
  8
0
  6
Continuous
 62
     7
370
    15
100
AcDbLine
 10
368.8124776167
 20
163.9567911686
 30
0.0
 11
372.0075669048
 21
165.3248369755
 31
0.0
  0
LINE
  5
177
330
1F
100
AcDbEntity
  8
0
  6
Continuous
 62
     7
370
    15
100
AcDbLine
 10
368.8124776167
 20
163.9567911686
 30
0.0
 11
368.3996907716
 21
160.5057418408
 31
0.0
  0
LINE
  5
178
330
1F
100
AcDbEntity
  8
0
  6
Continuous
 62
     7
370
    15
100
AcDbLine
 10
371.1819941459
 20
158.4227383198
 30
0.0
 11
368.3996907716
 21
160.5057418408
 31
0.0
  0
ARC
  5
179
330
1F
100
AcDbEntity
  8
0
  6
Continuous
 62
     7
370
    15
100
AcDbCircle
 10
371.5947803563
 20
161.8737846674
 30
0.0
 40
3.010000000000035
100
AcDbArc
 50
173.1791466708
 51
233.1791466708
  0
ARC
  5
17A
330
1F
100
AcDbEntity
  8
0
  6
Continuous
 62
     7
370
    15
100
AcDbCircle
 10
371.5947803563
 20
161.8737846674
 30
0.0
 40
3.010000000000035
100
AcDbArc
 50
113.1791466708
 51
173.1791466708
  0
ARC
  5
17B
330
1F
100
AcDbEntity
  8
0
  6
Continuous
 62
     7
370
    15
100
AcDbCircle
 10
371.5947803563
 20
161.8737846674
 30
0.0
 40
3.010000000000008
100
AcDbArc
 50
53.1791466708
 51
113.1791466708
  0
ARC
  5
17C
330
1F
100
AcDbEntity
  8
0
  6
Continuous
 62
     7
370
    15
100
AcDbCircle
 10
371.5947803563
 20
161.8737846674
 30
0.0
 40
3.009999999999986
100
AcDbArc
 50
353.1791466708
 51
53.1791466708
  0
ARC
  5
17D
330
1F
100
AcDbEntity
  8
0
  6
Continuous
 62
     7
370
    15
100
AcDbCircle
 10
371.5947803563
 20
161.8737846674
 30
0.0
 40
3.009999999999986
100
AcDbArc
 50
293.1791466708
 51
353.1791466708
  0
ARC
  5
17E
330
1F
100
AcDbEntity
  8
0
  6
Continuous
 62
     7
370
    15
100
AcDbCircle
 10
371.5947803563
 20
161.8737846674
 30
0.0
 40
3.010000000000018
100
AcDbArc
 50
233.1791466708
 51
293.1791466708
  0
CIRCLE
  5
17F
330
1F
100
AcDbEntity
  8
0
  6
Continuous
 62
     7
370
    15
100
AcDbCircle
 10
256.5947803563
 20
111.8737846674
 30
0.0
 40
5.69999999999998
  0
CIRCLE
  5
180
330
1F
100
AcDbEntity
  8
0
  6
Continuous
 62
     7
370
    15
100
AcDbCircle
 10
256.5947803563
 20
111.8737846674
 30
0.0
 40
6.499999999999988
  0
LINE
  5
181
330
1F
100
AcDbEntity
  8
0
  6
Continuous
 62
     7
370
    15
100
AcDbLine
 10
255.7782609296
 20
115.2521614047
 30
0.0
 11
253.2607619
 21
112.8558442058
 31
0.0
  0
LINE
  5
182
330
1F
100
AcDbEntity
  8
0
  6
Continuous
 62
     7
370
    15
100
AcDbLine
 10
253.2607619
 20
112.8558442058
 30
0.0
 11
254.0772784782
 21
109.4774678411
 31
0.0
  0
LINE
  5
183
330
1F
100
AcDbEntity
  8
0
  6
Continuous
 62
     7
370
    15
100
AcDbLine
 10
257.4113015366
 20
108.4954086752
 30
0.0
 11
254.0772784782
 21
109.4774678411
 31
0.0
  0
LINE
  5
184
330
1F
100
AcDbEntity
  8
0
  6
Continuous
 62
     7
370
    15
100
AcDbLine
 10
259.9288005662
 20
110.8917258741
 30
0.0
 11
257.4113015366
 21
108.4954086752
 31
0.0
  0
LINE
  5
185
330
1F
100
AcDbEntity
  8
0
  6
Continuous
 62
     7
370
    15
100
AcDbLine
 10
259.9288005662
 20
110.8917258741
 30
0.0
 11
259.1122765375
 21
114.2701022388
 31
0.0
  0
LINE
  5
186
330
1F
100
AcDbEntity
  8
0
  6
Continuous
 62
     7
370
    15
100
AcDbLine
 10
255.7782609296
 20
115.2521614047
 30
0.0
 11
259.1122765375
 21
114.2701022388
 31
0.0
  0
ARC
  5
187
330
1F
100
AcDbEntity
  8
0
  6
Continuous
 62
     7
370
    15
100
AcDbCircle
 10
256.5947803563
 20
111.8737846674
 30
0.0
 40
3.010000000000026
100
AcDbArc
 50
313.5872929349
 51
13.5872929349
  0
ARC
  5
188
330
1F
100
AcDbEntity
  8
0
  6
Continuous
 62
     7
370
    15
100
AcDbCircle
 10
256.5947803563
 20
111.8737846674
 30
0.0
 40
3.009999999999995
100
AcDbArc
 50
253.5872929349
 51
313.5872929349
  0
ARC
  5
189
330
1F
100
AcDbEntity
  8
0
  6
Continuous
 62
     7
370
    15
100
AcDbCircle
 10
256.5947803563
 20
111.8737846674
 30
0.0
 40
3.010000000000022
100
AcDbArc
 50
193.5872929349
 51
253.5872929349
  0
ARC
  5
18A
330
1F
100
AcDbEntity
  8
0
  6
Continuous
 62
     7
370
    15
100
AcDbCircle
 10
256.5947803563
 20
111.8737846674
 30
0.0
 40
3.010000000000022
100
AcDbArc
 50
133.5872929349
 51
193.5872929349
  0
ARC
  5
18B
330
1F
100
AcDbEntity
  8
0
  6
Continuous
 62
     7
370
    15
100
AcDbCircle
 10
256.5947803563
 20
111.8737846674
 30
0.0
 40
3.010000000000003
100
AcDbArc
 50
73.5872929349
 51
133.5872929349
  0
ARC
  5
18C
330
1F
100
AcDbEntity
  8
0
  6
Continuous
 62
     7
370
    15
100
AcDbCircle
 10
256.5947803563
 20
111.8737846674
 30
0.0
 40
3.010000000000026
100
AcDbArc
 50
13.5872929349
 51
73.5872929349
  0
CIRCLE
  5
18D
330
1F
100
AcDbEntity
  8
0
  6
Continuous
 62
     7
370
    15
100
AcDbCircle
 10
371.5947803563
 20
111.8737846674
 30
0.0
 40
5.699999999999989
  0
CIRCLE
  5
18E
330
1F
100
AcDbEntity
  8
0
  6
Continuous
 62
     7
370
    15
100
AcDbCircle
 10
371.5947803563
 20
111.8737846674
 30
0.0
 40
6.499999999999943
  0
LINE
  5
18F
330
1F
100
AcDbEntity
  8
0
  6
Continuous
 62
     7
370
    15
100
AcDbLine
 10
371.5947805253
 20
115.3494324596
 30
0.0
 11
368.5847804231
 21
113.6116087498
 31
0.0
  0
LINE
  5
190
330
1F
100
AcDbEntity
  8
0
  6
Continuous
 62
     7
370
    15
100
AcDbLine
 10
368.5847804231
 20
113.6116087498
 30
0.0
 11
368.5847804231
 21
110.1359594675
 31
0.0
  0
LINE
  5
191
330
1F
100
AcDbEntity
  8
0
  6
Continuous
 62
     7
370
    15
100
AcDbLine
 10
371.5947805253
 20
108.3981357576
 30
0.0
 11
368.5847804231
 21
110.1359594675
 31
0.0
  0
LINE
  5
192
330
1F
100
AcDbEntity
  8
0
  6
Continuous
 62
     7
370
    15
100
AcDbLine
 10
374.6047806275
 20
110.1359594675
 30
0.0
 11
371.5947805253
 21
108.3981357576
 31
0.0
  0
LINE
  5
193
330
1F
100
AcDbEntity
  8
0
  6
Continuous
 62
     7
370
    15
100
AcDbLine
 10
374.6047806275
 20
110.1359594675
 30
0.0
 11
374.6047806275
 21
113.6116087498
 31
0.0
  0
LINE
  5
194
330
1F
100
AcDbEntity
  8
0
  6
Continuous
 62
     7
370
    15
100
AcDbLine
 10
371.5947805253
 20
115.3494324596
 30
0.0
 11
374.6047806275
 21
113.6116087498
 31
0.0
  0
ARC
  5
195
330
1F
100
AcDbEntity
  8
0
  6
Continuous
 62
     7
370
    15
100
AcDbCircle
 10
371.5947803563
 20
111.8737846674
 30
0.0
 40
3.00999999999999
100
AcDbArc
 50
300.0
 51
0.0
  0
ARC
  5
196
330
1F
100
AcDbEntity
  8
0
  6
Continuous
 62
     7
370
    15
100
AcDbCircle
 10
371.5947803563
 20
111.8737846674
 30
0.0
 40
3.01000000000003
100
AcDbArc
 50
240.0
 51
300.0
  0
ARC
  5
197
330
1F
100
AcDbEntity
  8
0
  6
Continuous
 62
     7
370
    15
100
AcDbCircle
 10
371.5947803563
 20
111.8737846674
 30
0.0
 40
3.010000000000048
100
AcDbArc
 50
180.0
 51
240.0
  0
ARC
  5
198
330
1F
100
AcDbEntity
  8
0
  6
Continuous
 62
     7
370
    15
100
AcDbCircle
 10
371.5947803563
 20
111.8737846674
 30
0.0
 40
3.010000000000048
100
AcDbArc
 50
120.0
 51
180.0
  0
ARC
  5
199
330
1F
100
AcDbEntity
  8
0
  6
Continuous
 62
     7
370
    15
100
AcDbCircle
 10
371.5947803563
 20
111.8737846674
 30
0.0
 40
3.01000000000003
100
AcDbArc
 50
60.0
 51
120.0
  0
ARC
  5
19A
330
1F
100
AcDbEntity
  8
0
  6
Continuous
 62
     7
370
    15
100
AcDbCircle
 10
371.5947803563
 20
111.8737846674
 30
0.0
 40
3.010000000000002
100
AcDbArc
 50
0.0
 51
60.0
  0
LINE
  5
19B
330
1F
100
AcDbEntity
  8
0
  6
Continuous
 62
     7
370
    15
100
AcDbLine
 10
-26.0920805047
 20
235.4401263006
 30
0.0
 11
-26.592081518
 21
234.9401290126
 31
0.0
  0
LINE
  5
19C
330
1F
100
AcDbEntity
  8
0
  6
Continuous
 62
     7
370
    15
100
AcDbLine
 10
-26.592081518
 20
215.9401277609
 30
0.0
 11
-26.0920805047
 21
215.4401267476
 31
0.0
  0
LINE
  5
19D
330
1F
100
AcDbEntity
  8
0
  6
Continuous
 62
     7
370
    15
100
AcDbLine
 10
137.9079128494
 20
215.4401267476
 30
0.0
 11
138.4079213132
 21
215.9401277609
 31
0.0
  0
LINE
  5
19E
330
1F
100
AcDbEntity
  8
0
  6
Continuous
 62
     7
370
    15
100
AcDbLine
 10
138.4079213132
 20
234.9401290126
 30
0.0
 11
137.9079128494
 21
235.4401263006
 31
0.0
  0
LINE
  5
19F
330
1F
100
AcDbEntity
  8
0
  6
Continuous
 62
     7
370
    15
100
AcDbLine
 10
137.9079128494
 20
235.4401263006
 30
0.0
 11
127.7693266858
 21
235.4401263006
 31
0.0
  0
LINE
  5
1A0
330
1F
100
AcDbEntity
  8
0
  6
Continuous
 62
     7
370
    15
100
AcDbLine
 10
99.0465114702
 20
235.4401263006
 30
0.0
 11
12.7693264623
 21
235.4401263006
 31
0.0
  0
LINE
  5
1A1
330
1F
100
AcDbEntity
  8
0
  6
Continuous
 62
     7
370
    15
100
AcDbLine
 10
-15.9534868906
 20
235.4401263006
 30
0.0
 11
-26.0920805047
 21
235.4401263006
 31
0.0
  0
LINE
  5
1A2
330
1F
100
AcDbEntity
  8
0
  6
Continuous
 62
     7
370
    15
100
AcDbLine
 10
-26.0920805047
 20
215.4401267476
 30
0.0
 11
-15.9534868906
 21
215.4401267476
 31
0.0
  0
LINE
  5
1A3
330
1F
100
AcDbEntity
  8
0
  6
Continuous
 62
     7
370
    15
100
AcDbLine
 10
12.7693264623
 20
215.4401267476
 30
0.0
 11
99.0465114702
 21
215.4401267476
 31
0.0
  0
LINE
  5
1A4
330
1F
100
AcDbEntity
  8
0
  6
Continuous
 62
     7
370
    15
100
AcDbLine
 10
127.7693266858
 20
215.4401267476
 30
0.0
 11
137.9079128494
 21
215.4401267476
 31
0.0
  0
LINE
  5
1A5
330
1F
100
AcDbEntity
  8
0
  6
Continuous
 62
     7
370
    15
100
AcDbLine
 10
95.9079171409
 20
263.9401281781
 30
0.0
 11
95.9079171409
 21
263.1401295371
 31
0.0
  0
LINE
  5
1A6
330
1F
100
AcDbEntity
  8
0
  6
Continuous
 62
     7
370
    15
100
AcDbLine
 10
130.9079210152
 20
263.1401295371
 30
0.0
 11
130.9079210152
 21
263.9401281781
 31
0.0
  0
LINE
  5
1A7
330
1F
100
AcDbEntity
  8
0
  6
Continuous
 62
     7
370
    15
100
AcDbLine
 10
95.9079171409
 20
263.1401295371
 30
0.0
 11
96.1079205264
 21
262.9401261516
 31
0.0
  0
LINE
  5
1A8
330
1F
100
AcDbEntity
  8
0
  6
Continuous
 62
     7
370
    15
100
AcDbLine
 10
130.7079176296
 20
262.9401261516
 30
0.0
 11
130.9079210152
 21
263.1401295371
 31
0.0
  0
LINE
  5
1A9
330
1F
100
AcDbEntity
  8
0
  6
Continuous
 62
     7
370
    15
100
AcDbLine
 10
130.9079210152
 20
263.9401281781
 30
0.0
 11
128.9079169621
 21
265.9401247807
 31
0.0
  0
LINE
  5
1AA
330
1F
100
AcDbEntity
  8
0
  6
Continuous
 62
     7
370
    15
100
AcDbLine
 10
97.907921194
 20
265.9401247807
 30
0.0
 11
95.9079171409
 21
263.9401281781
 31
0.0
  0
LINE
  5
1AB
330
1F
100
AcDbEntity
  8
0
  6
Continuous
 62
     7
370
    15
100
AcDbLine
 10
105.407921492
 20
251.1401275702
 30
0.0
 11
105.607917427
 21
250.9401279099
 31
0.0
  0
LINE
  5
1AC
330
1F
100
AcDbEntity
  8
0
  6
Continuous
 62
     7
370
    15
100
AcDbLine
 10
121.2079207291
 20
250.9401279099
 30
0.0
 11
121.4079166641
 21
251.1401275702
 31
0.0
  0
LINE
  5
1AD
330
1F
100
AcDbEntity
  8
0
  6
Continuous
 62
     7
370
    15
100
AcDbLine
 10
105.407921492
 20
257.9401271946
 30
0.0
 11
105.407921492
 21
251.1401275702
 31
0.0
  0
LINE
  5
1AE
330
1F
100
AcDbEntity
  8
0
  6
Continuous
 62
     7
370
    15
100
AcDbLine
 10
121.4079166641
 20
251.1401275702
 30
0.0
 11
121.4079166641
 21
257.9401271946
 31
0.0
  0
LINE
  5
1AF
330
1F
100
AcDbEntity
  8
0
  6
Continuous
 62
     7
370
    15
100
AcDbLine
 10
-19.0920793573
 20
263.1401295371
 30
0.0
 11
-18.8920796971
 21
262.9401261516
 31
0.0
  0
LINE
  5
1B0
330
1F
100
AcDbEntity
  8
0
  6
Continuous
 62
     7
370
    15
100
AcDbLine
 10
15.7079197344
 20
262.9401261516
 30
0.0
 11
15.9079198604
 21
263.1401295371
 31
0.0
  0
LINE
  5
1B1
330
1F
100
AcDbEntity
  8
0
  6
Continuous
 62
     7
370
    15
100
AcDbLine
 10
-19.0920793573
 20
263.9401281781
 30
0.0
 11
-19.0920793573
 21
263.1401295371
 31
0.0
  0
LINE
  5
1B2
330
1F
100
AcDbEntity
  8
0
  6
Continuous
 62
     7
370
    15
100
AcDbLine
 10
15.9079198604
 20
263.1401295371
 30
0.0
 11
15.9079198604
 21
263.9401281781
 31
0.0
  0
LINE
  5
1B3
330
1F
100
AcDbEntity
  8
0
  6
Continuous
 62
     7
370
    15
100
AcDbLine
 10
15.9079198604
 20
263.9401281781
 30
0.0
 11
13.9079199982
 21
265.9401247807
 31
0.0
  0
LINE
  5
1B4
330
1F
100
AcDbEntity
  8
0
  6
Continuous
 62
     7
370
    15
100
AcDbLine
 10
-17.0920808922
 20
265.9401247807
 30
0.0
 11
-19.0920793573
 21
263.9401281781
 31
0.0
  0
LINE
  5
1B5
330
1F
100
AcDbEntity
  8
0
  6
Continuous
 62
     7
370
    15
100
AcDbLine
 10
-9.5920805941
 20
251.1401275702
 30
0.0
 11
-9.3920809339
 21
250.9401279099
 31
0.0
  0
LINE
  5
1B6
330
1F
100
AcDbEntity
  8
0
  6
Continuous
 62
     7
370
    15
100
AcDbLine
 10
6.2079200399
 20
250.9401279099
 30
0.0
 11
6.407919933
 21
251.1401275702
 31
0.0
  0
LINE
  5
1B7
330
1F
100
AcDbEntity
  8
0
  6
Continuous
 62
     7
370
    15
100
AcDbLine
 10
-9.5920805941
 20
257.9401271946
 30
0.0
 11
-9.5920805941
 21
251.1401275702
 31
0.0
  0
LINE
  5
1B8
330
1F
100
AcDbEntity
  8
0
  6
Continuous
 62
     7
370
    15
100
AcDbLine
 10
6.407919933
 20
251.1401275702
 30
0.0
 11
6.407919933
 21
257.9401271946
 31
0.0
  0
LINE
  5
1B9
330
1F
100
AcDbEntity
  8
0
  6
Continuous
 62
     7
370
    15
100
AcDbLine
 10
130.9079210152
 20
245.940128953
 30
0.0
 11
130.9079210152
 21
246.9401272543
 31
0.0
  0
LINE
  5
1BA
330
1F
100
AcDbEntity
  8
0
  6
Continuous
 62
     7
370
    15
100
AcDbLine
 10
95.9079171409
 20
246.9401272543
 30
0.0
 11
95.9079171409
 21
245.940128953
 31
0.0
  0
LINE
  5
1BB
330
1F
100
AcDbEntity
  8
0
  6
Continuous
 62
     7
370
    15
100
AcDbLine
 10
123.4079207172
 20
246.9401272543
 30
0.0
 11
123.4079207172
 21
250.9401279099
 31
0.0
  0
LINE
  5
1BC
330
1F
100
AcDbEntity
  8
0
  6
Continuous
 62
     7
370
    15
100
AcDbLine
 10
103.4079174389
 20
250.9401279099
 30
0.0
 11
103.4079174389
 21
246.9401272543
 31
0.0
  0
LINE
  5
1BD
330
1F
100
AcDbEntity
  8
0
  6
Continuous
 62
     7
370
    15
100
AcDbLine
 10
-19.0920793573
 20
262.9401261516
 30
0.0
 11
-19.0920793573
 21
261.9401278503
 31
0.0
  0
LINE
  5
1BE
330
1F
100
AcDbEntity
  8
0
  6
Continuous
 62
     7
370
    15
100
AcDbLine
 10
15.9079198604
 20
261.9401278503
 30
0.0
 11
15.9079198604
 21
262.9401261516
 31
0.0
  0
LINE
  5
1BF
330
1F
100
AcDbEntity
  8
0
  6
Continuous
 62
     7
370
    15
100
AcDbLine
 10
-11.592080922
 20
261.9401278503
 30
0.0
 11
-11.592080922
 21
257.9401271946
 31
0.0
  0
LINE
  5
1C0
330
1F
100
AcDbEntity
  8
0
  6
Continuous
 62
     7
370
    15
100
AcDbLine
 10
8.4079199552
 20
257.9401271946
 30
0.0
 11
8.4079199552
 21
261.9401278503
 31
0.0
  0
LINE
  5
1C1
330
1F
100
AcDbEntity
  8
0
  6
Continuous
 62
     7
370
    15
100
AcDbLine
 10
15.9079198604
 20
245.940128953
 30
0.0
 11
15.9079198604
 21
246.9401272543
 31
0.0
  0
LINE
  5
1C2
330
1F
100
AcDbEntity
  8
0
  6
Continuous
 62
     7
370
    15
100
AcDbLine
 10
-19.0920793573
 20
246.9401272543
 30
0.0
 11
-19.0920793573
 21
245.940128953
 31
0.0
  0
LINE
  5
1C3
330
1F
100
AcDbEntity
  8
0
  6
Continuous
 62
     7
370
    15
100
AcDbLine
 10
8.4079199552
 20
246.9401272543
 30
0.0
 11
8.4079199552
 21
250.9401279099
 31
0.0
  0
LINE
  5
1C4
330
1F
100
AcDbEntity
  8
0
  6
Continuous
 62
     7
370
    15
100
AcDbLine
 10
-11.592080922
 20
250.9401279099
 30
0.0
 11
-11.592080922
 21
246.9401272543
 31
0.0
  0
LINE
  5
1C5
330
1F
100
AcDbEntity
  8
0
  6
Continuous
 62
     7
370
    15
100
AcDbLine
 10
95.9079171409
 20
262.9401261516
 30
0.0
 11
95.9079171409
 21
261.9401278503
 31
0.0
  0
LINE
  5
1C6
330
1F
100
AcDbEntity
  8
0
  6
Continuous
 62
     7
370
    15
100
AcDbLine
 10
130.9079210152
 20
261.9401278503
 30
0.0
 11
130.9079210152
 21
262.9401261516
 31
0.0
  0
LINE
  5
1C7
330
1F
100
AcDbEntity
  8
0
  6
Continuous
 62
     7
370
    15
100
AcDbLine
 10
103.4079174389
 20
261.9401278503
 30
0.0
 11
103.4079174389
 21
257.9401271946
 31
0.0
  0
LINE
  5
1C8
330
1F
100
AcDbEntity
  8
0
  6
Continuous
 62
     7
370
    15
100
AcDbLine
 10
123.4079207172
 20
257.9401271946
 30
0.0
 11
123.4079207172
 21
261.9401278503
 31
0.0
  0
LINE
  5
1C9
330
1F
100
AcDbEntity
  8
0
  6
Continuous
 62
     7
370
    15
100
AcDbLine
 10
95.9079171409
 20
245.940128953
 30
0.0
 11
95.9079171409
 21
243.9401286252
 31
0.0
  0
LINE
  5
1CA
330
1F
100
AcDbEntity
  8
0
  6
Continuous
 62
     7
370
    15
100
AcDbLine
 10
130.9079210152
 20
243.9401286252
 30
0.0
 11
130.9079210152
 21
245.940128953
 31
0.0
  0
LINE
  5
1CB
330
1F
100
AcDbEntity
  8
0
  6
Continuous
 62
     7
370
    15
100
AcDbLine
 10
104.9079204788
 20
243.9401286252
 30
0.0
 11
105.9079225053
 21
242.9401265986
 31
0.0
  0
LINE
  5
1CC
330
1F
100
AcDbEntity
  8
0
  6
Continuous
 62
     7
370
    15
100
AcDbLine
 10
120.9079231014
 20
242.9401265986
 30
0.0
 11
121.9079176773
 21
243.9401286252
 31
0.0
  0
LINE
  5
1CD
330
1F
100
AcDbEntity
  8
0
  6
Continuous
 62
     7
370
    15
100
AcDbLine
 10
105.9079225053
 20
242.9401265986
 30
0.0
 11
105.9079225053
 21
241.2515158362
 31
0.0
  0
LINE
  5
1CE
330
1F
100
AcDbEntity
  8
0
  6
Continuous
 62
     7
370
    15
100
AcDbLine
 10
120.9079231014
 20
241.2515158362
 30
0.0
 11
120.9079231014
 21
242.9401265986
 31
0.0
  0
LINE
  5
1CF
330
1F
100
AcDbEntity
  8
0
  6
Continuous
 62
     7
370
    15
100
AcDbLine
 10
-19.0920793573
 20
245.940128953
 30
0.0
 11
-19.0920793573
 21
243.9401286252
 31
0.0
  0
LINE
  5
1D0
330
1F
100
AcDbEntity
  8
0
  6
Continuous
 62
     7
370
    15
100
AcDbLine
 10
15.9079198604
 20
243.9401286252
 30
0.0
 11
15.9079198604
 21
245.940128953
 31
0.0
  0
LINE
  5
1D1
330
1F
100
AcDbEntity
  8
0
  6
Continuous
 62
     7
370
    15
100
AcDbLine
 10
-10.0920797448
 20
243.9401286252
 30
0.0
 11
-9.0920795809
 21
242.9401265986
 31
0.0
  0
LINE
  5
1D2
330
1F
100
AcDbEntity
  8
0
  6
Continuous
 62
     7
370
    15
100
AcDbLine
 10
5.907919851
 20
242.9401265986
 30
0.0
 11
6.9079198985
 21
243.9401286252
 31
0.0
  0
LINE
  5
1D3
330
1F
100
AcDbEntity
  8
0
  6
Continuous
 62
     7
370
    15
100
AcDbLine
 10
-9.0920795809
 20
242.9401265986
 30
0.0
 11
-9.0920795809
 21
241.2515158362
 31
0.0
  0
LINE
  5
1D4
330
1F
100
AcDbEntity
  8
0
  6
Continuous
 62
     7
370
    15
100
AcDbLine
 10
5.907919851
 20
241.2515158362
 30
0.0
 11
5.907919851
 21
242.9401265986
 31
0.0
  0
ARC
  5
1D5
330
1F
100
AcDbEntity
  8
0
  6
Continuous
 62
     7
370
    15
100
AcDbCircle
 10
119.1079199549
 20
207.7401272244
 30
0.0
 40
0.7999999999999972
100
AcDbArc
 50
270.0
 51
0.0
  0
ARC
  5
1D6
330
1F
100
AcDbEntity
  8
0
  6
Continuous
 62
     7
370
    15
100
AcDbCircle
 10
107.7079199549
 20
207.7401272244
 30
0.0
 40
0.7999999999999972
100
AcDbArc
 50
180.0
 51
270.0
  0
LINE
  5
1D7
330
1F
100
AcDbEntity
  8
0
  6
Continuous
 62
     7
370
    15
100
AcDbLine
 10
119.9079210748
 20
207.7401267893
 30
0.0
 11
119.9079210748
 21
209.1920503013
 31
0.0
  0
LINE
  5
1D8
330
1F
100
AcDbEntity
  8
0
  6
Continuous
 62
     7
370
    15
100
AcDbLine
 10
106.9079170813
 20
209.1920503013
 30
0.0
 11
106.9079170813
 21
207.7401267893
 31
0.0
  0
ARC
  5
1D9
330
1F
100
AcDbEntity
  8
0
  6
Continuous
 62
     7
370
    15
100
AcDbCircle
 10
4.1079199549
 20
207.7401272244
 30
0.0
 40
0.8000000000000114
100
AcDbArc
 50
270.0
 51
0.0
  0
ARC
  5
1DA
330
1F
100
AcDbEntity
  8
0
  6
Continuous
 62
     7
370
    15
100
AcDbCircle
 10
-7.2920800451
 20
207.7401272244
 30
0.0
 40
0.8000000000000114
100
AcDbArc
 50
180.0
 51
270.0
  0
LINE
  5
1DB
330
1F
100
AcDbEntity
  8
0
  6
Continuous
 62
     7
370
    15
100
AcDbLine
 10
4.90791992
 20
207.7401267893
 30
0.0
 11
4.90791992
 21
209.1920503013
 31
0.0
  0
LINE
  5
1DC
330
1F
100
AcDbEntity
  8
0
  6
Continuous
 62
     7
370
    15
100
AcDbLine
 10
-8.0920794169
 20
209.1920503013
 30
0.0
 11
-8.0920794169
 21
207.7401267893
 31
0.0
  0
LINE
  5
1DD
330
1F
100
AcDbEntity
  8
0
  6
Continuous
 62
     7
370
    15
100
AcDbLine
 10
-26.592081518
 20
229.9684553005
 30
0.0
 11
-26.592081518
 21
234.9401290126
 31
0.0
  0
LINE
  5
1DE
330
1F
100
AcDbEntity
  8
0
  6
Continuous
 62
     7
370
    15
100
AcDbLine
 10
-26.592081518
 20
215.9401277609
 30
0.0
 11
-26.592081518
 21
229.9684553005
 31
0.0
  0
LINE
  5
1DF
330
1F
100
AcDbEntity
  8
0
  6
Continuous
 62
     7
370
    15
100
AcDbLine
 10
-26.0920805047
 20
230.2067881979
 30
0.0
 11
-26.0920805047
 21
215.4401267476
 31
0.0
  0
LINE
  5
1E0
330
1F
100
AcDbEntity
  8
0
  6
Continuous
 62
     7
370
    15
100
AcDbLine
 10
-26.0920805047
 20
235.4401263006
 30
0.0
 11
-26.0920805047
 21
230.2067881979
 31
0.0
  0
LINE
  5
1E1
330
1F
100
AcDbEntity
  8
0
  6
Continuous
 62
     7
370
    15
100
AcDbLine
 10
137.9079128494
 20
230.2067881979
 30
0.0
 11
137.9079128494
 21
235.4401263006
 31
0.0
  0
LINE
  5
1E2
330
1F
100
AcDbEntity
  8
0
  6
Continuous
 62
     7
370
    15
100
AcDbLine
 10
137.9079128494
 20
215.4401267476
 30
0.0
 11
137.9079128494
 21
230.2067881979
 31
0.0
  0
LINE
  5
1E3
330
1F
100
AcDbEntity
  8
0
  6
Continuous
 62
     7
370
    15
100
AcDbLine
 10
138.4079213132
 20
229.9684553005
 30
0.0
 11
138.4079213132
 21
215.9401277609
 31
0.0
  0
LINE
  5
1E4
330
1F
100
AcDbEntity
  8
0
  6
Continuous
 62
     7
370
    15
100
AcDbLine
 10
138.4079213132
 20
234.9401290126
 30
0.0
 11
138.4079213132
 21
229.9684553005
 31
0.0
  0
CIRCLE
  5
1E5
330
1F
100
AcDbEntity
  8
0
  6
Continuous
 62
     7
370
    15
100
AcDbCircle
 10
-1.5920800451
 20
225.4401272244
 30
0.0
 40
17.50000000000001
  0
CIRCLE
  5
1E6
330
1F
100
AcDbEntity
  8
0
  6
Continuous
 62
     7
370
    15
100
AcDbCircle
 10
-1.5920800451
 20
225.4401272244
 30
0.0
 40
16.99999999999999
  0
CIRCLE
  5
1E7
330
1F
100
AcDbEntity
  8
0
  6
Continuous
 62
     7
370
    15
100
AcDbCircle
 10
113.4079199549
 20
225.4401272244
 30
0.0
 40
17.5
  0
CIRCLE
  5
1E8
330
1F
100
AcDbEntity
  8
0
  6
Continuous
 62
     7
370
    15
100
AcDbCircle
 10
113.4079199549
 20
225.4401272244
 30
0.0
 40
16.99999999999999
  0
LINE
  5
1E9
330
1F
100
AcDbEntity
  8
0
  6
Continuous
 62
     7
370
    15
100
AcDbLine
 10
95.9079171409
 20
263.1401295371
 30
0.0
 11
130.9079210152
 21
263.1401295371
 31
0.0
  0
LINE
  5
1EA
330
1F
100
AcDbEntity
  8
0
  6
Continuous
 62
     7
370
    15
100
AcDbLine
 10
113.7308756699
 20
263.9401281781
 30
0.0
 11
95.9079171409
 21
263.9401281781
 31
0.0
  0
LINE
  5
1EB
330
1F
100
AcDbEntity
  8
0
  6
Continuous
 62
     7
370
    15
100
AcDbLine
 10
130.9079210152
 20
263.9401281781
 30
0.0
 11
113.7308756699
 21
263.9401281781
 31
0.0
  0
LINE
  5
1EC
330
1F
100
AcDbEntity
  8
0
  6
Continuous
 62
     7
370
    15
100
AcDbLine
 10
113.6939654936
 20
265.9401247807
 30
0.0
 11
128.9079169621
 21
265.9401247807
 31
0.0
  0
LINE
  5
1ED
330
1F
100
AcDbEntity
  8
0
  6
Continuous
 62
     7
370
    15
100
AcDbLine
 10
97.907921194
 20
265.9401247807
 30
0.0
 11
113.6939654936
 21
265.9401247807
 31
0.0
  0
LINE
  5
1EE
330
1F
100
AcDbEntity
  8
0
  6
Continuous
 62
     7
370
    15
100
AcDbLine
 10
105.407921492
 20
251.1401275702
 30
0.0
 11
121.4079166641
 21
251.1401275702
 31
0.0
  0
LINE
  5
1EF
330
1F
100
AcDbEntity
  8
0
  6
Continuous
 62
     7
370
    15
100
AcDbLine
 10
2.7234804695
 20
263.1401295371
 30
0.0
 11
15.9079198604
 21
263.1401295371
 31
0.0
  0
LINE
  5
1F0
330
1F
100
AcDbEntity
  8
0
  6
Continuous
 62
     7
370
    15
100
AcDbLine
 10
-19.0920793573
 20
263.1401295371
 30
0.0
 11
2.7234804695
 21
263.1401295371
 31
0.0
  0
LINE
  5
1F1
330
1F
100
AcDbEntity
  8
0
  6
Continuous
 62
     7
370
    15
100
AcDbLine
 10
15.9079198604
 20
263.9401281781
 30
0.0
 11
-19.0920793573
 21
263.9401281781
 31
0.0
  0
LINE
  5
1F2
330
1F
100
AcDbEntity
  8
0
  6
Continuous
 62
     7
370
    15
100
AcDbLine
 10
-17.0920808922
 20
265.9401247807
 30
0.0
 11
13.9079199982
 21
265.9401247807
 31
0.0
  0
LINE
  5
1F3
330
1F
100
AcDbEntity
  8
0
  6
Continuous
 62
     7
370
    15
100
AcDbLine
 10
0.3807478462
 20
251.1401275702
 30
0.0
 11
6.407919933
 21
251.1401275702
 31
0.0
  0
LINE
  5
1F4
330
1F
100
AcDbEntity
  8
0
  6
Continuous
 62
     7
370
    15
100
AcDbLine
 10
-9.5920805941
 20
251.1401275702
 30
0.0
 11
0.3807478462
 21
251.1401275702
 31
0.0
  0
LINE
  5
1F5
330
1F
100
AcDbEntity
  8
0
  6
Continuous
 62
     7
370
    15
100
AcDbLine
 10
130.9079210152
 20
246.9401272543
 30
0.0
 11
95.9079171409
 21
246.9401272543
 31
0.0
  0
LINE
  5
1F6
330
1F
100
AcDbEntity
  8
0
  6
Continuous
 62
     7
370
    15
100
AcDbLine
 10
130.9079210152
 20
245.940128953
 30
0.0
 11
95.9079171409
 21
245.940128953
 31
0.0
  0
LINE
  5
1F7
330
1F
100
AcDbEntity
  8
0
  6
Continuous
 62
     7
370
    15
100
AcDbLine
 10
123.4079207172
 20
250.9401279099
 30
0.0
 11
103.4079174389
 21
250.9401279099
 31
0.0
  0
LINE
  5
1F8
330
1F
100
AcDbEntity
  8
0
  6
Continuous
 62
     7
370
    15
100
AcDbLine
 10
-19.0920793573
 20
261.9401278503
 30
0.0
 11
15.9079198604
 21
261.9401278503
 31
0.0
  0
LINE
  5
1F9
330
1F
100
AcDbEntity
  8
0
  6
Continuous
 62
     7
370
    15
100
AcDbLine
 10
-19.0920793573
 20
262.9401261516
 30
0.0
 11
15.9079198604
 21
262.9401261516
 31
0.0
  0
LINE
  5
1FA
330
1F
100
AcDbEntity
  8
0
  6
Continuous
 62
     7
370
    15
100
AcDbLine
 10
-11.592080922
 20
257.9401271946
 30
0.0
 11
8.4079199552
 21
257.9401271946
 31
0.0
  0
LINE
  5
1FB
330
1F
100
AcDbEntity
  8
0
  6
Continuous
 62
     7
370
    15
100
AcDbLine
 10
-1.8764353479
 20
246.9401272543
 30
0.0
 11
-19.0920793573
 21
246.9401272543
 31
0.0
  0
LINE
  5
1FC
330
1F
100
AcDbEntity
  8
0
  6
Continuous
 62
     7
370
    15
100
AcDbLine
 10
15.9079198604
 20
246.9401272543
 30
0.0
 11
-1.8764353479
 21
246.9401272543
 31
0.0
  0
LINE
  5
1FD
330
1F
100
AcDbEntity
  8
0
  6
Continuous
 62
     7
370
    15
100
AcDbLine
 10
-1.8764353479
 20
245.940128953
 30
0.0
 11
-19.0920793573
 21
245.940128953
 31
0.0
  0
LINE
  5
1FE
330
1F
100
AcDbEntity
  8
0
  6
Continuous
 62
     7
370
    15
100
AcDbLine
 10
15.9079198604
 20
245.940128953
 30
0.0
 11
-1.8764353479
 21
245.940128953
 31
0.0
  0
LINE
  5
1FF
330
1F
100
AcDbEntity
  8
0
  6
Continuous
 62
     7
370
    15
100
AcDbLine
 10
-1.7545689951
 20
250.9401279099
 30
0.0
 11
-11.592080922
 21
250.9401279099
 31
0.0
  0
LINE
  5
200
330
1F
100
AcDbEntity
  8
0
  6
Continuous
 62
     7
370
    15
100
AcDbLine
 10
8.4079199552
 20
250.9401279099
 30
0.0
 11
-1.7545689951
 21
250.9401279099
 31
0.0
  0
LINE
  5
201
330
1F
100
AcDbEntity
  8
0
  6
Continuous
 62
     7
370
    15
100
AcDbLine
 10
95.9079171409
 20
261.9401278503
 30
0.0
 11
130.9079210152
 21
261.9401278503
 31
0.0
  0
LINE
  5
202
330
1F
100
AcDbEntity
  8
0
  6
Continuous
 62
     7
370
    15
100
AcDbLine
 10
95.9079171409
 20
262.9401261516
 30
0.0
 11
130.9079210152
 21
262.9401261516
 31
0.0
  0
LINE
  5
203
330
1F
100
AcDbEntity
  8
0
  6
Continuous
 62
     7
370
    15
100
AcDbLine
 10
123.4079207172
 20
257.9401271946
 30
0.0
 11
103.4079174389
 21
257.9401271946
 31
0.0
  0
LINE
  5
204
330
1F
100
AcDbEntity
  8
0
  6
Continuous
 62
     7
370
    15
100
AcDbLine
 10
95.9079171409
 20
243.9401286252
 30
0.0
 11
130.9079210152
 21
243.9401286252
 31
0.0
  0
LINE
  5
205
330
1F
100
AcDbEntity
  8
0
  6
Continuous
 62
     7
370
    15
100
AcDbLine
 10
120.9079231014
 20
242.9401265986
 30
0.0
 11
105.9079225053
 21
242.9401265986
 31
0.0
  0
LINE
  5
206
330
1F
100
AcDbEntity
  8
0
  6
Continuous
 62
     7
370
    15
100
AcDbLine
 10
4.510228184
 20
243.9401286252
 30
0.0
 11
15.9079198604
 21
243.9401286252
 31
0.0
  0
LINE
  5
207
330
1F
100
AcDbEntity
  8
0
  6
Continuous
 62
     7
370
    15
100
AcDbLine
 10
-19.0920793573
 20
243.9401286252
 30
0.0
 11
4.510228184
 21
243.9401286252
 31
0.0
  0
LINE
  5
208
330
1F
100
AcDbEntity
  8
0
  6
Continuous
 62
     7
370
    15
100
AcDbLine
 10
4.510228184
 20
245.940128953
 30
0.0
 11
15.9079198604
 21
245.940128953
 31
0.0
  0
LINE
  5
209
330
1F
100
AcDbEntity
  8
0
  6
Continuous
 62
     7
370
    15
100
AcDbLine
 10
-19.0920793573
 20
245.940128953
 30
0.0
 11
4.510228184
 21
245.940128953
 31
0.0
  0
LINE
  5
20A
330
1F
100
AcDbEntity
  8
0
  6
Continuous
 62
     7
370
    15
100
AcDbLine
 10
1.023195113
 20
242.9401265986
 30
0.0
 11
-9.0920795809
 21
242.9401265986
 31
0.0
  0
LINE
  5
20B
330
1F
100
AcDbEntity
  8
0
  6
Continuous
 62
     7
370
    15
100
AcDbLine
 10
5.907919851
 20
242.9401265986
 30
0.0
 11
1.023195113
 21
242.9401265986
 31
0.0
  0
LINE
  5
20C
330
1F
100
AcDbEntity
  8
0
  6
Continuous
 62
     7
370
    15
100
AcDbLine
 10
119.1079224338
 20
206.940127217
 30
0.0
 11
107.7079231729
 21
206.940127217
 31
0.0
  0
LINE
  5
20D
330
1F
100
AcDbEntity
  8
0
  6
Continuous
 62
     7
370
    15
100
AcDbLine
 10
-7.2920798446
 20
206.940127217
 30
0.0
 11
4.107919882
 21
206.940127217
 31
0.0
  0
LINE
  5
20E
330
1F
100
AcDbEntity
  8
0
  6
Continuous
 62
     8
370
    15
100
AcDbLine
 10
106.9079170813
 20
207.7401267893
 30
0.0
 11
119.9079210748
 21
207.7401267893
 31
0.0
  0
LINE
  5
20F
330
1F
100
AcDbEntity
  8
0
  6
Continuous
 62
     8
370
    15
100
AcDbLine
 10
-8.0920794169
 20
207.7401267893
 30
0.0
 11
4.90791992
 21
207.7401267893
 31
0.0
  0
LINE
  5
210
330
1F
100
AcDbEntity
  8
0
  6
Continuous
 62
     7
370
    15
100
AcDbLine
 10
-26.0920805047
 20
65.6702216267
 30
0.0
 11
-26.592081518
 21
65.1702206134
 31
0.0
  0
LINE
  5
211
330
1F
100
AcDbEntity
  8
0
  6
Continuous
 62
     7
370
    15
100
AcDbLine
 10
-26.592081518
 20
46.1702193617
 30
0.0
 11
-26.0920805047
 21
45.6702220737
 31
0.0
  0
LINE
  5
212
330
1F
100
AcDbEntity
  8
0
  6
Continuous
 62
     7
370
    15
100
AcDbLine
 10
137.9079128494
 20
65.6702216267
 30
0.0
 11
127.7693266858
 21
65.6702216267
 31
0.0
  0
LINE
  5
213
330
1F
100
AcDbEntity
  8
0
  6
Continuous
 62
     7
370
    15
100
AcDbLine
 10
99.0465114702
 20
65.6702216267
 30
0.0
 11
12.7693264623
 21
65.6702216267
 31
0.0
  0
LINE
  5
214
330
1F
100
AcDbEntity
  8
0
  6
Continuous
 62
     7
370
    15
100
AcDbLine
 10
-15.9534868906
 20
65.6702216267
 30
0.0
 11
-26.0920805047
 21
65.6702216267
 31
0.0
  0
LINE
  5
215
330
1F
100
AcDbEntity
  8
0
  6
Continuous
 62
     7
370
    15
100
AcDbLine
 10
-26.0920805047
 20
45.6702220737
 30
0.0
 11
-15.9534868906
 21
45.6702220737
 31
0.0
  0
LINE
  5
216
330
1F
100
AcDbEntity
  8
0
  6
Continuous
 62
     7
370
    15
100
AcDbLine
 10
12.7693264623
 20
45.6702220737
 30
0.0
 11
99.0465114702
 21
45.6702220737
 31
0.0
  0
LINE
  5
217
330
1F
100
AcDbEntity
  8
0
  6
Continuous
 62
     7
370
    15
100
AcDbLine
 10
127.7693266858
 20
45.6702220737
 30
0.0
 11
137.9079128494
 21
45.6702220737
 31
0.0
  0
LINE
  5
218
330
1F
100
AcDbEntity
  8
0
  6
Continuous
 62
     7
370
    15
100
AcDbLine
 10
137.9079128494
 20
45.6702220737
 30
0.0
 11
138.4079213132
 21
46.1702193617
 31
0.0
  0
LINE
  5
219
330
1F
100
AcDbEntity
  8
0
  6
Continuous
 62
     7
370
    15
100
AcDbLine
 10
138.4079213132
 20
65.1702206134
 30
0.0
 11
137.9079128494
 21
65.6702216267
 31
0.0
  0
LINE
  5
21A
330
1F
100
AcDbEntity
  8
0
  6
Continuous
 62
     7
370
    15
100
AcDbLine
 10
15.9079198604
 20
17.1702201962
 30
0.0
 11
15.9079198604
 21
17.9702188372
 31
0.0
  0
LINE
  5
21B
330
1F
100
AcDbEntity
  8
0
  6
Continuous
 62
     7
370
    15
100
AcDbLine
 10
-19.0920793573
 20
17.9702188372
 30
0.0
 11
-19.0920793573
 21
17.1702201962
 31
0.0
  0
LINE
  5
21C
330
1F
100
AcDbEntity
  8
0
  6
Continuous
 62
     7
370
    15
100
AcDbLine
 10
15.9079198604
 20
17.9702188372
 30
0.0
 11
15.7079197344
 21
18.1702222227
 31
0.0
  0
LINE
  5
21D
330
1F
100
AcDbEntity
  8
0
  6
Continuous
 62
     7
370
    15
100
AcDbLine
 10
-18.8920796971
 20
18.1702222227
 30
0.0
 11
-19.0920793573
 21
17.9702188372
 31
0.0
  0
LINE
  5
21E
330
1F
100
AcDbEntity
  8
0
  6
Continuous
 62
     7
370
    15
100
AcDbLine
 10
-19.0920793573
 20
17.1702201962
 30
0.0
 11
-17.0920808922
 21
15.1702235936
 31
0.0
  0
LINE
  5
21F
330
1F
100
AcDbEntity
  8
0
  6
Continuous
 62
     7
370
    15
100
AcDbLine
 10
13.9079199982
 20
15.1702235936
 30
0.0
 11
15.9079198604
 21
17.1702201962
 31
0.0
  0
LINE
  5
220
330
1F
100
AcDbEntity
  8
0
  6
Continuous
 62
     7
370
    15
100
AcDbLine
 10
6.407919933
 20
29.9702208041
 30
0.0
 11
6.2079200399
 21
30.1702204644
 31
0.0
  0
LINE
  5
221
330
1F
100
AcDbEntity
  8
0
  6
Continuous
 62
     7
370
    15
100
AcDbLine
 10
-9.3920809339
 20
30.1702204644
 30
0.0
 11
-9.5920805941
 21
29.9702208041
 31
0.0
  0
LINE
  5
222
330
1F
100
AcDbEntity
  8
0
  6
Continuous
 62
     7
370
    15
100
AcDbLine
 10
6.407919933
 20
23.1702211796
 30
0.0
 11
6.407919933
 21
29.9702208041
 31
0.0
  0
LINE
  5
223
330
1F
100
AcDbEntity
  8
0
  6
Continuous
 62
     7
370
    15
100
AcDbLine
 10
-9.5920805941
 20
29.9702208041
 30
0.0
 11
-9.5920805941
 21
23.1702211796
 31
0.0
  0
LINE
  5
224
330
1F
100
AcDbEntity
  8
0
  6
Continuous
 62
     7
370
    15
100
AcDbLine
 10
130.9079210152
 20
17.1702201962
 30
0.0
 11
130.9079210152
 21
17.9702188372
 31
0.0
  0
LINE
  5
225
330
1F
100
AcDbEntity
  8
0
  6
Continuous
 62
     7
370
    15
100
AcDbLine
 10
95.9079171409
 20
17.9702188372
 30
0.0
 11
95.9079171409
 21
17.1702201962
 31
0.0
  0
LINE
  5
226
330
1F
100
AcDbEntity
  8
0
  6
Continuous
 62
     7
370
    15
100
AcDbLine
 10
95.9079171409
 20
17.1702201962
 30
0.0
 11
97.907921194
 21
15.1702235936
 31
0.0
  0
LINE
  5
227
330
1F
100
AcDbEntity
  8
0
  6
Continuous
 62
     7
370
    15
100
AcDbLine
 10
128.9079169621
 20
15.1702235936
 30
0.0
 11
130.9079210152
 21
17.1702201962
 31
0.0
  0
LINE
  5
228
330
1F
100
AcDbEntity
  8
0
  6
Continuous
 62
     7
370
    15
100
AcDbLine
 10
130.9079210152
 20
17.9702188372
 30
0.0
 11
130.7079176296
 21
18.1702222227
 31
0.0
  0
LINE
  5
229
330
1F
100
AcDbEntity
  8
0
  6
Continuous
 62
     7
370
    15
100
AcDbLine
 10
96.1079205264
 20
18.1702222227
 30
0.0
 11
95.9079171409
 21
17.9702188372
 31
0.0
  0
LINE
  5
22A
330
1F
100
AcDbEntity
  8
0
  6
Continuous
 62
     7
370
    15
100
AcDbLine
 10
121.4079166641
 20
23.1702211796
 30
0.0
 11
121.4079166641
 21
29.9702208041
 31
0.0
  0
LINE
  5
22B
330
1F
100
AcDbEntity
  8
0
  6
Continuous
 62
     7
370
    15
100
AcDbLine
 10
105.407921492
 20
29.9702208041
 30
0.0
 11
105.407921492
 21
23.1702211796
 31
0.0
  0
LINE
  5
22C
330
1F
100
AcDbEntity
  8
0
  6
Continuous
 62
     7
370
    15
100
AcDbLine
 10
121.4079166641
 20
29.9702208041
 30
0.0
 11
121.2079207291
 21
30.1702204644
 31
0.0
  0
LINE
  5
22D
330
1F
100
AcDbEntity
  8
0
  6
Continuous
 62
     7
370
    15
100
AcDbLine
 10
105.607917427
 20
30.1702204644
 30
0.0
 11
105.407921492
 21
29.9702208041
 31
0.0
  0
LINE
  5
22E
330
1F
100
AcDbEntity
  8
0
  6
Continuous
 62
     7
370
    15
100
AcDbLine
 10
-19.0920793573
 20
35.1702194213
 30
0.0
 11
-19.0920793573
 21
34.17022112
 31
0.0
  0
LINE
  5
22F
330
1F
100
AcDbEntity
  8
0
  6
Continuous
 62
     7
370
    15
100
AcDbLine
 10
15.9079198604
 20
34.17022112
 30
0.0
 11
15.9079198604
 21
35.1702194213
 31
0.0
  0
LINE
  5
230
330
1F
100
AcDbEntity
  8
0
  6
Continuous
 62
     7
370
    15
100
AcDbLine
 10
-11.592080922
 20
34.17022112
 30
0.0
 11
-11.592080922
 21
30.1702204644
 31
0.0
  0
LINE
  5
231
330
1F
100
AcDbEntity
  8
0
  6
Continuous
 62
     7
370
    15
100
AcDbLine
 10
8.4079199552
 20
30.1702204644
 30
0.0
 11
8.4079199552
 21
34.17022112
 31
0.0
  0
LINE
  5
232
330
1F
100
AcDbEntity
  8
0
  6
Continuous
 62
     7
370
    15
100
AcDbLine
 10
130.9079210152
 20
18.1702222227
 30
0.0
 11
130.9079210152
 21
19.170220524
 31
0.0
  0
LINE
  5
233
330
1F
100
AcDbEntity
  8
0
  6
Continuous
 62
     7
370
    15
100
AcDbLine
 10
95.9079171409
 20
19.170220524
 30
0.0
 11
95.9079171409
 21
18.1702222227
 31
0.0
  0
LINE
  5
234
330
1F
100
AcDbEntity
  8
0
  6
Continuous
 62
     7
370
    15
100
AcDbLine
 10
123.4079207172
 20
19.170220524
 30
0.0
 11
123.4079207172
 21
23.1702211796
 31
0.0
  0
LINE
  5
235
330
1F
100
AcDbEntity
  8
0
  6
Continuous
 62
     7
370
    15
100
AcDbLine
 10
103.4079174389
 20
23.1702211796
 30
0.0
 11
103.4079174389
 21
19.170220524
 31
0.0
  0
LINE
  5
236
330
1F
100
AcDbEntity
  8
0
  6
Continuous
 62
     7
370
    15
100
AcDbLine
 10
15.9079198604
 20
18.1702222227
 30
0.0
 11
15.9079198604
 21
19.170220524
 31
0.0
  0
LINE
  5
237
330
1F
100
AcDbEntity
  8
0
  6
Continuous
 62
     7
370
    15
100
AcDbLine
 10
-19.0920793573
 20
19.170220524
 30
0.0
 11
-19.0920793573
 21
18.1702222227
 31
0.0
  0
LINE
  5
238
330
1F
100
AcDbEntity
  8
0
  6
Continuous
 62
     7
370
    15
100
AcDbLine
 10
8.4079199552
 20
19.170220524
 30
0.0
 11
8.4079199552
 21
23.1702211796
 31
0.0
  0
LINE
  5
239
330
1F
100
AcDbEntity
  8
0
  6
Continuous
 62
     7
370
    15
100
AcDbLine
 10
-11.592080922
 20
23.1702211796
 30
0.0
 11
-11.592080922
 21
19.170220524
 31
0.0
  0
LINE
  5
23A
330
1F
100
AcDbEntity
  8
0
  6
Continuous
 62
     7
370
    15
100
AcDbLine
 10
95.9079171409
 20
35.1702194213
 30
0.0
 11
95.9079171409
 21
34.17022112
 31
0.0
  0
LINE
  5
23B
330
1F
100
AcDbEntity
  8
0
  6
Continuous
 62
     7
370
    15
100
AcDbLine
 10
130.9079210152
 20
34.17022112
 30
0.0
 11
130.9079210152
 21
35.1702194213
 31
0.0
  0
LINE
  5
23C
330
1F
100
AcDbEntity
  8
0
  6
Continuous
 62
     7
370
    15
100
AcDbLine
 10
103.4079174389
 20
34.17022112
 30
0.0
 11
103.4079174389
 21
30.1702204644
 31
0.0
  0
LINE
  5
23D
330
1F
100
AcDbEntity
  8
0
  6
Continuous
 62
     7
370
    15
100
AcDbLine
 10
123.4079207172
 20
30.1702204644
 30
0.0
 11
123.4079207172
 21
34.17022112
 31
0.0
  0
LINE
  5
23E
330
1F
100
AcDbEntity
  8
0
  6
Continuous
 62
     7
370
    15
100
AcDbLine
 10
130.9079210152
 20
35.1702194213
 30
0.0
 11
130.9079210152
 21
37.1702197491
 31
0.0
  0
LINE
  5
23F
330
1F
100
AcDbEntity
  8
0
  6
Continuous
 62
     7
370
    15
100
AcDbLine
 10
95.9079171409
 20
37.1702197491
 30
0.0
 11
95.9079171409
 21
35.1702194213
 31
0.0
  0
LINE
  5
240
330
1F
100
AcDbEntity
  8
0
  6
Continuous
 62
     7
370
    15
100
AcDbLine
 10
121.9079176773
 20
37.1702197491
 30
0.0
 11
120.9079231014
 21
38.1702217757
 31
0.0
  0
LINE
  5
241
330
1F
100
AcDbEntity
  8
0
  6
Continuous
 62
     7
370
    15
100
AcDbLine
 10
105.9079225053
 20
38.1702217757
 30
0.0
 11
104.9079204788
 21
37.1702197491
 31
0.0
  0
LINE
  5
242
330
1F
100
AcDbEntity
  8
0
  6
Continuous
 62
     7
370
    15
100
AcDbLine
 10
120.9079231014
 20
38.1702217757
 30
0.0
 11
120.9079231014
 21
39.8588325381
 31
0.0
  0
LINE
  5
243
330
1F
100
AcDbEntity
  8
0
  6
Continuous
 62
     7
370
    15
100
AcDbLine
 10
105.9079225053
 20
39.8588325381
 30
0.0
 11
105.9079225053
 21
38.1702217757
 31
0.0
  0
LINE
  5
244
330
1F
100
AcDbEntity
  8
0
  6
Continuous
 62
     7
370
    15
100
AcDbLine
 10
15.9079198604
 20
35.1702194213
 30
0.0
 11
15.9079198604
 21
37.1702197491
 31
0.0
  0
LINE
  5
245
330
1F
100
AcDbEntity
  8
0
  6
Continuous
 62
     7
370
    15
100
AcDbLine
 10
-19.0920793573
 20
37.1702197491
 30
0.0
 11
-19.0920793573
 21
35.1702194213
 31
0.0
  0
LINE
  5
246
330
1F
100
AcDbEntity
  8
0
  6
Continuous
 62
     7
370
    15
100
AcDbLine
 10
6.9079198985
 20
37.1702197491
 30
0.0
 11
5.907919851
 21
38.1702217757
 31
0.0
  0
LINE
  5
247
330
1F
100
AcDbEntity
  8
0
  6
Continuous
 62
     7
370
    15
100
AcDbLine
 10
-9.0920795809
 20
38.1702217757
 30
0.0
 11
-10.0920797448
 21
37.1702197491
 31
0.0
  0
LINE
  5
248
330
1F
100
AcDbEntity
  8
0
  6
Continuous
 62
     7
370
    15
100
AcDbLine
 10
5.907919851
 20
38.1702217757
 30
0.0
 11
5.907919851
 21
39.8588325381
 31
0.0
  0
LINE
  5
249
330
1F
100
AcDbEntity
  8
0
  6
Continuous
 62
     7
370
    15
100
AcDbLine
 10
-9.0920795809
 20
39.8588325381
 30
0.0
 11
-9.0920795809
 21
38.1702217757
 31
0.0
  0
LINE
  5
24A
330
1F
100
AcDbEntity
  8
0
  6
Continuous
 62
     7
370
    15
100
AcDbLine
 10
106.9079170813
 20
73.370221585
 30
0.0
 11
106.9079170813
 21
71.918298073
 31
0.0
  0
LINE
  5
24B
330
1F
100
AcDbEntity
  8
0
  6
Continuous
 62
     7
370
    15
100
AcDbLine
 10
119.9079210748
 20
71.918298073
 30
0.0
 11
119.9079210748
 21
73.370221585
 31
0.0
  0
ARC
  5
24C
330
1F
100
AcDbEntity
  8
0
  6
Continuous
 62
     7
370
    15
100
AcDbCircle
 10
107.7079199549
 20
73.3702211499
 30
0.0
 40
0.8000000000000114
100
AcDbArc
 50
90.0
 51
180.0
  0
ARC
  5
24D
330
1F
100
AcDbEntity
  8
0
  6
Continuous
 62
     7
370
    15
100
AcDbCircle
 10
119.1079199549
 20
73.3702211499
 30
0.0
 40
0.8000000000000114
100
AcDbArc
 50
0.0
 51
90.0
  0
LINE
  5
24E
330
1F
100
AcDbEntity
  8
0
  6
Continuous
 62
     7
370
    15
100
AcDbLine
 10
-8.0920794169
 20
73.370221585
 30
0.0
 11
-8.0920794169
 21
71.918298073
 31
0.0
  0
LINE
  5
24F
330
1F
100
AcDbEntity
  8
0
  6
Continuous
 62
     7
370
    15
100
AcDbLine
 10
4.90791992
 20
71.918298073
 30
0.0
 11
4.90791992
 21
73.370221585
 31
0.0
  0
ARC
  5
250
330
1F
100
AcDbEntity
  8
0
  6
Continuous
 62
     7
370
    15
100
AcDbCircle
 10
-7.2920800451
 20
73.3702211499
 30
0.0
 40
0.7999999999999972
100
AcDbArc
 50
90.0
 51
180.0
  0
ARC
  5
251
330
1F
100
AcDbEntity
  8
0
  6
Continuous
 62
     7
370
    15
100
AcDbCircle
 10
4.1079199549
 20
73.3702211499
 30
0.0
 40
0.8000000000000025
100
AcDbArc
 50
0.0
 51
90.0
  0
LINE
  5
252
330
1F
100
AcDbEntity
  8
0
  6
Continuous
 62
     7
370
    15
100
AcDbLine
 10
-26.592081518
 20
46.1702193617
 30
0.0
 11
-26.592081518
 21
65.1702206134
 31
0.0
  0
LINE
  5
253
330
1F
100
AcDbEntity
  8
0
  6
Continuous
 62
     7
370
    15
100
AcDbLine
 10
-26.0920805047
 20
65.6702216267
 30
0.0
 11
-26.0920805047
 21
45.6702220737
 31
0.0
  0
LINE
  5
254
330
1F
100
AcDbEntity
  8
0
  6
Continuous
 62
     7
370
    15
100
AcDbLine
 10
137.9079128494
 20
45.6702220737
 30
0.0
 11
137.9079128494
 21
65.6702216267
 31
0.0
  0
LINE
  5
255
330
1F
100
AcDbEntity
  8
0
  6
Continuous
 62
     7
370
    15
100
AcDbLine
 10
138.4079213132
 20
65.1702206134
 30
0.0
 11
138.4079213132
 21
46.1702193617
 31
0.0
  0
CIRCLE
  5
256
330
1F
100
AcDbEntity
  8
0
  6
Continuous
 62
     7
370
    15
100
AcDbCircle
 10
-1.5920800451
 20
55.6702211499
 30
0.0
 40
16.99999999999999
  0
CIRCLE
  5
257
330
1F
100
AcDbEntity
  8
0
  6
Continuous
 62
     7
370
    15
100
AcDbCircle
 10
-1.5920800451
 20
55.6702211499
 30
0.0
 40
17.50000000000001
  0
CIRCLE
  5
258
330
1F
100
AcDbEntity
  8
0
  6
Continuous
 62
     7
370
    15
100
AcDbCircle
 10
113.4079199549
 20
55.6702211499
 30
0.0
 40
17.0
  0
CIRCLE
  5
259
330
1F
100
AcDbEntity
  8
0
  6
Continuous
 62
     7
370
    15
100
AcDbCircle
 10
113.4079199549
 20
55.6702211499
 30
0.0
 40
17.5
  0
LINE
  5
25A
330
1F
100
AcDbEntity
  8
0
  6
Continuous
 62
     7
370
    15
100
AcDbLine
 10
14.8071729456
 20
17.9702188372
 30
0.0
 11
-19.0920793573
 21
17.9702188372
 31
0.0
  0
LINE
  5
25B
330
1F
100
AcDbEntity
  8
0
  6
Continuous
 62
     7
370
    15
100
AcDbLine
 10
15.9079198604
 20
17.9702188372
 30
0.0
 11
14.8071729456
 21
17.9702188372
 31
0.0
  0
LINE
  5
25C
330
1F
100
AcDbEntity
  8
0
  6
Continuous
 62
     7
370
    15
100
AcDbLine
 10
-19.0920793573
 20
17.1702201962
 30
0.0
 11
15.9079198604
 21
17.1702201962
 31
0.0
  0
LINE
  5
25D
330
1F
100
AcDbEntity
  8
0
  6
Continuous
 62
     7
370
    15
100
AcDbLine
 10
13.9079199982
 20
15.1702235936
 30
0.0
 11
-17.0920808922
 21
15.1702235936
 31
0.0
  0
LINE
  5
25E
330
1F
100
AcDbEntity
  8
0
  6
Continuous
 62
     7
370
    15
100
AcDbLine
 10
5.9047212237
 20
29.9702208041
 30
0.0
 11
-9.5920805941
 21
29.9702208041
 31
0.0
  0
LINE
  5
25F
330
1F
100
AcDbEntity
  8
0
  6
Continuous
 62
     7
370
    15
100
AcDbLine
 10
6.407919933
 20
29.9702208041
 30
0.0
 11
5.9047212237
 21
29.9702208041
 31
0.0
  0
LINE
  5
260
330
1F
100
AcDbEntity
  8
0
  6
Continuous
 62
     7
370
    15
100
AcDbLine
 10
113.0849699368
 20
17.9702188372
 30
0.0
 11
95.9079171409
 21
17.9702188372
 31
0.0
  0
LINE
  5
261
330
1F
100
AcDbEntity
  8
0
  6
Continuous
 62
     7
370
    15
100
AcDbLine
 10
130.9079210152
 20
17.9702188372
 30
0.0
 11
113.0849699368
 21
17.9702188372
 31
0.0
  0
LINE
  5
262
330
1F
100
AcDbEntity
  8
0
  6
Continuous
 62
     7
370
    15
100
AcDbLine
 10
95.9079171409
 20
17.1702201962
 30
0.0
 11
130.9079210152
 21
17.1702201962
 31
0.0
  0
LINE
  5
263
330
1F
100
AcDbEntity
  8
0
  6
Continuous
 62
     7
370
    15
100
AcDbLine
 10
128.9079169621
 20
15.1702235936
 30
0.0
 11
97.907921194
 21
15.1702235936
 31
0.0
  0
LINE
  5
264
330
1F
100
AcDbEntity
  8
0
  6
Continuous
 62
     7
370
    15
100
AcDbLine
 10
113.2602820982
 20
29.9702208041
 30
0.0
 11
105.407921492
 21
29.9702208041
 31
0.0
  0
LINE
  5
265
330
1F
100
AcDbEntity
  8
0
  6
Continuous
 62
     7
370
    15
100
AcDbLine
 10
121.4079166641
 20
29.9702208041
 30
0.0
 11
113.2602820982
 21
29.9702208041
 31
0.0
  0
LINE
  5
266
330
1F
100
AcDbEntity
  8
0
  6
Continuous
 62
     7
370
    15
100
AcDbLine
 10
-19.0920793573
 20
34.17022112
 30
0.0
 11
15.9079198604
 21
34.17022112
 31
0.0
  0
LINE
  5
267
330
1F
100
AcDbEntity
  8
0
  6
Continuous
 62
     7
370
    15
100
AcDbLine
 10
-19.0920793573
 20
35.1702194213
 30
0.0
 11
15.9079198604
 21
35.1702194213
 31
0.0
  0
LINE
  5
268
330
1F
100
AcDbEntity
  8
0
  6
Continuous
 62
     7
370
    15
100
AcDbLine
 10
-11.592080922
 20
30.1702204644
 30
0.0
 11
8.4079199552
 21
30.1702204644
 31
0.0
  0
LINE
  5
269
330
1F
100
AcDbEntity
  8
0
  6
Continuous
 62
     7
370
    15
100
AcDbLine
 10
96.0306058516
 20
18.1702222227
 30
0.0
 11
95.9079171409
 21
18.1702222227
 31
0.0
  0
LINE
  5
26A
330
1F
100
AcDbEntity
  8
0
  6
Continuous
 62
     7
370
    15
100
AcDbLine
 10
130.9079210152
 20
18.1702222227
 30
0.0
 11
96.0306058516
 21
18.1702222227
 31
0.0
  0
LINE
  5
26B
330
1F
100
AcDbEntity
  8
0
  6
Continuous
 62
     7
370
    15
100
AcDbLine
 10
96.0306058516
 20
19.170220524
 30
0.0
 11
95.9079171409
 21
19.170220524
 31
0.0
  0
LINE
  5
26C
330
1F
100
AcDbEntity
  8
0
  6
Continuous
 62
     7
370
    15
100
AcDbLine
 10
130.9079210152
 20
19.170220524
 30
0.0
 11
96.0306058516
 21
19.170220524
 31
0.0
  0
LINE
  5
26D
330
1F
100
AcDbEntity
  8
0
  6
Continuous
 62
     7
370
    15
100
AcDbLine
 10
103.4780274023
 20
23.1702211796
 30
0.0
 11
103.4079174389
 21
23.1702211796
 31
0.0
  0
LINE
  5
26E
330
1F
100
AcDbEntity
  8
0
  6
Continuous
 62
     7
370
    15
100
AcDbLine
 10
123.4079207172
 20
23.1702211796
 30
0.0
 11
103.4780274023
 21
23.1702211796
 31
0.0
  0
LINE
  5
26F
330
1F
100
AcDbEntity
  8
0
  6
Continuous
 62
     7
370
    15
100
AcDbLine
 10
15.9079198604
 20
19.170220524
 30
0.0
 11
-19.0920793573
 21
19.170220524
 31
0.0
  0
LINE
  5
270
330
1F
100
AcDbEntity
  8
0
  6
Continuous
 62
     7
370
    15
100
AcDbLine
 10
15.9079198604
 20
18.1702222227
 30
0.0
 11
-19.0920793573
 21
18.1702222227
 31
0.0
  0
LINE
  5
271
330
1F
100
AcDbEntity
  8
0
  6
Continuous
 62
     7
370
    15
100
AcDbLine
 10
8.4079199552
 20
23.1702211796
 30
0.0
 11
-11.592080922
 21
23.1702211796
 31
0.0
  0
LINE
  5
272
330
1F
100
AcDbEntity
  8
0
  6
Continuous
 62
     7
370
    15
100
AcDbLine
 10
117.6860610832
 20
34.17022112
 30
0.0
 11
130.9079210152
 21
34.17022112
 31
0.0
  0
LINE
  5
273
330
1F
100
AcDbEntity
  8
0
  6
Continuous
 62
     7
370
    15
100
AcDbLine
 10
95.9079171409
 20
34.17022112
 30
0.0
 11
117.6860610832
 21
34.17022112
 31
0.0
  0
LINE
  5
274
330
1F
100
AcDbEntity
  8
0
  6
Continuous
 62
     7
370
    15
100
AcDbLine
 10
117.6860610832
 20
35.1702194213
 30
0.0
 11
130.9079210152
 21
35.1702194213
 31
0.0
  0
LINE
  5
275
330
1F
100
AcDbEntity
  8
0
  6
Continuous
 62
     7
370
    15
100
AcDbLine
 10
95.9079171409
 20
35.1702194213
 30
0.0
 11
117.6860610832
 21
35.1702194213
 31
0.0
  0
LINE
  5
276
330
1F
100
AcDbEntity
  8
0
  6
Continuous
 62
     7
370
    15
100
AcDbLine
 10
115.8525700559
 20
30.1702204644
 30
0.0
 11
123.4079207172
 21
30.1702204644
 31
0.0
  0
LINE
  5
277
330
1F
100
AcDbEntity
  8
0
  6
Continuous
 62
     7
370
    15
100
AcDbLine
 10
103.4079174389
 20
30.1702204644
 30
0.0
 11
115.8525700559
 21
30.1702204644
 31
0.0
  0
LINE
  5
278
330
1F
100
AcDbEntity
  8
0
  6
Continuous
 62
     7
370
    15
100
AcDbLine
 10
112.3108099093
 20
37.1702197491
 30
0.0
 11
95.9079171409
 21
37.1702197491
 31
0.0
  0
LINE
  5
279
330
1F
100
AcDbEntity
  8
0
  6
Continuous
 62
     7
370
    15
100
AcDbLine
 10
130.9079210152
 20
37.1702197491
 30
0.0
 11
112.3108099093
 21
37.1702197491
 31
0.0
  0
LINE
  5
27A
330
1F
100
AcDbEntity
  8
0
  6
Continuous
 62
     7
370
    15
100
AcDbLine
 10
112.3108099093
 20
35.1702194213
 30
0.0
 11
95.9079171409
 21
35.1702194213
 31
0.0
  0
LINE
  5
27B
330
1F
100
AcDbEntity
  8
0
  6
Continuous
 62
     7
370
    15
100
AcDbLine
 10
130.9079210152
 20
35.1702194213
 30
0.0
 11
112.3108099093
 21
35.1702194213
 31
0.0
  0
LINE
  5
27C
330
1F
100
AcDbEntity
  8
0
  6
Continuous
 62
     7
370
    15
100
AcDbLine
 10
112.937731563
 20
38.1702217757
 30
0.0
 11
120.9079231014
 21
38.1702217757
 31
0.0
  0
LINE
  5
27D
330
1F
100
AcDbEntity
  8
0
  6
Continuous
 62
     7
370
    15
100
AcDbLine
 10
105.9079225053
 20
38.1702217757
 30
0.0
 11
112.937731563
 21
38.1702217757
 31
0.0
  0
LINE
  5
27E
330
1F
100
AcDbEntity
  8
0
  6
Continuous
 62
     7
370
    15
100
AcDbLine
 10
-2.6892303611
 20
35.1702194213
 30
0.0
 11
-19.0920793573
 21
35.1702194213
 31
0.0
  0
LINE
  5
27F
330
1F
100
AcDbEntity
  8
0
  6
Continuous
 62
     7
370
    15
100
AcDbLine
 10
15.9079198604
 20
35.1702194213
 30
0.0
 11
-2.6892303611
 21
35.1702194213
 31
0.0
  0
LINE
  5
280
330
1F
100
AcDbEntity
  8
0
  6
Continuous
 62
     7
370
    15
100
AcDbLine
 10
-2.6892303611
 20
37.1702197491
 30
0.0
 11
-19.0920793573
 21
37.1702197491
 31
0.0
  0
LINE
  5
281
330
1F
100
AcDbEntity
  8
0
  6
Continuous
 62
     7
370
    15
100
AcDbLine
 10
15.9079198604
 20
37.1702197491
 30
0.0
 11
-2.6892303611
 21
37.1702197491
 31
0.0
  0
LINE
  5
282
330
1F
100
AcDbEntity
  8
0
  6
Continuous
 62
     7
370
    15
100
AcDbLine
 10
-2.0622872869
 20
38.1702217757
 30
0.0
 11
5.907919851
 21
38.1702217757
 31
0.0
  0
LINE
  5
283
330
1F
100
AcDbEntity
  8
0
  6
Continuous
 62
     7
370
    15
100
AcDbLine
 10
-9.0920795809
 20
38.1702217757
 30
0.0
 11
-2.0622872869
 21
38.1702217757
 31
0.0
  0
LINE
  5
284
330
1F
100
AcDbEntity
  8
0
  6
Continuous
 62
     7
370
    15
100
AcDbLine
 10
107.7943946113
 20
74.1702211573
 30
0.0
 11
119.1079224338
 21
74.1702211573
 31
0.0
  0
LINE
  5
285
330
1F
100
AcDbEntity
  8
0
  6
Continuous
 62
     7
370
    15
100
AcDbLine
 10
107.7079231729
 20
74.1702211573
 30
0.0
 11
107.7943946113
 21
74.1702211573
 31
0.0
  0
LINE
  5
286
330
1F
100
AcDbEntity
  8
0
  6
Continuous
 62
     7
370
    15
100
AcDbLine
 10
4.0675773163
 20
74.1702211573
 30
0.0
 11
4.107919882
 21
74.1702211573
 31
0.0
  0
LINE
  5
287
330
1F
100
AcDbEntity
  8
0
  6
Continuous
 62
     7
370
    15
100
AcDbLine
 10
-7.2920798446
 20
74.1702211573
 30
0.0
 11
4.0675773163
 21
74.1702211573
 31
0.0
  0
LINE
  5
288
330
1F
100
AcDbEntity
  8
0
  6
Continuous
 62
     8
370
    15
100
AcDbLine
 10
107.0065255155
 20
73.370221585
 30
0.0
 11
106.9079170813
 21
73.370221585
 31
0.0
  0
LINE
  5
289
330
1F
100
AcDbEntity
  8
0
  6
Continuous
 62
     8
370
    15
100
AcDbLine
 10
119.9079210748
 20
73.370221585
 30
0.0
 11
107.0065255155
 21
73.370221585
 31
0.0
  0
LINE
  5
28A
330
1F
100
AcDbEntity
  8
0
  6
Continuous
 62
     8
370
    15
100
AcDbLine
 10
4.90791992
 20
73.370221585
 30
0.0
 11
-8.0920794169
 21
73.370221585
 31
0.0
  0
LINE
  5
28B
330
1F
100
AcDbEntity
  8
0
  6
Continuous
 62
     7
370
    15
100
AcDbLine
 10
-42.9177850285
 20
132.8737847568
 30
0.0
 11
-42.5191244842
 21
133.5642859401
 31
0.0
  0
LINE
  5
28C
330
1F
100
AcDbEntity
  8
0
  6
Continuous
 62
     7
370
    15
100
AcDbLine
 10
-42.5191244842
 20
140.1832848849
 30
0.0
 11
-42.9177850285
 21
140.8737860681
 31
0.0
  0
LINE
  5
28D
330
1F
100
AcDbEntity
  8
0
  6
Continuous
 62
     7
370
    15
100
AcDbLine
 10
-42.9177850285
 20
140.8737860681
 30
0.0
 11
-43.5191246481
 21
140.8737860681
 31
0.0
  0
LINE
  5
28E
330
1F
100
AcDbEntity
  8
0
  6
Continuous
 62
     7
370
    15
100
AcDbLine
 10
-43.5191246481
 20
132.8737847568
 30
0.0
 11
-42.9177850285
 21
132.8737847568
 31
0.0
  0
LINE
  5
28F
330
1F
100
AcDbEntity
  8
0
  6
Continuous
 62
     7
370
    15
100
AcDbLine
 10
-43.5191246481
 20
186.3737851443
 30
0.0
 11
-44.0191247301
 21
186.8737861575
 31
0.0
  0
LINE
  5
290
330
1F
100
AcDbEntity
  8
0
  6
Continuous
 62
     7
370
    15
100
AcDbLine
 10
-78.0191228525
 20
186.8737861575
 30
0.0
 11
-78.5191238658
 21
186.3737851443
 31
0.0
  0
LINE
  5
291
330
1F
100
AcDbEntity
  8
0
  6
Continuous
 62
     7
370
    15
100
AcDbLine
 10
-78.5191238658
 20
87.3737846912
 30
0.0
 11
-78.0191228525
 21
86.8737846674
 31
0.0
  0
LINE
  5
292
330
1F
100
AcDbEntity
  8
0
  6
Continuous
 62
     7
370
    15
100
AcDbLine
 10
-44.0191247301
 20
86.8737846674
 30
0.0
 11
-43.5191246481
 21
87.3737846912
 31
0.0
  0
LINE
  5
293
330
1F
100
AcDbEntity
  8
0
  6
Continuous
 62
     7
370
    15
100
AcDbLine
 10
-43.5191246481
 20
169.3570688428
 30
0.0
 11
-43.5191246481
 21
186.3737851443
 31
0.0
  0
LINE
  5
294
330
1F
100
AcDbEntity
  8
0
  6
Continuous
 62
     7
370
    15
100
AcDbLine
 10
-43.5191246481
 20
140.8737860681
 30
0.0
 11
-43.5191246481
 21
154.3737873496
 31
0.0
  0
LINE
  5
295
330
1F
100
AcDbEntity
  8
0
  6
Continuous
 62
     7
370
    15
100
AcDbLine
 10
-43.5191246481
 20
119.3570680978
 30
0.0
 11
-43.5191246481
 21
132.8737847568
 31
0.0
  0
LINE
  5
296
330
1F
100
AcDbEntity
  8
0
  6
Continuous
 62
     7
370
    15
100
AcDbLine
 10
-43.5191246481
 20
87.3737846912
 30
0.0
 11
-43.5191246481
 21
104.3737847419
 31
0.0
  0
LINE
  5
297
330
1F
100
AcDbEntity
  8
0
  6
Continuous
 62
     7
370
    15
100
AcDbLine
 10
-78.5191238658
 20
104.3737847419
 30
0.0
 11
-78.5191238658
 21
87.3737846912
 31
0.0
  0
LINE
  5
298
330
1F
100
AcDbEntity
  8
0
  6
Continuous
 62
     7
370
    15
100
AcDbLine
 10
-78.5191238658
 20
154.3737873496
 30
0.0
 11
-78.5191238658
 21
119.3737834753
 31
0.0
  0
LINE
  5
299
330
1F
100
AcDbEntity
  8
0
  6
Continuous
 62
     7
370
    15
100
AcDbLine
 10
-78.5191238658
 20
186.3737851443
 30
0.0
 11
-78.5191238658
 21
169.3737879457
 31
0.0
  0
LINE
  5
29A
330
1F
100
AcDbEntity
  8
0
  6
Continuous
 62
     7
370
    15
100
AcDbLine
 10
-99.5191254453
 20
129.3737851145
 30
0.0
 11
-101.5191220479
 21
127.3737847866
 31
0.0
  0
LINE
  5
29B
330
1F
100
AcDbEntity
  8
0
  6
Continuous
 62
     7
370
    15
100
AcDbLine
 10
-101.5191220479
 20
96.3737843619
 30
0.0
 11
-99.5191254453
 21
94.3737844998
 31
0.0
  0
LINE
  5
29C
330
1F
100
AcDbEntity
  8
0
  6
Continuous
 62
     7
370
    15
100
AcDbLine
 10
-99.5191254453
 20
94.3737844998
 30
0.0
 11
-98.7191268043
 21
94.3737844998
 31
0.0
  0
LINE
  5
29D
330
1F
100
AcDbEntity
  8
0
  6
Continuous
 62
     7
370
    15
100
AcDbLine
 10
-98.7191268043
 20
129.3737851145
 30
0.0
 11
-99.5191254453
 21
129.3737851145
 31
0.0
  0
LINE
  5
29E
330
1F
100
AcDbEntity
  8
0
  6
Continuous
 62
     7
370
    15
100
AcDbLine
 10
-98.7191268043
 20
94.3737844998
 30
0.0
 11
-98.5191234188
 21
94.5737846257
 31
0.0
  0
LINE
  5
29F
330
1F
100
AcDbEntity
  8
0
  6
Continuous
 62
     7
370
    15
100
AcDbLine
 10
-98.5191234188
 20
129.1737854542
 30
0.0
 11
-98.7191268043
 21
129.3737851145
 31
0.0
  0
LINE
  5
2A0
330
1F
100
AcDbEntity
  8
0
  6
Continuous
 62
     7
370
    15
100
AcDbLine
 10
-86.7191248373
 20
103.8737855913
 30
0.0
 11
-86.5191251771
 21
104.0737852515
 31
0.0
  0
LINE
  5
2A1
330
1F
100
AcDbEntity
  8
0
  6
Continuous
 62
     7
370
    15
100
AcDbLine
 10
-86.5191251771
 20
119.6737848284
 30
0.0
 11
-86.7191248373
 21
119.8737844886
 31
0.0
  0
LINE
  5
2A2
330
1F
100
AcDbEntity
  8
0
  6
Continuous
 62
     7
370
    15
100
AcDbLine
 10
-93.5191244618
 20
103.8737855913
 30
0.0
 11
-86.7191248373
 21
103.8737855913
 31
0.0
  0
LINE
  5
2A3
330
1F
100
AcDbEntity
  8
0
  6
Continuous
 62
     7
370
    15
100
AcDbLine
 10
-86.7191248373
 20
119.8737844886
 30
0.0
 11
-93.5191244618
 21
119.8737844886
 31
0.0
  0
LINE
  5
2A4
330
1F
100
AcDbEntity
  8
0
  6
Continuous
 62
     7
370
    15
100
AcDbLine
 10
-99.5191254453
 20
179.3737858595
 30
0.0
 11
-101.5191220479
 21
177.3737818064
 31
0.0
  0
LINE
  5
2A5
330
1F
100
AcDbEntity
  8
0
  6
Continuous
 62
     7
370
    15
100
AcDbLine
 10
-101.5191220479
 20
146.3737860383
 30
0.0
 11
-99.5191254453
 21
144.3737857105
 31
0.0
  0
LINE
  5
2A6
330
1F
100
AcDbEntity
  8
0
  6
Continuous
 62
     7
370
    15
100
AcDbLine
 10
-99.5191254453
 20
144.3737857105
 30
0.0
 11
-98.7191268043
 21
144.3737857105
 31
0.0
  0
LINE
  5
2A7
330
1F
100
AcDbEntity
  8
0
  6
Continuous
 62
     7
370
    15
100
AcDbLine
 10
-98.7191268043
 20
179.3737858595
 30
0.0
 11
-99.5191254453
 21
179.3737858595
 31
0.0
  0
LINE
  5
2A8
330
1F
100
AcDbEntity
  8
0
  6
Continuous
 62
     7
370
    15
100
AcDbLine
 10
-98.7191268043
 20
144.3737857105
 30
0.0
 11
-98.5191234188
 21
144.5737853708
 31
0.0
  0
LINE
  5
2A9
330
1F
100
AcDbEntity
  8
0
  6
Continuous
 62
     7
370
    15
100
AcDbLine
 10
-98.5191234188
 20
179.173782474
 30
0.0
 11
-98.7191268043
 21
179.3737858595
 31
0.0
  0
LINE
  5
2AA
330
1F
100
AcDbEntity
  8
0
  6
Continuous
 62
     7
370
    15
100
AcDbLine
 10
-93.5191244618
 20
153.8737863363
 30
0.0
 11
-86.7191248373
 21
153.8737863363
 31
0.0
  0
LINE
  5
2AB
330
1F
100
AcDbEntity
  8
0
  6
Continuous
 62
     7
370
    15
100
AcDbLine
 10
-86.7191248373
 20
169.8737815084
 30
0.0
 11
-93.5191244618
 21
169.8737815084
 31
0.0
  0
LINE
  5
2AC
330
1F
100
AcDbEntity
  8
0
  6
Continuous
 62
     7
370
    15
100
AcDbLine
 10
-86.7191248373
 20
153.8737863363
 30
0.0
 11
-86.5191251771
 21
154.0737822713
 31
0.0
  0
LINE
  5
2AD
330
1F
100
AcDbEntity
  8
0
  6
Continuous
 62
     7
370
    15
100
AcDbLine
 10
-86.5191251771
 20
169.6737855734
 30
0.0
 11
-86.7191248373
 21
169.8737815084
 31
0.0
  0
LINE
  5
2AE
330
1F
100
AcDbEntity
  8
0
  6
Continuous
 62
     7
370
    15
100
AcDbLine
 10
-81.5191262202
 20
129.3737851145
 30
0.0
 11
-82.5191245214
 21
129.3737851145
 31
0.0
  0
LINE
  5
2AF
330
1F
100
AcDbEntity
  8
0
  6
Continuous
 62
     7
370
    15
100
AcDbLine
 10
-82.5191245214
 20
94.3737844998
 30
0.0
 11
-81.5191262202
 21
94.3737844998
 31
0.0
  0
LINE
  5
2B0
330
1F
100
AcDbEntity
  8
0
  6
Continuous
 62
     7
370
    15
100
AcDbLine
 10
-82.5191245214
 20
121.8737848164
 30
0.0
 11
-86.5191251771
 21
121.8737848164
 31
0.0
  0
LINE
  5
2B1
330
1F
100
AcDbEntity
  8
0
  6
Continuous
 62
     7
370
    15
100
AcDbLine
 10
-86.5191251771
 20
101.8737843321
 30
0.0
 11
-82.5191245214
 21
101.8737843321
 31
0.0
  0
LINE
  5
2B2
330
1F
100
AcDbEntity
  8
0
  6
Continuous
 62
     7
370
    15
100
AcDbLine
 10
-98.5191234188
 20
144.3737857105
 30
0.0
 11
-97.5191251175
 21
144.3737857105
 31
0.0
  0
LINE
  5
2B3
330
1F
100
AcDbEntity
  8
0
  6
Continuous
 62
     7
370
    15
100
AcDbLine
 10
-97.5191251175
 20
179.3737858595
 30
0.0
 11
-98.5191234188
 21
179.3737858595
 31
0.0
  0
LINE
  5
2B4
330
1F
100
AcDbEntity
  8
0
  6
Continuous
 62
     7
370
    15
100
AcDbLine
 10
-97.5191251175
 20
151.8737822832
 30
0.0
 11
-93.5191244618
 21
151.8737822832
 31
0.0
  0
LINE
  5
2B5
330
1F
100
AcDbEntity
  8
0
  6
Continuous
 62
     7
370
    15
100
AcDbLine
 10
-93.5191244618
 20
171.8737855615
 30
0.0
 11
-97.5191251175
 21
171.8737855615
 31
0.0
  0
LINE
  5
2B6
330
1F
100
AcDbEntity
  8
0
  6
Continuous
 62
     7
370
    15
100
AcDbLine
 10
-98.5191234188
 20
94.3737844998
 30
0.0
 11
-97.5191251175
 21
94.3737844998
 31
0.0
  0
LINE
  5
2B7
330
1F
100
AcDbEntity
  8
0
  6
Continuous
 62
     7
370
    15
100
AcDbLine
 10
-97.5191251175
 20
129.3737851145
 30
0.0
 11
-98.5191234188
 21
129.3737851145
 31
0.0
  0
LINE
  5
2B8
330
1F
100
AcDbEntity
  8
0
  6
Continuous
 62
     7
370
    15
100
AcDbLine
 10
-97.5191251175
 20
101.8737843321
 30
0.0
 11
-93.5191244618
 21
101.8737843321
 31
0.0
  0
LINE
  5
2B9
330
1F
100
AcDbEntity
  8
0
  6
Continuous
 62
     7
370
    15
100
AcDbLine
 10
-93.5191244618
 20
121.8737848164
 30
0.0
 11
-97.5191251175
 21
121.8737848164
 31
0.0
  0
LINE
  5
2BA
330
1F
100
AcDbEntity
  8
0
  6
Continuous
 62
     7
370
    15
100
AcDbLine
 10
-81.5191262202
 20
179.3737858595
 30
0.0
 11
-82.5191245214
 21
179.3737858595
 31
0.0
  0
LINE
  5
2BB
330
1F
100
AcDbEntity
  8
0
  6
Continuous
 62
     7
370
    15
100
AcDbLine
 10
-82.5191245214
 20
144.3737857105
 30
0.0
 11
-81.5191262202
 21
144.3737857105
 31
0.0
  0
LINE
  5
2BC
330
1F
100
AcDbEntity
  8
0
  6
Continuous
 62
     7
370
    15
100
AcDbLine
 10
-82.5191245214
 20
171.8737855615
 30
0.0
 11
-86.5191251771
 21
171.8737855615
 31
0.0
  0
LINE
  5
2BD
330
1F
100
AcDbEntity
  8
0
  6
Continuous
 62
     7
370
    15
100
AcDbLine
 10
-86.5191251771
 20
151.8737822832
 30
0.0
 11
-82.5191245214
 21
151.8737822832
 31
0.0
  0
LINE
  5
2BE
330
1F
100
AcDbEntity
  8
0
  6
Continuous
 62
     7
370
    15
100
AcDbLine
 10
-81.5191262202
 20
144.3737857105
 30
0.0
 11
-79.5191258924
 21
144.3737857105
 31
0.0
  0
LINE
  5
2BF
330
1F
100
AcDbEntity
  8
0
  6
Continuous
 62
     7
370
    15
100
AcDbLine
 10
-79.5191258924
 20
179.3737858595
 30
0.0
 11
-81.5191262202
 21
179.3737858595
 31
0.0
  0
LINE
  5
2C0
330
1F
100
AcDbEntity
  8
0
  6
Continuous
 62
     7
370
    15
100
AcDbLine
 10
-79.5191258924
 20
153.3737853231
 30
0.0
 11
-78.5191238658
 21
154.3737873496
 31
0.0
  0
LINE
  5
2C1
330
1F
100
AcDbEntity
  8
0
  6
Continuous
 62
     7
370
    15
100
AcDbLine
 10
-78.5191238658
 20
169.3737879457
 30
0.0
 11
-79.5191258924
 21
170.3737825217
 31
0.0
  0
LINE
  5
2C2
330
1F
100
AcDbEntity
  8
0
  6
Continuous
 62
     7
370
    15
100
AcDbLine
 10
-81.5191262202
 20
94.3737844998
 30
0.0
 11
-79.5191258924
 21
94.3737844998
 31
0.0
  0
LINE
  5
2C3
330
1F
100
AcDbEntity
  8
0
  6
Continuous
 62
     7
370
    15
100
AcDbLine
 10
-79.5191258924
 20
129.3737851145
 30
0.0
 11
-81.5191262202
 21
129.3737851145
 31
0.0
  0
LINE
  5
2C4
330
1F
100
AcDbEntity
  8
0
  6
Continuous
 62
     7
370
    15
100
AcDbLine
 10
-79.5191258924
 20
103.373784578
 30
0.0
 11
-78.5191238658
 21
104.3737847419
 31
0.0
  0
LINE
  5
2C5
330
1F
100
AcDbEntity
  8
0
  6
Continuous
 62
     7
370
    15
100
AcDbLine
 10
-78.5191238658
 20
119.3737834753
 30
0.0
 11
-79.5191258924
 21
120.3737855019
 31
0.0
  0
LINE
  5
2C6
330
1F
100
AcDbEntity
  8
0
  6
Continuous
 62
     7
370
    15
100
AcDbLine
 10
-43.3191240565
 20
168.3737859191
 30
0.0
 11
-43.9217000069
 21
168.3737859191
 31
0.0
  0
LINE
  5
2C7
330
1F
100
AcDbEntity
  8
0
  6
Continuous
 62
     7
370
    15
100
AcDbLine
 10
-43.9214457558
 20
155.3737819256
 30
0.0
 11
-43.3191240565
 21
155.3737819256
 31
0.0
  0
ARC
  5
2C8
330
1F
100
AcDbEntity
  8
0
  6
Continuous
 62
     7
370
    15
100
AcDbCircle
 10
-43.3191244915
 20
167.5737846674
 30
0.0
 40
0.7999999999999972
100
AcDbArc
 50
0.0
 51
90.0
  0
ARC
  5
2C9
330
1F
100
AcDbEntity
  8
0
  6
Continuous
 62
     7
370
    15
100
AcDbCircle
 10
-43.3191244915
 20
156.1737846674
 30
0.0
 40
0.8000000000000114
100
AcDbArc
 50
270.0
 51
0.0
  0
LINE
  5
2CA
330
1F
100
AcDbEntity
  8
0
  6
Continuous
 62
     7
370
    15
100
AcDbLine
 10
-43.3191240565
 20
118.3737851741
 30
0.0
 11
-43.9217000069
 21
118.3737851741
 31
0.0
  0
LINE
  5
2CB
330
1F
100
AcDbEntity
  8
0
  6
Continuous
 62
     7
370
    15
100
AcDbLine
 10
-43.9214457558
 20
105.3737849058
 30
0.0
 11
-43.3191240565
 21
105.3737849058
 31
0.0
  0
ARC
  5
2CC
330
1F
100
AcDbEntity
  8
0
  6
Continuous
 62
     7
370
    15
100
AcDbCircle
 10
-43.3191244915
 20
117.5737846674
 30
0.0
 40
0.7999999999999972
100
AcDbArc
 50
0.0
 51
90.0
  0
ARC
  5
2CD
330
1F
100
AcDbEntity
  8
0
  6
Continuous
 62
     7
370
    15
100
AcDbCircle
 10
-43.3191244915
 20
106.1737846674
 30
0.0
 40
0.7999999999999972
100
AcDbArc
 50
270.0
 51
0.0
  0
LINE
  5
2CE
330
1F
100
AcDbEntity
  8
0
  6
Continuous
 62
     7
370
    15
100
AcDbLine
 10
-42.5191244842
 20
140.1832848849
 30
0.0
 11
-42.5191244842
 21
133.5642859401
 31
0.0
  0
LINE
  5
2CF
330
1F
100
AcDbEntity
  8
0
  6
Continuous
 62
     7
370
    15
100
AcDbLine
 10
-42.9177850285
 20
140.8737860681
 30
0.0
 11
-42.9177850285
 21
132.8737847568
 31
0.0
  0
CIRCLE
  5
2D0
330
1F
100
AcDbEntity
  8
0
  6
Continuous
 62
     7
370
    15
100
AcDbCircle
 10
-61.0191244915
 20
136.8737846674
 30
0.0
 40
9.499999999999984
  0
CIRCLE
  5
2D1
330
1F
100
AcDbEntity
  8
0
  6
Continuous
 62
     7
370
    15
100
AcDbCircle
 10
-61.0191244915
 20
136.8737846674
 30
0.0
 40
9.999999999999986
  0
LINE
  5
2D2
330
1F
100
AcDbEntity
  8
0
  6
Continuous
 62
     7
370
    15
100
AcDbLine
 10
-78.0191228525
 20
186.8737861575
 30
0.0
 11
-44.0191247301
 21
186.8737861575
 31
0.0
  0
LINE
  5
2D3
330
1F
100
AcDbEntity
  8
0
  6
Continuous
 62
     7
370
    15
100
AcDbLine
 10
-43.5191246481
 20
186.3737851443
 30
0.0
 11
-78.5191238658
 21
186.3737851443
 31
0.0
  0
LINE
  5
2D4
330
1F
100
AcDbEntity
  8
0
  6
Continuous
 62
     7
370
    15
100
AcDbLine
 10
-78.5191238658
 20
87.3737846912
 30
0.0
 11
-43.5191246481
 21
87.3737846912
 31
0.0
  0
LINE
  5
2D5
330
1F
100
AcDbEntity
  8
0
  6
Continuous
 62
     7
370
    15
100
AcDbLine
 10
-44.0191247301
 20
86.8737846674
 30
0.0
 11
-78.0191228525
 21
86.8737846674
 31
0.0
  0
ARC
  5
2D6
330
1F
100
AcDbEntity
  8
0
  6
Continuous
 62
     7
370
    15
100
AcDbCircle
 10
-26.9877761593
 20
111.8733083751
 30
0.0
 40
18.15291540172051
100
AcDbArc
 50
155.6529817653
 51
204.4016423568
  0
SPLINE
  5
2D7
330
1F
100
AcDbEntity
  8
0
  6
Continuous
 62
     7
370
    15
100
AcDbSpline
210
0.0
220
0.0
230
1.0
 70
     8
 71
     3
 72
    27
 73
    23
 74
     0
 42
0.000000001
 43
0.00000001
 40
0.0
 40
0.0
 40
0.0
 40
0.0
 40
0.0497371959543976
 40
0.1009926479728122
 40
0.1507111841747376
 40
0.2017508601911611
 40
0.2538733720963262
 40
0.3073585560676672
 40
0.3620756273309486
 40
0.4185371900786155
 40
0.4704177024885131
 40
0.5240832559945586
 40
0.5718515302621902
 40
0.6209561581930522
 40
0.6698655212366661
 40
0.7199738662628694
 40
0.7732210621272957
 40
0.8279293190848633
 40
0.8823850967252913
 40
0.9386416345484915
 40
0.9894905474734622
 40
1.0
 40
1.0
 40
1.0
 40
1.0
 10
-78.51912386579424
 20
169.3737879456737
 30
0.0
 10
-78.51129816083677
 20
169.355618782992
 30
0.0
 10
-78.49540786684767
 20
169.3187258336517
 30
0.0
 10
-78.37073004688642
 20
169.0234529923814
 30
0.0
 10
-78.1840626318554
 20
168.5608320241963
 30
0.0
 10
-77.94557994097603
 20
167.9279860625311
 30
0.0
 10
-77.67333083830013
 20
167.1268243923783
 30
0.0
 10
-77.39216228808817
 20
166.1645321557751
 30
0.0
 10
-77.13198106971093
 20
165.0480101642757
 30
0.0
 10
-76.93587949975463
 20
163.8372732064297
 30
0.0
 10
-76.82905177108859
 20
162.5681687331818
 30
0.0
 10
-76.82393151789779
 20
161.3428837829493
 30
0.0
 10
-76.91014780424354
 20
160.1588444675746
 30
0.0
 10
-77.06734327198431
 20
159.0598958344079
 30
0.0
 10
-77.28391835545179
 20
158.0193765598084
 30
0.0
 10
-77.5420406852909
 20
157.0498662593547
 30
0.0
 10
-77.82170363757537
 20
156.1706031835902
 30
0.0
 10
-78.09107207784109
 20
155.4257720022079
 30
0.0
 10
-78.32047628494837
 20
154.8455299499964
 30
0.0
 10
-78.46447664731707
 20
154.5010993984643
 30
0.0
 10
-78.5272462904047
 20
154.3547713530003
 30
0.0
 10
-78.51421455770448
 20
154.3852744376906
 30
0.0
 10
-78.51198248429209
 20
154.3904990019062
 30
0.0
  0
SPLINE
  5
2D8
330
1F
100
AcDbEntity
  8
0
  6
Continuous
 62
     7
370
    15
100
AcDbSpline
210
0.0
220
0.0
230
1.0
 70
     8
 71
     3
 72
    27
 73
    23
 74
     0
 42
0.000000001
 43
0.00000001
 40
0.0
 40
0.0
 40
0.0
 40
0.0
 40
0.0497371693242154
 40
0.1009926193304085
 40
0.1507112135227103
 40
0.2017508470397944
 40
0.2538734070490141
 40
0.3073584712165543
 40
0.3620756068060988
 40
0.4185370946449076
 40
0.4704176817190407
 40
0.5240832331182473
 40
0.5718516596430937
 40
0.62095613788424
 40
0.6698656368132939
 40
0.7199738549335394
 40
0.7732210487075508
 40
0.8279293934782204
 40
0.8823850667938495
 40
0.9386416241511637
 40
0.9894905439720055
 40
1.0
 40
1.0
 40
1.0
 40
1.0
 10
-78.51912386579424
 20
119.3737834753254
 30
0.0
 10
-78.51129816476167
 20
119.3556173315372
 30
0.0
 10
-78.49540787474083
 20
119.3187305028489
 30
0.0
 10
-78.37072987776821
 20
119.0234566511867
 30
0.0
 10
-78.18406296076678
 20
118.5608299817924
 30
0.0
 10
-77.945579545985
 20
117.9279881132441
 30
0.0
 10
-77.67333149980848
 20
117.1268233045245
 30
0.0
 10
-77.39216158959917
 20
116.1645349480281
 30
0.0
 10
-77.13198155406562
 20
115.0480117427877
 30
0.0
 10
-76.93587918576533
 20
113.8372752799332
 30
0.0
 10
-76.82905182529817
 20
112.5681703415444
 30
0.0
 10
-76.82393170402779
 20
111.3428838231863
 30
0.0
 10
-76.91014722714245
 20
110.1588438829011
 30
0.0
 10
-77.06734409641344
 20
109.0598954454394
 30
0.0
 10
-77.28391746522261
 20
108.0193749709731
 30
0.0
 10
-77.54204117378166
 20
107.0498669317292
 30
0.0
 10
-77.82170389871196
 20
106.1706049983794
 30
0.0
 10
-78.09107149366415
 20
105.425767627239
 30
0.0
 10
-78.32047663606981
 20
104.8455346113336
 30
0.0
 10
-78.46447657229275
 20
104.5011015765696
 30
0.0
 10
-78.52724629181337
 20
104.3547677573708
 30
0.0
 10
-78.51421455822246
 20
104.3852748653191
 30
0.0
 10
-78.51198248429209
 20
104.3905001194933
 30
0.0
  0
ARC
  5
2D9
330
1F
100
AcDbEntity
  8
0
  6
Continuous
 62
     7
370
    15
100
AcDbCircle
 10
-26.9877990007
 20
161.8733100415
 30
0.0
 40
18.15289421183773
100
AcDbArc
 50
155.6529546933
 51
204.4016694356
  0
LINE
  5
2DA
330
1F
100
AcDbEntity
  8
0
  6
Continuous
 62
     7
370
    15
100
AcDbLine
 10
-101.5191220479
 20
96.3737843619
 30
0.0
 11
-101.5191220479
 21
127.3737847866
 31
0.0
  0
LINE
  5
2DB
330
1F
100
AcDbEntity
  8
0
  6
Continuous
 62
     7
370
    15
100
AcDbLine
 10
-99.5191254453
 20
94.376764732
 30
0.0
 11
-99.5191254453
 21
94.3737844998
 31
0.0
  0
LINE
  5
2DC
330
1F
100
AcDbEntity
  8
0
  6
Continuous
 62
     7
370
    15
100
AcDbLine
 10
-99.5191254453
 20
129.3737851145
 30
0.0
 11
-99.5191254453
 21
94.376764732
 31
0.0
  0
LINE
  5
2DD
330
1F
100
AcDbEntity
  8
0
  6
Continuous
 62
     7
370
    15
100
AcDbLine
 10
-98.7191268043
 20
94.3737844998
 30
0.0
 11
-98.7191268043
 21
129.3737851145
 31
0.0
  0
LINE
  5
2DE
330
1F
100
AcDbEntity
  8
0
  6
Continuous
 62
     7
370
    15
100
AcDbLine
 10
-86.7191248373
 20
103.8737855913
 30
0.0
 11
-86.7191248373
 21
119.8737844886
 31
0.0
  0
LINE
  5
2DF
330
1F
100
AcDbEntity
  8
0
  6
Continuous
 62
     7
370
    15
100
AcDbLine
 10
-101.5191220479
 20
146.3737860383
 30
0.0
 11
-101.5191220479
 21
177.3737818064
 31
0.0
  0
LINE
  5
2E0
330
1F
100
AcDbEntity
  8
0
  6
Continuous
 62
     7
370
    15
100
AcDbLine
 10
-99.5191254453
 20
144.3767659427
 30
0.0
 11
-99.5191254453
 21
144.3737857105
 31
0.0
  0
LINE
  5
2E1
330
1F
100
AcDbEntity
  8
0
  6
Continuous
 62
     7
370
    15
100
AcDbLine
 10
-99.5191254453
 20
179.3737858595
 30
0.0
 11
-99.5191254453
 21
144.3767659427
 31
0.0
  0
LINE
  5
2E2
330
1F
100
AcDbEntity
  8
0
  6
Continuous
 62
     7
370
    15
100
AcDbLine
 10
-98.7191268043
 20
144.3737857105
 30
0.0
 11
-98.7191268043
 21
179.3737858595
 31
0.0
  0
LINE
  5
2E3
330
1F
100
AcDbEntity
  8
0
  6
Continuous
 62
     7
370
    15
100
AcDbLine
 10
-86.7191248373
 20
153.8737863363
 30
0.0
 11
-86.7191248373
 21
169.8737815084
 31
0.0
  0
LINE
  5
2E4
330
1F
100
AcDbEntity
  8
0
  6
Continuous
 62
     7
370
    15
100
AcDbLine
 10
-82.5191245214
 20
128.8428008618
 30
0.0
 11
-82.5191245214
 21
94.3737844998
 31
0.0
  0
LINE
  5
2E5
330
1F
100
AcDbEntity
  8
0
  6
Continuous
 62
     7
370
    15
100
AcDbLine
 10
-82.5191245214
 20
129.3737851145
 30
0.0
 11
-82.5191245214
 21
128.8428008618
 31
0.0
  0
LINE
  5
2E6
330
1F
100
AcDbEntity
  8
0
  6
Continuous
 62
     7
370
    15
100
AcDbLine
 10
-81.5191262202
 20
128.8428008618
 30
0.0
 11
-81.5191262202
 21
94.3737844998
 31
0.0
  0
LINE
  5
2E7
330
1F
100
AcDbEntity
  8
0
  6
Continuous
 62
     7
370
    15
100
AcDbLine
 10
-81.5191262202
 20
129.3737851145
 30
0.0
 11
-81.5191262202
 21
128.8428008618
 31
0.0
  0
LINE
  5
2E8
330
1F
100
AcDbEntity
  8
0
  6
Continuous
 62
     7
370
    15
100
AcDbLine
 10
-86.5191251771
 20
121.5703636469
 30
0.0
 11
-86.5191251771
 21
101.8737843321
 31
0.0
  0
LINE
  5
2E9
330
1F
100
AcDbEntity
  8
0
  6
Continuous
 62
     7
370
    15
100
AcDbLine
 10
-86.5191251771
 20
121.8737848164
 30
0.0
 11
-86.5191251771
 21
121.5703636469
 31
0.0
  0
LINE
  5
2EA
330
1F
100
AcDbEntity
  8
0
  6
Continuous
 62
     7
370
    15
100
AcDbLine
 10
-97.5191251175
 20
144.3737857105
 30
0.0
 11
-97.5191251175
 21
179.3737858595
 31
0.0
  0
LINE
  5
2EB
330
1F
100
AcDbEntity
  8
0
  6
Continuous
 62
     7
370
    15
100
AcDbLine
 10
-98.5191234188
 20
144.3737857105
 30
0.0
 11
-98.5191234188
 21
179.3737858595
 31
0.0
  0
LINE
  5
2EC
330
1F
100
AcDbEntity
  8
0
  6
Continuous
 62
     7
370
    15
100
AcDbLine
 10
-93.5191244618
 20
151.8737822832
 30
0.0
 11
-93.5191244618
 21
171.8737855615
 31
0.0
  0
LINE
  5
2ED
330
1F
100
AcDbEntity
  8
0
  6
Continuous
 62
     7
370
    15
100
AcDbLine
 10
-97.5191251175
 20
94.3737844998
 30
0.0
 11
-97.5191251175
 21
129.3737851145
 31
0.0
  0
LINE
  5
2EE
330
1F
100
AcDbEntity
  8
0
  6
Continuous
 62
     7
370
    15
100
AcDbLine
 10
-98.5191234188
 20
94.3737844998
 30
0.0
 11
-98.5191234188
 21
129.3737851145
 31
0.0
  0
LINE
  5
2EF
330
1F
100
AcDbEntity
  8
0
  6
Continuous
 62
     7
370
    15
100
AcDbLine
 10
-93.5191244618
 20
101.8737843321
 30
0.0
 11
-93.5191244618
 21
121.8737848164
 31
0.0
  0
LINE
  5
2F0
330
1F
100
AcDbEntity
  8
0
  6
Continuous
 62
     7
370
    15
100
AcDbLine
 10
-82.5191245214
 20
178.8427978815
 30
0.0
 11
-82.5191245214
 21
144.3737857105
 31
0.0
  0
LINE
  5
2F1
330
1F
100
AcDbEntity
  8
0
  6
Continuous
 62
     7
370
    15
100
AcDbLine
 10
-82.5191245214
 20
179.3737858595
 30
0.0
 11
-82.5191245214
 21
178.8427978815
 31
0.0
  0
LINE
  5
2F2
330
1F
100
AcDbEntity
  8
0
  6
Continuous
 62
     7
370
    15
100
AcDbLine
 10
-81.5191262202
 20
178.8427978815
 30
0.0
 11
-81.5191262202
 21
144.3737857105
 31
0.0
  0
LINE
  5
2F3
330
1F
100
AcDbEntity
  8
0
  6
Continuous
 62
     7
370
    15
100
AcDbLine
 10
-81.5191262202
 20
179.3737858595
 30
0.0
 11
-81.5191262202
 21
178.8427978815
 31
0.0
  0
LINE
  5
2F4
330
1F
100
AcDbEntity
  8
0
  6
Continuous
 62
     7
370
    15
100
AcDbLine
 10
-86.5191251771
 20
171.5703681173
 30
0.0
 11
-86.5191251771
 21
151.8737822832
 31
0.0
  0
LINE
  5
2F5
330
1F
100
AcDbEntity
  8
0
  6
Continuous
 62
     7
370
    15
100
AcDbLine
 10
-86.5191251771
 20
171.8737855615
 30
0.0
 11
-86.5191251771
 21
171.5703681173
 31
0.0
  0
LINE
  5
2F6
330
1F
100
AcDbEntity
  8
0
  6
Continuous
 62
     7
370
    15
100
AcDbLine
 10
-79.5191258924
 20
144.3737857105
 30
0.0
 11
-79.5191258924
 21
179.3737858595
 31
0.0
  0
LINE
  5
2F7
330
1F
100
AcDbEntity
  8
0
  6
Continuous
 62
     7
370
    15
100
AcDbLine
 10
-81.5191262202
 20
144.3737857105
 30
0.0
 11
-81.5191262202
 21
179.3737858595
 31
0.0
  0
LINE
  5
2F8
330
1F
100
AcDbEntity
  8
0
  6
Continuous
 62
     7
370
    15
100
AcDbLine
 10
-78.5191238658
 20
169.3737879457
 30
0.0
 11
-78.5191238658
 21
154.3737873496
 31
0.0
  0
LINE
  5
2F9
330
1F
100
AcDbEntity
  8
0
  6
Continuous
 62
     7
370
    15
100
AcDbLine
 10
-79.5191258924
 20
94.3737844998
 30
0.0
 11
-79.5191258924
 21
129.3737851145
 31
0.0
  0
LINE
  5
2FA
330
1F
100
AcDbEntity
  8
0
  6
Continuous
 62
     7
370
    15
100
AcDbLine
 10
-81.5191262202
 20
94.3737844998
 30
0.0
 11
-81.5191262202
 21
129.3737851145
 31
0.0
  0
LINE
  5
2FB
330
1F
100
AcDbEntity
  8
0
  6
Continuous
 62
     7
370
    15
100
AcDbLine
 10
-78.5191238658
 20
119.3737834753
 30
0.0
 11
-78.5191238658
 21
104.3737847419
 31
0.0
  0
LINE
  5
2FC
330
1F
100
AcDbEntity
  8
0
  6
Continuous
 62
     7
370
    15
100
AcDbLine
 10
-42.5191244842
 20
167.5737872781
 30
0.0
 11
-42.5191244842
 21
156.1737880172
 31
0.0
  0
LINE
  5
2FD
330
1F
100
AcDbEntity
  8
0
  6
Continuous
 62
     7
370
    15
100
AcDbLine
 10
-42.5191244842
 20
117.5737846704
 30
0.0
 11
-42.5191244842
 21
106.1737854095
 31
0.0
  0
LINE
  5
2FE
330
1F
100
AcDbEntity
  8
0
  6
Continuous
 62
     8
370
    15
100
AcDbLine
 10
-43.3191240565
 20
155.3737819256
 30
0.0
 11
-43.3191240565
 21
168.3737859191
 31
0.0
  0
LINE
  5
2FF
330
1F
100
AcDbEntity
  8
0
  6
Continuous
 62
     8
370
    15
100
AcDbLine
 10
-43.3191240565
 20
105.3737849058
 30
0.0
 11
-43.3191240565
 21
118.3737851741
 31
0.0
  0
ENDSEC
  0
SECTION
  2
OBJECTS
  0
DICTIONARY
  5
C
330
0
100
AcDbDictionary
281
     1
  3
ACAD_GROUP
350
D
  3
ACAD_LAYOUT
350
1A
  3
ACAD_MLINESTYLE
350
17
  3
ACAD_PLOTSETTINGS
350
19
  3
ACAD_PLOTSTYLENAME
350
E
  3
ACAD_SCALELIST
350
47
  0
DICTIONARY
  5
D
102
{ACAD_REACTORS
330
C
102
}
330
C
100
AcDbDictionary
281
     1
  0
DICTIONARY
  5
1A
102
{ACAD_REACTORS
330
C
102
}
330
C
100
AcDbDictionary
281
     1
  3
Layout1
350
1E
  3
Layout2
350
26
  3
Model
350
22
  0
DICTIONARY
  5
17
102
{ACAD_REACTORS
330
C
102
}
330
C
100
AcDbDictionary
281
     1
  3
Standard
350
18
  0
DICTIONARY
  5
19
102
{ACAD_REACTORS
330
C
102
}
330
C
100
AcDbDictionary
281
     1
  0
ACDBDICTIONARYWDFLT
  5
E
102
{ACAD_REACTORS
330
C
102
}
330
C
100
AcDbDictionary
281
     1
  3
Normal
350
F
100
AcDbDictionaryWithDefault
340
F
  0
DICTIONARY
  5
47
102
{ACAD_REACTORS
330
C
102
}
330
C
100
AcDbDictionary
281
     1
  3
A0
350
48
  3
A1
350
49
  3
A2
350
4A
  3
A3
350
4B
  3
A4
350
4C
  3
A5
350
4D
  3
A6
350
4E
  3
A7
350
4F
  3
A8
350
50
  3
A9
350
51
  3
B0
350
52
  3
B1
350
53
  3
B2
350
54
  3
B3
350
55
  3
B4
350
56
  3
B5
350
57
  3
B6
350
58
  3
B7
350
59
  3
B8
350
5A
  3
B9
350
5B
  3
C0
350
5C
  3
C1
350
5D
  3
C2
350
5E
  3
C3
350
5F
  3
C4
350
60
  3
C5
350
61
  3
C6
350
62
  3
C7
350
63
  3
C8
350
64
  3
C9
350
65
  3
D0
350
66
  3
D1
350
67
  3
D2
350
68
  0
LAYOUT
  5
1E
102
{ACAD_REACTORS
330
1A
102
}
330
1A
100
AcDbPlotSettings
  1

  2
none_device
  4

  6

 40
0.0
 41
0.0
 42
0.0
 43
0.0
 44
0.0
 45
0.0
 46
0.0
 47
0.0
 48
0.0
 49
0.0
140
0.0
141
0.0
142
1.0
143
1.0
 70
   688
 72
     1
 73
     0
 74
     5
  7

 75
    16
147
1.0
148
0.0
149
0.0
100
AcDbLayout
  1
Layout1
 70
     1
 71
     1
 10
0.0
 20
0.0
 11
420.0
 21
297.0
 12
0.0
 22
0.0
 32
0.0
 14
1.0000000000E+20
 24
1.0000000000E+20
 34
1.0000000000E+20
 15
-1.0000000000E+20
 25
-1.0000000000E+20
 35
-1.0000000000E+20
146
0.0
 13
0.0
 23
0.0
 33
0.0
 16
1.0
 26
0.0
 36
0.0
 17
0.0
 27
1.0
 37
0.0
 76
     0
330
1B
  0
LAYOUT
  5
26
102
{ACAD_REACTORS
330
1A
102
}
330
1A
100
AcDbPlotSettings
  1

  2
none_device
  4

  6

 40
0.0
 41
0.0
 42
0.0
 43
0.0
 44
0.0
 45
0.0
 46
0.0
 47
0.0
 48
0.0
 49
0.0
140
0.0
141
0.0
142
1.0
143
1.0
 70
   688
 72
     1
 73
     0
 74
     5
  7

 75
    16
147
1.0
148
0.0
149
0.0
100
AcDbLayout
  1
Layout2
 70
     1
 71
     2
 10
0.0
 20
0.0
 11
0.0
 21
0.0
 12
0.0
 22
0.0
 32
0.0
 14
0.0
 24
0.0
 34
0.0
 15
0.0
 25
0.0
 35
0.0
146
0.0
 13
0.0
 23
0.0
 33
0.0
 16
1.0
 26
0.0
 36
0.0
 17
0.0
 27
1.0
 37
0.0
 76
     0
330
23
  0
LAYOUT
  5
22
102
{ACAD_REACTORS
330
1A
102
}
330
1A
100
AcDbPlotSettings
  1

  2
none_device
  4
Letter_(8.50_x_11.00_Inches)
  6

 40
6.35
 41
6.35
 42
6.35000508
 43
6.35000508
 44
215.9
 45
279.4
 46
0.0
 47
0.0
 48
0.0
 49
0.0
140
0.0
141
0.0
142
1.0
143
1.0
 70
  1712
 72
     1
 73
     0
 74
     0
  7

 75
     0
147
1.0
148
0.0
149
0.0
100
AcDbLayout
  1
Model
 70
     1
 71
     0
 10
0.0
 20
0.0
 11
279.4
 21
215.9
 12
0.0
 22
0.0
 32
0.0
 14
0.0
 24
0.0
 34
0.0
 15
279.4
 25
215.9
 35
0.0
146
0.0
 13
0.0
 23
0.0
 33
0.0
 16
1.0
 26
0.0
 36
0.0
 17
0.0
 27
1.0
 37
0.0
 76
     0
330
1F
331
29
  0
MLINESTYLE
  5
18
102
{ACAD_REACTORS
330
17
102
}
330
17
100
AcDbMlineStyle
  2
Standard
 70
     0
  3

 62
   256
 51
90.0
 52
90.0
 71
     2
 49
0.5
 62
   256
  6
BYLAYER
 49
-0.5
 62
   256
  6
BYLAYER
  0
ACDBPLACEHOLDER
  5
F
102
{ACAD_REACTORS
330
E
102
}
330
E
  0
SCALE
  5
48
102
{ACAD_REACTORS
330
47
102
}
330
47
100
AcDbScale
 70
     0
300
1:1
140
1.0
141
1.0
290
     1
  0
SCALE
  5
49
102
{ACAD_REACTORS
330
47
102
}
330
47
100
AcDbScale
 70
     0
300
1:2
140
1.0
141
2.0
290
     0
  0
SCALE
  5
4A
102
{ACAD_REACTORS
330
47
102
}
330
47
100
AcDbScale
 70
     0
300
1:4
140
1.0
141
4.0
290
     0
  0
SCALE
  5
4B
102
{ACAD_REACTORS
330
47
102
}
330
47
100
AcDbScale
 70
     0
300
1:5
140
1.0
141
5.0
290
     0
  0
SCALE
  5
4C
102
{ACAD_REACTORS
330
47
102
}
330
47
100
AcDbScale
 70
     0
300
1:8
140
1.0
141
8.0
290
     0
  0
SCALE
  5
4D
102
{ACAD_REACTORS
330
47
102
}
330
47
100
AcDbScale
 70
     0
300
1:10
140
1.0
141
10.0
290
     0
  0
SCALE
  5
4E
102
{ACAD_REACTORS
330
47
102
}
330
47
100
AcDbScale
 70
     0
300
1:16
140
1.0
141
16.0
290
     0
  0
SCALE
  5
4F
102
{ACAD_REACTORS
330
47
102
}
330
47
100
AcDbScale
 70
     0
300
1:20
140
1.0
141
20.0
290
     0
  0
SCALE
  5
50
102
{ACAD_REACTORS
330
47
102
}
330
47
100
AcDbScale
 70
     0
300
1:30
140
1.0
141
30.0
290
     0
  0
SCALE
  5
51
102
{ACAD_REACTORS
330
47
102
}
330
47
100
AcDbScale
 70
     0
300
1:40
140
1.0
141
40.0
290
     0
  0
SCALE
  5
52
102
{ACAD_REACTORS
330
47
102
}
330
47
100
AcDbScale
 70
     0
300
1:50
140
1.0
141
50.0
290
     0
  0
SCALE
  5
53
102
{ACAD_REACTORS
330
47
102
}
330
47
100
AcDbScale
 70
     0
300
1:100
140
1.0
141
100.0
290
     0
  0
SCALE
  5
54
102
{ACAD_REACTORS
330
47
102
}
330
47
100
AcDbScale
 70
     0
300
2:1
140
2.0
141
1.0
290
     0
  0
SCALE
  5
55
102
{ACAD_REACTORS
330
47
102
}
330
47
100
AcDbScale
 70
     0
300
4:1
140
4.0
141
1.0
290
     0
  0
SCALE
  5
56
102
{ACAD_REACTORS
330
47
102
}
330
47
100
AcDbScale
 70
     0
300
8:1
140
8.0
141
1.0
290
     0
  0
SCALE
  5
57
102
{ACAD_REACTORS
330
47
102
}
330
47
100
AcDbScale
 70
     0
300
10:1
140
10.0
141
1.0
290
     0
  0
SCALE
  5
58
102
{ACAD_REACTORS
330
47
102
}
330
47
100
AcDbScale
 70
     0
300
100:1
140
100.0
141
1.0
290
     0
  0
SCALE
  5
59
102
{ACAD_REACTORS
330
47
102
}
330
47
100
AcDbScale
 70
     0
300
1/128" = 1'-0"
140
0.0078125
141
12.0
290
     0
  0
SCALE
  5
5A
102
{ACAD_REACTORS
330
47
102
}
330
47
100
AcDbScale
 70
     0
300
1/64" = 1'-0"
140
0.015625
141
12.0
290
     0
  0
SCALE
  5
5B
102
{ACAD_REACTORS
330
47
102
}
330
47
100
AcDbScale
 70
     0
300
1/32" = 1'-0"
140
0.03125
141
12.0
290
     0
  0
SCALE
  5
5C
102
{ACAD_REACTORS
330
47
102
}
330
47
100
AcDbScale
 70
     0
300
1/16" = 1'-0"
140
0.0625
141
12.0
290
     0
  0
SCALE
  5
5D
102
{ACAD_REACTORS
330
47
102
}
330
47
100
AcDbScale
 70
     0
300
3/32" = 1'-0"
140
0.09375
141
12.0
290
     0
  0
SCALE
  5
5E
102
{ACAD_REACTORS
330
47
102
}
330
47
100
AcDbScale
 70
     0
300
1/8" = 1'-0"
140
0.125
141
12.0
290
     0
  0
SCALE
  5
5F
102
{ACAD_REACTORS
330
47
102
}
330
47
100
AcDbScale
 70
     0
300
3/16" = 1'-0"
140
0.1875
141
12.0
290
     0
  0
SCALE
  5
60
102
{ACAD_REACTORS
330
47
102
}
330
47
100
AcDbScale
 70
     0
300
1/4" = 1'-0"
140
0.25
141
12.0
290
     0
  0
SCALE
  5
61
102
{ACAD_REACTORS
330
47
102
}
330
47
100
AcDbScale
 70
     0
300
3/8" = 1'-0"
140
0.375
141
12.0
290
     0
  0
SCALE
  5
62
102
{ACAD_REACTORS
330
47
102
}
330
47
100
AcDbScale
 70
     0
300
1/2" = 1'-0"
140
0.5
141
12.0
290
     0
  0
SCALE
  5
63
102
{ACAD_REACTORS
330
47
102
}
330
47
100
AcDbScale
 70
     0
300
3/4" = 1'-0"
140
0.75
141
12.0
290
     0
  0
SCALE
  5
64
102
{ACAD_REACTORS
330
47
102
}
330
47
100
AcDbScale
 70
     0
300
1" = 1'-0"
140
1.0
141
12.0
290
     0
  0
SCALE
  5
65
102
{ACAD_REACTORS
330
47
102
}
330
47
100
AcDbScale
 70
     0
300
1-1/2" = 1'-0"
140
1.5
141
12.0
290
     0
  0
SCALE
  5
66
102
{ACAD_REACTORS
330
47
102
}
330
47
100
AcDbScale
 70
     0
300
3" = 1'-0"
140
3.0
141
12.0
290
     0
  0
SCALE
  5
67
102
{ACAD_REACTORS
330
47
102
}
330
47
100
AcDbScale
 70
     0
300
6" = 1'-0"
140
6.0
141
12.0
290
     0
  0
SCALE
  5
68
102
{ACAD_REACTORS
330
47
102
}
330
47
100
AcDbScale
 70
     0
300
1'-0" = 1'-0"
140
12.0
141
12.0
290
     0
  0
ENDSEC
  0
EOF
