  0
SECTION
  2
HEADER
  9
$ACADVER
  1
AC1014
  9
$ACADMAINTVER
 70
     9
  9
$DWGCODEPAGE
  3
ANSI_1252
  9
$INSBASE
 10
0.0
 20
0.0
 30
0.0
  9
$EXTMIN
 10
0.0
 20
0.0
 30
0.0
  9
$EXTMAX
 10
279.4
 20
215.9
 30
0.0
  9
$LIMMIN
 10
0.0
 20
0.0
  9
$LIMMAX
 10
279.4
 20
215.9
  9
$ORTHOMODE
 70
     0
  9
$REGENMODE
 70
     1
  9
$FILLMODE
 70
     1
  9
$QTEXTMODE
 70
     0
  9
$MIRRTEXT
 70
     1
  9
$DRAGMODE
 70
     2
  9
$LTSCALE
 40
1.0
  9
$OSMODE
 70
    37
  9
$ATTMODE
 70
     1
  9
$TEXTSIZE
 40
3.5
  9
$TRACEWID
 40
1.0
  9
$TEXTSTYLE
  7
STANDARD
  9
$CLAYER
  8
0
  9
$CELTYPE
  6
BYLAYER
  9
$CECOLOR
 62
   256
  9
$CELTSCALE
 40
1.0
  9
$DELOBJ
 70
     1
  9
$DISPSILH
 70
     0
  9
$DIMSCALE
 40
1.0
  9
$DIMASZ
 40
3.302
  9
$DIMEXO
 40
1.0
  9
$DIMDLI
 40
3.75
  9
$DIMRND
 40
0.0
  9
$DIMDLE
 40
0.0
  9
$DIMEXE
 40
1.0
  9
$DIMTP
 40
0.0
  9
$DIMTM
 40
0.0
  9
$DIMTXT
 40
3.5
  9
$DIMCEN
 40
2.5
  9
$DIMTSZ
 40
0.0
  9
$DIMTOL
 70
     0
  9
$DIMLIM
 70
     0
  9
$DIMTIH
 70
     1
  9
$DIMTOH
 70
     1
  9
$DIMSE1
 70
     0
  9
$DIMSE2
 70
     0
  9
$DIMTAD
 70
     1
  9
$DIMZIN
 70
     1
  9
$DIMBLK
  1

  9
$DIMASO
 70
     1
  9
$DIMSHO
 70
     1
  9
$DIMPOST
  1

  9
$DIMAPOST
  1

  9
$DIMALT
 70
     0
  9
$DIMALTD
 70
     3
  9
$DIMALTF
 40
0.0393700787
  9
$DIMLFAC
 40
5.0
  9
$DIMTOFL
 70
     1
  9
$DIMTVP
 40
0.0
  9
$DIMTIX
 70
     0
  9
$DIMSOXD
 70
     0
  9
$DIMSAH
 70
     0
  9
$DIMBLK1
  1

  9
$DIMBLK2
  1

  9
$DIMSTYLE
  2
ISO-25
  9
$DIMCLRD
 70
     0
  9
$DIMCLRE
 70
     0
  9
$DIMCLRT
 70
     0
  9
$DIMTFAC
 40
1.0
  9
$DIMGAP
 40
1.524
  9
$DIMJUST
 70
     0
  9
$DIMSD1
 70
     0
  9
$DIMSD2
 70
     0
  9
$DIMTOLJ
 70
     0
  9
$DIMTZIN
 70
     1
  9
$DIMALTZ
 70
     0
  9
$DIMALTTZ
 70
     0
  9
$DIMFIT
 70
     3
  9
$DIMUPT
 70
     0
  9
$DIMUNIT
 70
     2
  9
$DIMDEC
 70
     2
  9
$DIMTDEC
 70
     2
  9
$DIMALTU
 70
     2
  9
$DIMALTTD
 70
     3
  9
$DIMTXSTY
  7
STANDARD
  9
$DIMAUNIT
 70
     0
  9
$LUNITS
 70
     2
  9
$LUPREC
 70
     2
  9
$SKETCHINC
 40
1.0
  9
$FILLETRAD
 40
0.0
  9
$AUNITS
 70
     0
  9
$AUPREC
 70
     2
  9
$MENU
  1
.
  9
$ELEVATION
 40
0.0
  9
$PELEVATION
 40
0.0
  9
$THICKNESS
 40
0.0
  9
$LIMCHECK
 70
     0
  9
$CHAMFERA
 40
0.0
  9
$CHAMFERB
 40
0.0
  9
$CHAMFERC
 40
0.0
  9
$CHAMFERD
 40
0.0
  9
$SKPOLY
 70
     0
  9
$TDCREATE
 40
2459594.47952566
  9
$TDUPDATE
 40
2459594.479526482
  9
$TDINDWG
 40
0.0000000116
  9
$TDUSRTIMER
 40
0.0000000116
  9
$USRTIMER
 70
     1
  9
$ANGBASE
 50
0.0
  9
$ANGDIR
 70
     0
  9
$PDMODE
 70
     0
  9
$PDSIZE
 40
-1.0
  9
$PLINEWID
 40
0.0
  9
$COORDS
 70
     1
  9
$SPLFRAME
 70
     0
  9
$SPLINETYPE
 70
     6
  9
$SPLINESEGS
 70
     8
  9
$ATTDIA
 70
     0
  9
$ATTREQ
 70
     1
  9
$HANDLING
 70
     1
  9
$HANDSEED
  5
520
  9
$SURFTAB1
 70
     6
  9
$SURFTAB2
 70
     6
  9
$SURFTYPE
 70
     6
  9
$SURFU
 70
     6
  9
$SURFV
 70
     6
  9
$UCSNAME
  2

  9
$UCSORG
 10
0.0
 20
0.0
 30
0.0
  9
$UCSXDIR
 10
1.0
 20
0.0
 30
0.0
  9
$UCSYDIR
 10
0.0
 20
1.0
 30
0.0
  9
$PUCSNAME
  2

  9
$PUCSORG
 10
0.0
 20
0.0
 30
0.0
  9
$PUCSXDIR
 10
1.0
 20
0.0
 30
0.0
  9
$PUCSYDIR
 10
0.0
 20
1.0
 30
0.0
  9
$USERI1
 70
     0
  9
$USERI2
 70
     0
  9
$USERI3
 70
     0
  9
$USERI4
 70
     0
  9
$USERI5
 70
     0
  9
$USERR1
 40
0.0
  9
$USERR2
 40
0.0
  9
$USERR3
 40
0.0
  9
$USERR4
 40
0.0
  9
$USERR5
 40
0.0
  9
$WORLDVIEW
 70
     1
  9
$SHADEDGE
 70
     3
  9
$SHADEDIF
 70
    70
  9
$TILEMODE
 70
     1
  9
$MAXACTVP
 70
    64
  9
$PINSBASE
 10
0.0
 20
0.0
 30
0.0
  9
$PLIMCHECK
 70
     0
  9
$PEXTMIN
 10
1.0000000000E+20
 20
1.0000000000E+20
 30
1.0000000000E+20
  9
$PEXTMAX
 10
-1.0000000000E+20
 20
-1.0000000000E+20
 30
-1.0000000000E+20
  9
$PLIMMIN
 10
0.0
 20
0.0
  9
$PLIMMAX
 10
420.0
 20
297.0
  9
$UNITMODE
 70
     0
  9
$VISRETAIN
 70
     1
  9
$PLINEGEN
 70
     0
  9
$PSLTSCALE
 70
     1
  9
$TREEDEPTH
 70
  3020
  9
$PICKSTYLE
 70
     1
  9
$CMLSTYLE
  2
STANDARD
  9
$CMLJUST
 70
     0
  9
$CMLSCALE
 40
20.0
  9
$PROXYGRAPHICS
 70
     1
  9
$MEASUREMENT
 70
     1
  0
ENDSEC
  0
SECTION
  2
CLASSES
  0
CLASS
  1
ACDBDICTIONARYWDFLT
  2
AcDbDictionaryWithDefault
  3
ObjectDBX Classes
 90
        0
280
     0
281
     0
  0
CLASS
  1
VISUALSTYLE
  2
AcDbVisualStyle
  3
ObjectDBX Classes
 90
     4095
280
     0
281
     0
  0
CLASS
  1
MATERIAL
  2
AcDbMaterial
  3
ObjectDBX Classes
 90
     1153
280
     0
281
     0
  0
CLASS
  1
SCALE
  2
AcDbScale
  3
ObjectDBX Classes
 90
     1153
280
     0
281
     0
  0
CLASS
  1
TABLESTYLE
  2
AcDbTableStyle
  3
ObjectDBX Classes
 90
     4095
280
     0
281
     0
  0
CLASS
  1
MLEADERSTYLE
  2
AcDbMLeaderStyle
  3
ACDB_MLEADERSTYLE_CLASS
 90
     4095
280
     0
281
     0
  0
CLASS
  1
SUN
  2
AcDbSun
  3
SCENEOE
 90
     1153
280
     0
281
     0
  0
CLASS
  1
XRECORD
  2
AcDbXrecord
  3
ObjectDBX Classes
 90
        0
280
     0
281
     0
  0
CLASS
  1
LWPOLYLINE
  2
AcDbPolyline
  3
ObjectDBX Classes
 90
        0
280
     0
281
     1
  0
CLASS
  1
HATCH
  2
AcDbHatch
  3
ObjectDBX Classes
 90
        0
280
     0
281
     1
  0
ENDSEC
  0
SECTION
  2
TABLES
  0
TABLE
  2
VPORT
  5
8
330
0
100
AcDbSymbolTable
 70
     1
  0
VPORT
  5
29
330
8
100
AcDbSymbolTableRecord
100
AcDbViewportTableRecord
  2
*ACTIVE
 70
     0
 10
0.0
 20
0.0
 11
1.0
 21
1.0
 12
139.7
 22
107.95
 13
0.0
 23
0.0
 14
10.0
 24
10.0
 15
10.0
 25
10.0
 16
0.0
 26
0.0
 36
1.0
 17
0.0
 27
0.0
 37
0.0
 40
215.9
 41
1.2941176471
 42
50.0
 43
0.0
 44
0.0
 50
0.0
 51
0.0
 71
     0
 72
  2000
 73
     1
 74
     3
 75
     0
 76
     0
 77
     0
 78
     0
  0
ENDTAB
  0
TABLE
  2
LTYPE
  5
5
330
0
100
AcDbSymbolTable
 70
     6
  0
LTYPE
  5
14
330
5
100
AcDbSymbolTableRecord
100
AcDbLinetypeTableRecord
  2
BYBLOCK
 70
     0
  3

 72
    65
 73
     0
 40
0.0
  0
LTYPE
  5
15
330
5
100
AcDbSymbolTableRecord
100
AcDbLinetypeTableRecord
  2
BYLAYER
 70
     0
  3

 72
    65
 73
     0
 40
0.0
  0
LTYPE
  5
16
330
5
100
AcDbSymbolTableRecord
100
AcDbLinetypeTableRecord
  2
CONTINUOUS
 70
     0
  3
Solid line
 72
    65
 73
     0
 40
0.0
  0
LTYPE
  5
5E
330
5
100
AcDbSymbolTableRecord
100
AcDbLinetypeTableRecord
  2
HIDDEN
 70
     0
  3
Hidden __ __ __ __ __ __ __ __ __ __ __ __ __ __
 72
    65
 73
     2
 40
1.905
 49
1.27
 74
     0
 49
-0.635
 74
     0
  0
LTYPE
  5
5F
330
5
100
AcDbSymbolTableRecord
100
AcDbLinetypeTableRecord
  2
PHANTOM
 70
     0
  3
Phantom ______  __  __  ______  __  __  ______
 72
    65
 73
     6
 40
12.7
 49
6.35
 74
     0
 49
-1.27
 74
     0
 49
1.27
 74
     0
 49
-1.27
 74
     0
 49
1.27
 74
     0
 49
-1.27
 74
     0
  0
LTYPE
  5
60
330
5
100
AcDbSymbolTableRecord
100
AcDbLinetypeTableRecord
  2
CENTER
 70
     0
  3
Center ____ _ ____ _ ____ _ ____ _ ____ _ ____
 72
    65
 73
     4
 40
10.16
 49
6.35
 74
     0
 49
-1.27
 74
     0
 49
1.27
 74
     0
 49
-1.27
 74
     0
  0
LTYPE
  5
61
330
5
100
AcDbSymbolTableRecord
100
AcDbLinetypeTableRecord
  2
CENTERX2
 70
     0
  3
Center (2x) ________  __  ________  __  _____
 72
    65
 73
     4
 40
20.32
 49
12.7
 74
     0
 49
-2.54
 74
     0
 49
2.54
 74
     0
 49
-2.54
 74
     0
  0
LTYPE
  5
62
330
5
100
AcDbSymbolTableRecord
100
AcDbLinetypeTableRecord
  2
DOT2
 70
     0
  3
Dot (.5x) ........................................
 72
    65
 73
     2
 40
0.635
 49
0.0
 74
     0
 49
-0.635
 74
     0
  0
ENDTAB
  0
TABLE
  2
LAYER
  5
2
330
0
100
AcDbSymbolTable
 70
     1
  0
LAYER
  5
10
330
2
100
AcDbSymbolTableRecord
100
AcDbLayerTableRecord
  2
0
 70
     0
 62
     7
  6
CONTINUOUS
  0
ENDTAB
  0
TABLE
  2
STYLE
  5
3
330
0
100
AcDbSymbolTable
 70
     1
  0
STYLE
  5
11
330
3
100
AcDbSymbolTableRecord
100
AcDbTextStyleTableRecord
  2
STANDARD
 70
     0
 40
0.0
 41
1.0
 50
0.0
 71
     0
 42
3.5
  3
GOTHIC.TTF
  4

1001
ACAD
1000
CENTURY GOTHIC
1071
       34
  0
ENDTAB
  0
TABLE
  2
VIEW
  5
6
330
0
100
AcDbSymbolTable
 70
     0
  0
ENDTAB
  0
TABLE
  2
UCS
  5
7
330
0
100
AcDbSymbolTable
 70
     0
  0
ENDTAB
  0
TABLE
  2
APPID
  5
9
330
0
100
AcDbSymbolTable
 70
     1
  0
APPID
  5
12
330
9
100
AcDbSymbolTableRecord
100
AcDbRegAppTableRecord
  2
ACAD
 70
     0
  0
ENDTAB
  0
TABLE
  2
DIMSTYLE
  5
A
330
0
100
AcDbSymbolTable
 70
     1
  0
DIMSTYLE
105
27
330
A
100
AcDbSymbolTableRecord
100
AcDbDimStyleTableRecord
  2
ISO-25
 70
     0
  3

  4

  5

  6

  7

 40
1.0
 41
2.5
 42
0.625
 43
3.75
 44
1.25
 45
0.0
 46
0.0
 47
0.0
 48
0.0
140
2.5
141
2.5
142
0.0
143
0.0393700787
144
1.0
145
0.0
146
1.0
147
0.625
 71
     0
 72
     0
 73
     0
 74
     0
 75
     0
 76
     0
 77
     1
 78
     8
170
     0
171
     3
172
     1
173
     0
174
     0
175
     0
176
     0
177
     0
178
     0
270
     2
271
     2
272
     2
273
     2
274
     3
340
11
275
     0
280
     0
281
     0
282
     0
283
     0
284
     8
285
     0
286
     0
287
     3
288
     0
  0
ENDTAB
  0
TABLE
  2
BLOCK_RECORD
  5
1
330
0
100
AcDbSymbolTable
 70
     1
  0
BLOCK_RECORD
  5
1F
330
1
100
AcDbSymbolTableRecord
100
AcDbBlockTableRecord
  2
*MODEL_SPACE
  0
BLOCK_RECORD
  5
1B
330
1
100
AcDbSymbolTableRecord
100
AcDbBlockTableRecord
  2
*PAPER_SPACE
  0
BLOCK_RECORD
  5
23
330
1
100
AcDbSymbolTableRecord
100
AcDbBlockTableRecord
  2
*PAPER_SPACE0
  0
ENDTAB
  0
ENDSEC
  0
SECTION
  2
BLOCKS
  0
BLOCK
  5
20
330
1F
100
AcDbEntity
  8
0
100
AcDbBlockBegin
  2
*MODEL_SPACE
 70
     0
 10
0.0
 20
0.0
 30
0.0
  3
*MODEL_SPACE
  1

  0
ENDBLK
  5
21
330
1F
100
AcDbEntity
  8
0
100
AcDbBlockEnd
  0
BLOCK
  5
1C
330
1B
100
AcDbEntity
 67
     1
  8
0
100
AcDbBlockBegin
  2
*PAPER_SPACE
 70
     0
 10
0.0
 20
0.0
 30
0.0
  3
*PAPER_SPACE
  1

  0
ENDBLK
  5
1D
330
1B
100
AcDbEntity
 67
     1
  8
0
100
AcDbBlockEnd
  0
BLOCK
  5
24
330
23
100
AcDbEntity
  8
0
100
AcDbBlockBegin
  2
*PAPER_SPACE0
 70
     0
 10
0.0
 20
0.0
 30
0.0
  3
*PAPER_SPACE0
  1

  0
ENDBLK
  5
25
330
23
100
AcDbEntity
  8
0
100
AcDbBlockEnd
  0
ENDSEC
  0
SECTION
  2
ENTITIES
  0
LINE
  5
63
330
1F
100
AcDbEntity
  8
0
  6
CONTINUOUS
 62
     7
100
AcDbLine
 10
142.1650529478
 20
174.1553211866
 30
0.0
 11
142.2133006127
 21
174.1553211866
 31
0.0
  0
LINE
  5
64
330
1F
100
AcDbEntity
  8
0
  6
CONTINUOUS
 62
     7
100
AcDbLine
 10
142.1650529478
 20
174.1553211866
 30
0.0
 11
142.1650529478
 21
174.2518165163
 31
0.0
  0
LINE
  5
65
330
1F
100
AcDbEntity
  8
0
  6
CONTINUOUS
 62
     7
100
AcDbLine
 10
76.443238829
 20
156.0745100154
 30
0.0
 11
76.4914864938
 21
156.0745100154
 31
0.0
  0
LINE
  5
66
330
1F
100
AcDbEntity
  8
0
  6
CONTINUOUS
 62
     7
100
AcDbLine
 10
76.443238829
 20
156.0745100154
 30
0.0
 11
76.443238829
 21
156.1710053451
 31
0.0
  0
LINE
  5
67
330
1F
100
AcDbEntity
  8
0
  6
CONTINUOUS
 62
     7
100
AcDbLine
 10
83.943238829
 20
156.0745100154
 30
0.0
 11
83.8949911641
 21
156.0745100154
 31
0.0
  0
LINE
  5
68
330
1F
100
AcDbEntity
  8
0
  6
CONTINUOUS
 62
     7
100
AcDbLine
 10
83.943238829
 20
156.0745100154
 30
0.0
 11
83.943238829
 21
156.1710053451
 31
0.0
  0
LINE
  5
69
330
1F
100
AcDbEntity
  8
0
  6
CONTINUOUS
 62
     7
100
AcDbLine
 10
83.943238829
 20
156.0745100154
 30
0.0
 11
83.8949911641
 21
156.0745100154
 31
0.0
  0
LINE
  5
6A
330
1F
100
AcDbEntity
  8
0
  6
CONTINUOUS
 62
     7
100
AcDbLine
 10
83.943238829
 20
156.0745100154
 30
0.0
 11
83.943238829
 21
155.9780146857
 31
0.0
  0
LINE
  5
6B
330
1F
100
AcDbEntity
  8
0
  6
CONTINUOUS
 62
     7
100
AcDbLine
 10
83.943238829
 20
156.0745100154
 30
0.0
 11
83.9914864938
 21
156.0745100154
 31
0.0
  0
LINE
  5
6C
330
1F
100
AcDbEntity
  8
0
  6
CONTINUOUS
 62
     7
100
AcDbLine
 10
83.943238829
 20
156.0745100154
 30
0.0
 11
83.943238829
 21
155.9780146857
 31
0.0
  0
LINE
  5
6D
330
1F
100
AcDbEntity
  8
0
  6
CONTINUOUS
 62
     7
100
AcDbLine
 10
76.443238829
 20
156.0745100154
 30
0.0
 11
76.4914864938
 21
156.0745100154
 31
0.0
  0
LINE
  5
6E
330
1F
100
AcDbEntity
  8
0
  6
CONTINUOUS
 62
     7
100
AcDbLine
 10
76.443238829
 20
156.0745100154
 30
0.0
 11
76.443238829
 21
155.9780146857
 31
0.0
  0
LINE
  5
6F
330
1F
100
AcDbEntity
  8
0
  6
CONTINUOUS
 62
     7
100
AcDbLine
 10
89.8211394498
 20
120.339969426
 30
0.0
 11
89.8693871147
 21
120.339969426
 31
0.0
  0
LINE
  5
70
330
1F
100
AcDbEntity
  8
0
  6
CONTINUOUS
 62
     7
100
AcDbLine
 10
89.8211394498
 20
120.339969426
 30
0.0
 11
89.8211394498
 21
120.4364647558
 31
0.0
  0
LINE
  5
71
330
1F
100
AcDbEntity
  8
0
  6
CONTINUOUS
 62
     7
100
AcDbLine
 10
83.993238829
 20
77.0245100154
 30
0.0
 11
84.0414864938
 21
77.0245100154
 31
0.0
  0
LINE
  5
72
330
1F
100
AcDbEntity
  8
0
  6
CONTINUOUS
 62
     7
100
AcDbLine
 10
83.993238829
 20
77.0245100154
 30
0.0
 11
83.993238829
 21
77.1210053451
 31
0.0
  0
LINE
  5
73
330
1F
100
AcDbEntity
  8
0
  6
CONTINUOUS
 62
     7
100
AcDbLine
 10
89.8211394498
 20
120.339969426
 30
0.0
 11
89.8693871147
 21
120.339969426
 31
0.0
  0
LINE
  5
74
330
1F
100
AcDbEntity
  8
0
  6
CONTINUOUS
 62
     7
100
AcDbLine
 10
89.8211394498
 20
120.339969426
 30
0.0
 11
89.8211394498
 21
120.4364647558
 31
0.0
  0
LINE
  5
75
330
1F
100
AcDbEntity
  8
0
  6
CONTINUOUS
 62
     7
100
AcDbLine
 10
83.993238829
 20
77.0245100154
 30
0.0
 11
83.9449911641
 21
77.0245100154
 31
0.0
  0
LINE
  5
76
330
1F
100
AcDbEntity
  8
0
  6
CONTINUOUS
 62
     7
100
AcDbLine
 10
83.993238829
 20
77.0245100154
 30
0.0
 11
83.993238829
 21
77.1210053451
 31
0.0
  0
POINT
  5
77
330
1F
100
AcDbEntity
  8
0
  6
CONTINUOUS
 62
     7
100
AcDbPoint
 10
142.1650529478
 20
174.1553211866
 30
0.0
  0
POINT
  5
78
330
1F
100
AcDbEntity
  8
0
  6
CONTINUOUS
 62
     7
100
AcDbPoint
 10
76.443238829
 20
156.0745100154
 30
0.0
  0
POINT
  5
79
330
1F
100
AcDbEntity
  8
0
  6
CONTINUOUS
 62
     7
100
AcDbPoint
 10
83.943238829
 20
156.0745100154
 30
0.0
  0
POINT
  5
7A
330
1F
100
AcDbEntity
  8
0
  6
CONTINUOUS
 62
     7
100
AcDbPoint
 10
83.943238829
 20
156.0745100154
 30
0.0
  0
POINT
  5
7B
330
1F
100
AcDbEntity
  8
0
  6
CONTINUOUS
 62
     7
100
AcDbPoint
 10
83.943238829
 20
156.0745100154
 30
0.0
  0
POINT
  5
7C
330
1F
100
AcDbEntity
  8
0
  6
CONTINUOUS
 62
     7
100
AcDbPoint
 10
76.443238829
 20
156.0745100154
 30
0.0
  0
POINT
  5
7D
330
1F
100
AcDbEntity
  8
0
  6
CONTINUOUS
 62
     7
100
AcDbPoint
 10
89.8211394498
 20
120.339969426
 30
0.0
  0
POINT
  5
7E
330
1F
100
AcDbEntity
  8
0
  6
CONTINUOUS
 62
     7
100
AcDbPoint
 10
83.993238829
 20
77.0245100154
 30
0.0
  0
POINT
  5
7F
330
1F
100
AcDbEntity
  8
0
  6
CONTINUOUS
 62
     7
100
AcDbPoint
 10
89.8211394498
 20
120.339969426
 30
0.0
  0
POINT
  5
80
330
1F
100
AcDbEntity
  8
0
  6
CONTINUOUS
 62
     7
100
AcDbPoint
 10
83.993238829
 20
77.0245100154
 30
0.0
  0
ARC
  5
81
330
1F
100
AcDbEntity
  8
0
  6
CONTINUOUS
 62
     7
100
AcDbCircle
 10
83.993238829
 20
84.0245100154
 30
0.0
 40
4.549999999999997
100
AcDbArc
 50
0.0
 51
180.0
  0
LINE
  5
82
330
1F
100
AcDbEntity
  8
0
  6
CONTINUOUS
 62
     7
100
AcDbLine
 10
88.543238829
 20
84.0245100154
 30
0.0
 11
88.293238829
 21
84.0245100154
 31
0.0
  0
ARC
  5
83
330
1F
100
AcDbEntity
  8
0
  6
CONTINUOUS
 62
     7
100
AcDbCircle
 10
83.993238829
 20
84.0245100154
 30
0.0
 40
4.299999999999997
100
AcDbArc
 50
0.0
 51
180.0
  0
LINE
  5
84
330
1F
100
AcDbEntity
  8
0
  6
CONTINUOUS
 62
     7
100
AcDbLine
 10
79.443238829
 20
84.0245100154
 30
0.0
 11
79.693238829
 21
84.0245100154
 31
0.0
  0
ARC
  5
85
330
1F
100
AcDbEntity
  8
0
  6
CONTINUOUS
 62
     7
100
AcDbCircle
 10
83.993238829
 20
70.0245100154
 30
0.0
 40
4.299999999999997
100
AcDbArc
 50
180.0
 51
0.0
  0
LINE
  5
86
330
1F
100
AcDbEntity
  8
0
  6
CONTINUOUS
 62
     7
100
AcDbLine
 10
88.293238829
 20
70.0245100154
 30
0.0
 11
88.543238829
 21
70.0245100154
 31
0.0
  0
ARC
  5
87
330
1F
100
AcDbEntity
  8
0
  6
CONTINUOUS
 62
     7
100
AcDbCircle
 10
83.993238829
 20
70.0245100154
 30
0.0
 40
4.549999999999997
100
AcDbArc
 50
180.0
 51
0.0
  0
LINE
  5
88
330
1F
100
AcDbEntity
  8
0
  6
CONTINUOUS
 62
     7
100
AcDbLine
 10
79.693238829
 20
70.0245100154
 30
0.0
 11
79.443238829
 21
70.0245100154
 31
0.0
  0
ARC
  5
89
330
1F
100
AcDbEntity
  8
0
  6
CONTINUOUS
 62
     7
100
AcDbCircle
 10
83.993238829
 20
84.0245100154
 30
0.0
 40
7.050000000000011
100
AcDbArc
 50
0.0
 51
180.0
  0
LINE
  5
8A
330
1F
100
AcDbEntity
  8
0
  6
CONTINUOUS
 62
     7
100
AcDbLine
 10
91.043238829
 20
84.0245100154
 30
0.0
 11
90.793238829
 21
84.0245100154
 31
0.0
  0
ARC
  5
8B
330
1F
100
AcDbEntity
  8
0
  6
CONTINUOUS
 62
     7
100
AcDbCircle
 10
83.993238829
 20
84.0245100154
 30
0.0
 40
6.800000000000011
100
AcDbArc
 50
0.0
 51
180.0
  0
LINE
  5
8C
330
1F
100
AcDbEntity
  8
0
  6
CONTINUOUS
 62
     7
100
AcDbLine
 10
76.943238829
 20
84.0245100154
 30
0.0
 11
77.193238829
 21
84.0245100154
 31
0.0
  0
LINE
  5
8D
330
1F
100
AcDbEntity
  8
0
  6
CONTINUOUS
 62
     7
100
AcDbLine
 10
77.193238829
 20
84.0245100154
 30
0.0
 11
77.193238829
 21
70.0245100154
 31
0.0
  0
LINE
  5
8E
330
1F
100
AcDbEntity
  8
0
  6
CONTINUOUS
 62
     7
100
AcDbLine
 10
90.793238829
 20
70.0245100154
 30
0.0
 11
90.793238829
 21
84.0245100154
 31
0.0
  0
ARC
  5
8F
330
1F
100
AcDbEntity
  8
0
  6
CONTINUOUS
 62
     7
100
AcDbCircle
 10
83.993238829
 20
70.0245100154
 30
0.0
 40
6.800000000000011
100
AcDbArc
 50
180.0
 51
0.0
  0
LINE
  5
90
330
1F
100
AcDbEntity
  8
0
  6
CONTINUOUS
 62
     7
100
AcDbLine
 10
79.443238829
 20
70.0245100154
 30
0.0
 11
79.443238829
 21
84.0245100154
 31
0.0
  0
LINE
  5
91
330
1F
100
AcDbEntity
  8
0
  6
CONTINUOUS
 62
     7
100
AcDbLine
 10
88.543238829
 20
84.0245100154
 30
0.0
 11
88.543238829
 21
70.0245100154
 31
0.0
  0
LINE
  5
92
330
1F
100
AcDbEntity
  8
0
  6
CONTINUOUS
 62
     7
100
AcDbLine
 10
91.043238829
 20
84.0245100154
 30
0.0
 11
91.043238829
 21
70.0245100154
 31
0.0
  0
LINE
  5
93
330
1F
100
AcDbEntity
  8
0
  6
CONTINUOUS
 62
     7
100
AcDbLine
 10
90.793238829
 20
70.0245100154
 30
0.0
 11
91.043238829
 21
70.0245100154
 31
0.0
  0
ARC
  5
94
330
1F
100
AcDbEntity
  8
0
  6
CONTINUOUS
 62
     7
100
AcDbCircle
 10
83.993238829
 20
70.0245100154
 30
0.0
 40
7.050000000000011
100
AcDbArc
 50
180.0
 51
0.0
  0
LINE
  5
95
330
1F
100
AcDbEntity
  8
0
  6
CONTINUOUS
 62
     7
100
AcDbLine
 10
77.193238829
 20
70.0245100154
 30
0.0
 11
76.943238829
 21
70.0245100154
 31
0.0
  0
LINE
  5
96
330
1F
100
AcDbEntity
  8
0
  6
CONTINUOUS
 62
     7
100
AcDbLine
 10
79.693238829
 20
84.0245100154
 30
0.0
 11
79.693238829
 21
70.0245100154
 31
0.0
  0
LINE
  5
97
330
1F
100
AcDbEntity
  8
0
  6
CONTINUOUS
 62
     7
100
AcDbLine
 10
88.293238829
 20
70.0245100154
 30
0.0
 11
88.293238829
 21
84.0245100154
 31
0.0
  0
LINE
  5
98
330
1F
100
AcDbEntity
  8
0
  6
CONTINUOUS
 62
     7
100
AcDbLine
 10
76.943238829
 20
70.0245100154
 30
0.0
 11
76.943238829
 21
84.0245100154
 31
0.0
  0
ARC
  5
99
330
1F
100
AcDbEntity
  8
0
  6
CONTINUOUS
 62
     7
100
AcDbCircle
 10
63.993238829
 20
58.0245100154
 30
0.0
 40
5.000000000000007
100
AcDbArc
 50
180.0
 51
270.0
  0
ARC
  5
9A
330
1F
100
AcDbEntity
  8
0
  6
CONTINUOUS
 62
     7
100
AcDbCircle
 10
63.993238829
 20
160.0245100154
 30
0.0
 40
5.000000000000028
100
AcDbArc
 50
90.0
 51
180.0
  0
LINE
  5
9B
330
1F
100
AcDbEntity
  8
0
  6
CONTINUOUS
 62
     7
100
AcDbLine
 10
91.993238829
 20
165.0245100154
 30
0.0
 11
63.993238829
 21
165.0245100154
 31
0.0
  0
LINE
  5
9C
330
1F
100
AcDbEntity
  8
0
  6
CONTINUOUS
 62
     7
100
AcDbLine
 10
96.993238829
 20
58.0245100154
 30
0.0
 11
96.993238829
 21
151.0745100154
 31
0.0
  0
LINE
  5
9D
330
1F
100
AcDbEntity
  8
0
  6
CONTINUOUS
 62
     7
100
AcDbLine
 10
63.993238829
 20
53.0245100154
 30
0.0
 11
91.993238829
 21
53.0245100154
 31
0.0
  0
ARC
  5
9E
330
1F
100
AcDbEntity
  8
0
  6
CONTINUOUS
 62
     7
100
AcDbCircle
 10
91.993238829
 20
160.0245100154
 30
0.0
 40
5.000000000000028
100
AcDbArc
 50
12.1223522448
 51
90.0
  0
LINE
  5
9F
330
1F
100
AcDbEntity
  8
0
  6
CONTINUOUS
 62
     7
100
AcDbLine
 10
58.993238829
 20
160.0245100154
 30
0.0
 11
58.993238829
 21
156.7798468144
 31
0.0
  0
LINE
  5
A0
330
1F
100
AcDbEntity
  8
0
  6
CONTINUOUS
 62
     7
100
AcDbLine
 10
58.993238829
 20
155.3691732164
 30
0.0
 11
58.993238829
 21
58.0245100154
 31
0.0
  0
ARC
  5
A1
330
1F
100
AcDbEntity
  8
0
  6
CONTINUOUS
 62
     7
100
AcDbCircle
 10
91.993238829
 20
58.0245100154
 30
0.0
 40
5.000000000000007
100
AcDbArc
 50
270.0
 51
0.0
  0
LINE
  5
A2
330
1F
100
AcDbEntity
  8
0
  6
CONTINUOUS
 62
     7
100
AcDbLine
 10
78.2529750588
 20
161.0755100154
 30
0.0
 11
78.2529750588
 21
161.0745100154
 31
0.0
  0
SPLINE
  5
A3
330
1F
100
AcDbEntity
  8
0
  6
CONTINUOUS
 62
     7
100
AcDbSpline
210
0.0
220
0.0
230
1.0
 70
    24
 71
     3
 72
    12
 73
     8
 74
     0
 42
0.00000001
 43
0.00000001
 40
0.0
 40
0.0
 40
0.0
 40
0.0
 40
0.0922890451756972
 40
0.188967102322012
 40
0.4128424699641159
 40
0.685632668014823
 40
1.0
 40
1.0
 40
1.0
 40
1.0
 10
82.75297505879664
 20
161.0755100154084
 30
0.0
 10
82.7342050844941
 20
161.0755100154084
 30
0.0
 10
82.69577248777743
 20
161.0755100154084
 30
0.0
 10
82.29003795636042
 20
161.0755100154084
 30
0.0
 10
81.38628170192932
 20
161.0755100154084
 30
0.0
 10
79.94219775920968
 20
161.0755100154084
 30
0.0
 10
78.84201753097778
 20
161.0755100154084
 30
0.0
 10
78.25297505879666
 20
161.0755100154084
 30
0.0
  0
LINE
  5
A4
330
1F
100
AcDbEntity
  8
0
  6
CONTINUOUS
 62
     7
100
AcDbLine
 10
82.7529750588
 20
161.0755100154
 30
0.0
 11
82.7529750588
 21
161.0745100154
 31
0.0
  0
LINE
  5
A5
330
1F
100
AcDbEntity
  8
0
  6
CONTINUOUS
 62
     7
100
AcDbLine
 10
73.7529750588
 20
161.0755100154
 30
0.0
 11
73.7529750588
 21
161.0745100154
 31
0.0
  0
SPLINE
  5
A6
330
1F
100
AcDbEntity
  8
0
  6
CONTINUOUS
 62
     7
100
AcDbSpline
210
0.0
220
0.0
230
1.0
 70
    24
 71
     3
 72
    12
 73
     8
 74
     0
 42
0.00000001
 43
0.00000001
 40
0.0
 40
0.0
 40
0.0
 40
0.0
 40
0.3143673319851767
 40
0.5871575300358849
 40
0.8110328976779898
 40
0.9077109548243038
 40
1.0
 40
1.0
 40
1.0
 40
1.0
 10
78.25297505879666
 20
161.0755100154084
 30
0.0
 10
77.66393258661554
 20
161.0755100154084
 30
0.0
 10
76.56375235838364
 20
161.0755100154084
 30
0.0
 10
75.11966841566398
 20
161.0755100154084
 30
0.0
 10
74.21591216123284
 20
161.0755100154084
 30
0.0
 10
73.81017762981585
 20
161.0755100154084
 30
0.0
 10
73.77174503309917
 20
161.0755100154084
 30
0.0
 10
73.75297505879664
 20
161.0755100154084
 30
0.0
  0
ARC
  5
A7
330
1F
100
AcDbEntity
  8
0
  6
CONTINUOUS
 62
     7
100
AcDbCircle
 10
83.993238829
 20
156.0245100154
 30
0.0
 40
6.000000000000035
100
AcDbArc
 50
57.3165362423
 51
90.0
  0
ARC
  5
A8
330
1F
100
AcDbEntity
  8
0
  6
CONTINUOUS
 62
     7
100
AcDbCircle
 10
83.993238829
 20
156.0245100154
 30
0.0
 40
5.999999999999981
100
AcDbArc
 50
235.5884913302
 51
304.4115086698
  0
ARC
  5
A9
330
1F
100
AcDbEntity
  8
0
  6
CONTINUOUS
 62
     7
100
AcDbCircle
 10
83.993238829
 20
156.0245100154
 30
0.0
 40
6.000000000000042
100
AcDbArc
 50
90.0
 51
122.6834637577
  0
LINE
  5
AA
330
1F
100
AcDbEntity
  8
0
  6
CONTINUOUS
 62
     7
100
AcDbLine
 10
68.943238829
 20
156.0745100154
 30
0.0
 11
58.943238829
 21
156.0745100154
 31
0.0
  0
LINE
  5
AB
330
1F
100
AcDbEntity
  8
0
  6
CONTINUOUS
 62
     7
100
AcDbLine
 10
68.943238829
 20
156.0745100154
 30
0.0
 11
68.943238829
 21
151.0745100154
 31
0.0
  0
LINE
  5
AC
330
1F
100
AcDbEntity
  8
0
  6
CONTINUOUS
 62
     7
100
AcDbLine
 10
68.943238829
 20
151.0745100154
 30
0.0
 11
63.943238829
 21
151.0745100154
 31
0.0
  0
ARC
  5
AD
330
1F
100
AcDbEntity
  8
0
  6
CONTINUOUS
 62
     7
100
AcDbCircle
 10
63.943238829
 20
156.0745100154
 30
0.0
 40
5.000000000000007
100
AcDbArc
 50
180.0
 51
270.0
  0
LINE
  5
AE
330
1F
100
AcDbEntity
  8
0
  6
CONTINUOUS
 62
     7
100
AcDbLine
 10
193.943238829
 20
161.0745100154
 30
0.0
 11
193.943238829
 21
156.0745100154
 31
0.0
  0
LINE
  5
AF
330
1F
100
AcDbEntity
  8
0
  6
CONTINUOUS
 62
     7
100
AcDbLine
 10
193.943238829
 20
156.0745100154
 30
0.0
 11
68.943238829
 21
156.0745100154
 31
0.0
  0
LINE
  5
B0
330
1F
100
AcDbEntity
  8
0
  6
CONTINUOUS
 62
     7
100
AcDbLine
 10
68.943238829
 20
161.0745100154
 30
0.0
 11
68.943238829
 21
156.0745100154
 31
0.0
  0
LINE
  5
B1
330
1F
100
AcDbEntity
  8
0
  6
CONTINUOUS
 62
     7
100
AcDbLine
 10
68.943238829
 20
161.0745100154
 30
0.0
 11
193.943238829
 21
161.0745100154
 31
0.0
  0
LINE
  5
B2
330
1F
100
AcDbEntity
  8
0
  6
CONTINUOUS
 62
     7
100
AcDbLine
 10
193.943238829
 20
156.0745100154
 30
0.0
 11
193.943238829
 21
151.0745100154
 31
0.0
  0
LINE
  5
B3
330
1F
100
AcDbEntity
  8
0
  6
CONTINUOUS
 62
     7
100
AcDbLine
 10
193.943238829
 20
151.0745100154
 30
0.0
 11
68.943238829
 21
151.0745100154
 31
0.0
  0
ARC
  5
B4
330
1F
100
AcDbEntity
  8
0
  6
CONTINUOUS
 62
     7
100
AcDbCircle
 10
198.943238829
 20
156.0745100154
 30
0.0
 40
5.0
100
AcDbArc
 50
0.0
 51
90.0
  0
LINE
  5
B5
330
1F
100
AcDbEntity
  8
0
  6
CONTINUOUS
 62
     7
100
AcDbLine
 10
203.943238829
 20
156.0745100154
 30
0.0
 11
193.943238829
 21
156.0745100154
 31
0.0
  0
LINE
  5
B6
330
1F
100
AcDbEntity
  8
0
  6
CONTINUOUS
 62
     7
100
AcDbLine
 10
193.943238829
 20
161.0745100154
 30
0.0
 11
198.943238829
 21
161.0745100154
 31
0.0
  0
ARC
  5
B7
330
1F
100
AcDbEntity
  8
0
  6
CONTINUOUS
 62
     7
100
AcDbCircle
 10
198.943238829
 20
156.0745100154
 30
0.0
 40
5.0
100
AcDbArc
 50
270.0
 51
0.0
  0
LINE
  5
B8
330
1F
100
AcDbEntity
  8
0
  6
CONTINUOUS
 62
     7
100
AcDbLine
 10
198.943238829
 20
151.0745100154
 30
0.0
 11
193.943238829
 21
151.0745100154
 31
0.0
  0
ARC
  5
B9
330
1F
100
AcDbEntity
  8
0
  6
CONTINUOUS
 62
     7
100
AcDbCircle
 10
63.943238829
 20
156.0745100154
 30
0.0
 40
5.000000000000007
100
AcDbArc
 50
90.0
 51
180.0
  0
LINE
  5
BA
330
1F
100
AcDbEntity
  8
0
  6
CONTINUOUS
 62
     7
100
AcDbLine
 10
63.943238829
 20
161.0745100154
 30
0.0
 11
68.943238829
 21
161.0745100154
 31
0.0
  0
LINE
  5
BB
330
1F
100
AcDbEntity
  8
0
  6
CONTINUOUS
 62
     7
100
AcDbLine
 10
-74.5937620166
 20
156.0245100154
 30
0.0
 11
-74.5937620166
 21
156.0727576803
 31
0.0
  0
LINE
  5
BC
330
1F
100
AcDbEntity
  8
0
  6
CONTINUOUS
 62
     7
100
AcDbLine
 10
-74.5937620166
 20
156.0245100154
 30
0.0
 11
-74.6902573463
 21
156.0245100154
 31
0.0
  0
LINE
  5
BD
330
1F
100
AcDbEntity
  8
0
  6
CONTINUOUS
 62
     7
100
AcDbLine
 10
-74.7270989516
 20
156.0245100154
 30
0.0
 11
-74.7270989516
 21
156.030827423
 31
0.0
  0
LINE
  5
BE
330
1F
100
AcDbEntity
  8
0
  6
CONTINUOUS
 62
     7
100
AcDbLine
 10
-74.7270989516
 20
156.0245100154
 30
0.0
 11
-74.8235942813
 21
156.0245100154
 31
0.0
  0
LINE
  5
BF
330
1F
100
AcDbEntity
  8
0
  6
CONTINUOUS
 62
     7
100
AcDbLine
 10
-48.8209432056
 20
156.0245100154
 30
0.0
 11
-48.8209432056
 21
156.0077938393
 31
0.0
  0
LINE
  5
C0
330
1F
100
AcDbEntity
  8
0
  6
CONTINUOUS
 62
     7
100
AcDbLine
 10
-48.8209432056
 20
156.0245100154
 30
0.0
 11
-48.7244478758
 21
156.0245100154
 31
0.0
  0
POINT
  5
C1
330
1F
100
AcDbEntity
  8
0
  6
CONTINUOUS
 62
     7
100
AcDbPoint
 10
-74.5937620166
 20
156.0245100154
 30
0.0
  0
POINT
  5
C2
330
1F
100
AcDbEntity
  8
0
  6
CONTINUOUS
 62
     7
100
AcDbPoint
 10
-74.7270989516
 20
156.0245100154
 30
0.0
  0
POINT
  5
C3
330
1F
100
AcDbEntity
  8
0
  6
CONTINUOUS
 62
     7
100
AcDbPoint
 10
-48.8209432056
 20
156.0245100154
 30
0.0
  0
ARC
  5
C4
330
1F
100
AcDbEntity
  8
0
  6
CONTINUOUS
 62
     7
100
AcDbCircle
 10
-83.9770989516
 20
90.8245100154
 30
0.0
 40
0.25
100
AcDbArc
 50
0.0
 51
90.0
  0
LINE
  5
C5
330
1F
100
AcDbEntity
  8
0
  6
CONTINUOUS
 62
     7
100
AcDbLine
 10
-83.9770989516
 20
91.0745100154
 30
0.0
 11
-84.9770989516
 21
91.0745100154
 31
0.0
  0
LINE
  5
C6
330
1F
100
AcDbEntity
  8
0
  6
CONTINUOUS
 62
     7
100
AcDbLine
 10
-84.9770989516
 20
62.9745100154
 30
0.0
 11
-83.9770989516
 21
62.9745100154
 31
0.0
  0
LINE
  5
C7
330
1F
100
AcDbEntity
  8
0
  6
CONTINUOUS
 62
     7
100
AcDbLine
 10
-84.9770989516
 20
91.0745100154
 30
0.0
 11
-85.2270989516
 21
90.8245100154
 31
0.0
  0
LINE
  5
C8
330
1F
100
AcDbEntity
  8
0
  6
CONTINUOUS
 62
     7
100
AcDbLine
 10
-85.2270989516
 20
63.2245100154
 30
0.0
 11
-84.9770989516
 21
62.9745100154
 31
0.0
  0
ARC
  5
C9
330
1F
100
AcDbEntity
  8
0
  6
CONTINUOUS
 62
     7
100
AcDbCircle
 10
-83.9770989516
 20
63.2245100154
 30
0.0
 40
0.25
100
AcDbArc
 50
270.0
 51
0.0
  0
LINE
  5
CA
330
1F
100
AcDbEntity
  8
0
  6
CONTINUOUS
 62
     7
100
AcDbLine
 10
-38.3209432056
 20
90.8245100154
 30
0.0
 11
-38.5709432056
 21
91.0745100154
 31
0.0
  0
LINE
  5
CB
330
1F
100
AcDbEntity
  8
0
  6
CONTINUOUS
 62
     7
100
AcDbLine
 10
-38.5709432056
 20
62.9745100154
 30
0.0
 11
-38.3209432056
 21
63.2245100154
 31
0.0
  0
ARC
  5
CC
330
1F
100
AcDbEntity
  8
0
  6
CONTINUOUS
 62
     7
100
AcDbCircle
 10
-39.5709432056
 20
90.8245100154
 30
0.0
 40
0.25
100
AcDbArc
 50
90.0
 51
180.0
  0
LINE
  5
CD
330
1F
100
AcDbEntity
  8
0
  6
CONTINUOUS
 62
     7
100
AcDbLine
 10
-39.5709432056
 20
62.9745100154
 30
0.0
 11
-38.5709432056
 21
62.9745100154
 31
0.0
  0
LINE
  5
CE
330
1F
100
AcDbEntity
  8
0
  6
CONTINUOUS
 62
     7
100
AcDbLine
 10
-38.5709432056
 20
91.0745100154
 30
0.0
 11
-39.5709432056
 21
91.0745100154
 31
0.0
  0
ARC
  5
CF
330
1F
100
AcDbEntity
  8
0
  6
CONTINUOUS
 62
     7
100
AcDbCircle
 10
-39.5709432056
 20
63.2245100154
 30
0.0
 40
0.25
100
AcDbArc
 50
180.0
 51
270.0
  0
ARC
  5
D0
330
1F
100
AcDbEntity
  8
0
  6
CONTINUOUS
 62
     7
100
AcDbCircle
 10
-55.7709432056
 20
158.9745100154
 30
0.0
 40
0.0500000000000043
100
AcDbArc
 50
90.0
 51
180.0
  0
LINE
  5
D1
330
1F
100
AcDbEntity
  8
0
  6
CONTINUOUS
 62
     7
100
AcDbLine
 10
-42.8209432056
 20
159.0245100154
 30
0.0
 11
-55.7709432056
 21
159.0245100154
 31
0.0
  0
ARC
  5
D2
330
1F
100
AcDbEntity
  8
0
  6
CONTINUOUS
 62
     7
100
AcDbCircle
 10
-55.7709432056
 20
153.0745100154
 30
0.0
 40
0.0500000000000114
100
AcDbArc
 50
180.0
 51
270.0
  0
LINE
  5
D3
330
1F
100
AcDbEntity
  8
0
  6
CONTINUOUS
 62
     7
100
AcDbLine
 10
-55.7709432056
 20
153.0245100154
 30
0.0
 11
-42.8209432056
 21
153.0245100154
 31
0.0
  0
LINE
  5
D4
330
1F
100
AcDbEntity
  8
0
  6
CONTINUOUS
 62
     7
100
AcDbLine
 10
-80.1040170117
 20
154.0245100154
 30
0.0
 11
-79.9621354132
 21
154.0245100154
 31
0.0
  0
LINE
  5
D5
330
1F
100
AcDbEntity
  8
0
  6
CONTINUOUS
 62
     7
100
AcDbLine
 10
-79.9621354132
 20
158.0245100154
 30
0.0
 11
-80.1040170117
 21
158.0245100154
 31
0.0
  0
LINE
  5
D6
330
1F
100
AcDbEntity
  8
0
  6
CONTINUOUS
 62
     7
100
AcDbLine
 10
-79.274091935
 20
154.0245100154
 30
0.0
 11
-79.0010109951
 21
154.4145100154
 31
0.0
  0
LINE
  5
D7
330
1F
100
AcDbEntity
  8
0
  6
CONTINUOUS
 62
     7
100
AcDbLine
 10
-79.0010109951
 20
157.6345100154
 30
0.0
 11
-79.274091935
 21
158.0245100154
 31
0.0
  0
LINE
  5
D8
330
1F
100
AcDbEntity
  8
0
  6
CONTINUOUS
 62
     7
100
AcDbLine
 10
-77.8980049785
 20
154.0245100154
 30
0.0
 11
-77.6249240386
 21
154.4145100154
 31
0.0
  0
LINE
  5
D9
330
1F
100
AcDbEntity
  8
0
  6
CONTINUOUS
 62
     7
100
AcDbLine
 10
-77.6249240386
 20
157.6345100154
 30
0.0
 11
-77.8980049785
 21
158.0245100154
 31
0.0
  0
LINE
  5
DA
330
1F
100
AcDbEntity
  8
0
  6
CONTINUOUS
 62
     7
100
AcDbLine
 10
-78.5860484567
 20
154.0245100154
 30
0.0
 11
-78.3129675168
 21
154.4145100154
 31
0.0
  0
LINE
  5
DB
330
1F
100
AcDbEntity
  8
0
  6
CONTINUOUS
 62
     7
100
AcDbLine
 10
-78.3129675168
 20
157.6345100154
 30
0.0
 11
-78.5860484567
 21
158.0245100154
 31
0.0
  0
LINE
  5
DC
330
1F
100
AcDbEntity
  8
0
  6
CONTINUOUS
 62
     7
100
AcDbLine
 10
-80.6501788915
 20
154.0245100154
 30
0.0
 11
-80.3770979516
 21
154.4145100154
 31
0.0
  0
LINE
  5
DD
330
1F
100
AcDbEntity
  8
0
  6
CONTINUOUS
 62
     7
100
AcDbLine
 10
-80.3770979516
 20
157.6345100154
 30
0.0
 11
-80.6501788915
 21
158.0245100154
 31
0.0
  0
LINE
  5
DE
330
1F
100
AcDbEntity
  8
0
  6
CONTINUOUS
 62
     7
100
AcDbLine
 10
-80.7270989516
 20
154.0245100154
 30
0.0
 11
-80.6501788915
 21
154.0245100154
 31
0.0
  0
LINE
  5
DF
330
1F
100
AcDbEntity
  8
0
  6
CONTINUOUS
 62
     7
100
AcDbLine
 10
-80.6501788915
 20
158.0245100154
 30
0.0
 11
-80.7270989516
 21
158.0245100154
 31
0.0
  0
LINE
  5
E0
330
1F
100
AcDbEntity
  8
0
  6
CONTINUOUS
 62
     7
100
AcDbLine
 10
-79.4159735334
 20
154.0245100154
 30
0.0
 11
-79.274091935
 21
154.0245100154
 31
0.0
  0
LINE
  5
E1
330
1F
100
AcDbEntity
  8
0
  6
CONTINUOUS
 62
     7
100
AcDbLine
 10
-79.274091935
 20
158.0245100154
 30
0.0
 11
-79.4159735334
 21
158.0245100154
 31
0.0
  0
LINE
  5
E2
330
1F
100
AcDbEntity
  8
0
  6
CONTINUOUS
 62
     7
100
AcDbLine
 10
-78.0398865769
 20
154.0245100154
 30
0.0
 11
-77.8980049785
 21
154.0245100154
 31
0.0
  0
LINE
  5
E3
330
1F
100
AcDbEntity
  8
0
  6
CONTINUOUS
 62
     7
100
AcDbLine
 10
-77.8980049785
 20
158.0245100154
 30
0.0
 11
-78.0398865769
 21
158.0245100154
 31
0.0
  0
LINE
  5
E4
330
1F
100
AcDbEntity
  8
0
  6
CONTINUOUS
 62
     7
100
AcDbLine
 10
-80.1040170117
 20
158.0245100154
 30
0.0
 11
-80.3770979516
 21
157.6345100154
 31
0.0
  0
LINE
  5
E5
330
1F
100
AcDbEntity
  8
0
  6
CONTINUOUS
 62
     7
100
AcDbLine
 10
-80.3770979516
 20
154.4145100154
 30
0.0
 11
-80.1040170117
 21
154.0245100154
 31
0.0
  0
LINE
  5
E6
330
1F
100
AcDbEntity
  8
0
  6
CONTINUOUS
 62
     7
100
AcDbLine
 10
-78.7279300552
 20
154.0245100154
 30
0.0
 11
-78.5860484567
 21
154.0245100154
 31
0.0
  0
LINE
  5
E7
330
1F
100
AcDbEntity
  8
0
  6
CONTINUOUS
 62
     7
100
AcDbLine
 10
-78.5860484567
 20
158.0245100154
 30
0.0
 11
-78.7279300552
 21
158.0245100154
 31
0.0
  0
LINE
  5
E8
330
1F
100
AcDbEntity
  8
0
  6
CONTINUOUS
 62
     7
100
AcDbLine
 10
-77.3518430987
 20
158.0245100154
 30
0.0
 11
-77.6249240386
 21
157.6345100154
 31
0.0
  0
LINE
  5
E9
330
1F
100
AcDbEntity
  8
0
  6
CONTINUOUS
 62
     7
100
AcDbLine
 10
-77.6249240386
 20
154.4145100154
 30
0.0
 11
-77.3518430987
 21
154.0245100154
 31
0.0
  0
LINE
  5
EA
330
1F
100
AcDbEntity
  8
0
  6
CONTINUOUS
 62
     7
100
AcDbLine
 10
-78.0398865769
 20
158.0245100154
 30
0.0
 11
-78.3129675168
 21
157.6345100154
 31
0.0
  0
LINE
  5
EB
330
1F
100
AcDbEntity
  8
0
  6
CONTINUOUS
 62
     7
100
AcDbLine
 10
-78.3129675168
 20
154.4145100154
 30
0.0
 11
-78.0398865769
 21
154.0245100154
 31
0.0
  0
LINE
  5
EC
330
1F
100
AcDbEntity
  8
0
  6
CONTINUOUS
 62
     7
100
AcDbLine
 10
-78.7279300552
 20
158.0245100154
 30
0.0
 11
-79.0010109951
 21
157.6345100154
 31
0.0
  0
LINE
  5
ED
330
1F
100
AcDbEntity
  8
0
  6
CONTINUOUS
 62
     7
100
AcDbLine
 10
-79.0010109951
 20
154.4145100154
 30
0.0
 11
-78.7279300552
 21
154.0245100154
 31
0.0
  0
LINE
  5
EE
330
1F
100
AcDbEntity
  8
0
  6
CONTINUOUS
 62
     7
100
AcDbLine
 10
-79.4159735334
 20
158.0245100154
 30
0.0
 11
-79.6890544733
 21
157.6345100154
 31
0.0
  0
LINE
  5
EF
330
1F
100
AcDbEntity
  8
0
  6
CONTINUOUS
 62
     7
100
AcDbLine
 10
-79.6890544733
 20
154.4145100154
 30
0.0
 11
-79.4159735334
 21
154.0245100154
 31
0.0
  0
LINE
  5
F0
330
1F
100
AcDbEntity
  8
0
  6
CONTINUOUS
 62
     7
100
AcDbLine
 10
-79.9621354132
 20
154.0245100154
 30
0.0
 11
-79.6890544733
 21
154.4145100154
 31
0.0
  0
LINE
  5
F1
330
1F
100
AcDbEntity
  8
0
  6
CONTINUOUS
 62
     7
100
AcDbLine
 10
-79.6890544733
 20
157.6345100154
 30
0.0
 11
-79.9621354132
 21
158.0245100154
 31
0.0
  0
LINE
  5
F2
330
1F
100
AcDbEntity
  8
0
  6
CONTINUOUS
 62
     7
100
AcDbLine
 10
-74.5996691856
 20
158.0245100154
 30
0.0
 11
-74.8727501255
 21
157.6345100154
 31
0.0
  0
LINE
  5
F3
330
1F
100
AcDbEntity
  8
0
  6
CONTINUOUS
 62
     7
100
AcDbLine
 10
-74.8727501255
 20
154.4145100154
 30
0.0
 11
-74.5996691856
 21
154.0245100154
 31
0.0
  0
LINE
  5
F4
330
1F
100
AcDbEntity
  8
0
  6
CONTINUOUS
 62
     7
100
AcDbLine
 10
-75.2877126639
 20
158.0245100154
 30
0.0
 11
-75.5607936038
 21
157.6345100154
 31
0.0
  0
LINE
  5
F5
330
1F
100
AcDbEntity
  8
0
  6
CONTINUOUS
 62
     7
100
AcDbLine
 10
-75.5607936038
 20
154.4145100154
 30
0.0
 11
-75.2877126639
 21
154.0245100154
 31
0.0
  0
LINE
  5
F6
330
1F
100
AcDbEntity
  8
0
  6
CONTINUOUS
 62
     7
100
AcDbLine
 10
-73.9116257073
 20
154.0245100154
 30
0.0
 11
-73.7697441089
 21
154.0245100154
 31
0.0
  0
LINE
  5
F7
330
1F
100
AcDbEntity
  8
0
  6
CONTINUOUS
 62
     7
100
AcDbLine
 10
-73.7697441089
 20
158.0245100154
 30
0.0
 11
-73.9116257073
 21
158.0245100154
 31
0.0
  0
LINE
  5
F8
330
1F
100
AcDbEntity
  8
0
  6
CONTINUOUS
 62
     7
100
AcDbLine
 10
-75.9757561421
 20
158.0245100154
 30
0.0
 11
-76.248837082
 21
157.6345100154
 31
0.0
  0
LINE
  5
F9
330
1F
100
AcDbEntity
  8
0
  6
CONTINUOUS
 62
     7
100
AcDbLine
 10
-76.248837082
 20
154.4145100154
 30
0.0
 11
-75.9757561421
 21
154.0245100154
 31
0.0
  0
LINE
  5
FA
330
1F
100
AcDbEntity
  8
0
  6
CONTINUOUS
 62
     7
100
AcDbLine
 10
-75.8338745437
 20
154.0245100154
 30
0.0
 11
-75.5607936038
 21
154.4145100154
 31
0.0
  0
LINE
  5
FB
330
1F
100
AcDbEntity
  8
0
  6
CONTINUOUS
 62
     7
100
AcDbLine
 10
-75.5607936038
 20
157.6345100154
 30
0.0
 11
-75.8338745437
 21
158.0245100154
 31
0.0
  0
LINE
  5
FC
330
1F
100
AcDbEntity
  8
0
  6
CONTINUOUS
 62
     7
100
AcDbLine
 10
-73.7697441089
 20
154.0245100154
 30
0.0
 11
-73.496663169
 21
154.4145100154
 31
0.0
  0
LINE
  5
FD
330
1F
100
AcDbEntity
  8
0
  6
CONTINUOUS
 62
     7
100
AcDbLine
 10
-73.496663169
 20
157.6345100154
 30
0.0
 11
-73.7697441089
 21
158.0245100154
 31
0.0
  0
LINE
  5
FE
330
1F
100
AcDbEntity
  8
0
  6
CONTINUOUS
 62
     7
100
AcDbLine
 10
-75.2877126639
 20
154.0245100154
 30
0.0
 11
-75.1458310654
 21
154.0245100154
 31
0.0
  0
LINE
  5
FF
330
1F
100
AcDbEntity
  8
0
  6
CONTINUOUS
 62
     7
100
AcDbLine
 10
-75.1458310654
 20
158.0245100154
 30
0.0
 11
-75.2877126639
 21
158.0245100154
 31
0.0
  0
LINE
  5
100
330
1F
100
AcDbEntity
  8
0
  6
CONTINUOUS
 62
     7
100
AcDbLine
 10
-77.2099615002
 20
154.0245100154
 30
0.0
 11
-76.9368805603
 21
154.4145100154
 31
0.0
  0
LINE
  5
101
330
1F
100
AcDbEntity
  8
0
  6
CONTINUOUS
 62
     7
100
AcDbLine
 10
-76.9368805603
 20
157.6345100154
 30
0.0
 11
-77.2099615002
 21
158.0245100154
 31
0.0
  0
LINE
  5
102
330
1F
100
AcDbEntity
  8
0
  6
CONTINUOUS
 62
     7
100
AcDbLine
 10
-73.9116257073
 20
158.0245100154
 30
0.0
 11
-74.1847066472
 21
157.6345100154
 31
0.0
  0
LINE
  5
103
330
1F
100
AcDbEntity
  8
0
  6
CONTINUOUS
 62
     7
100
AcDbLine
 10
-74.1847066472
 20
154.4145100154
 30
0.0
 11
-73.9116257073
 21
154.0245100154
 31
0.0
  0
LINE
  5
104
330
1F
100
AcDbEntity
  8
0
  6
CONTINUOUS
 62
     7
100
AcDbLine
 10
-75.9757561421
 20
154.0245100154
 30
0.0
 11
-75.8338745437
 21
154.0245100154
 31
0.0
  0
LINE
  5
105
330
1F
100
AcDbEntity
  8
0
  6
CONTINUOUS
 62
     7
100
AcDbLine
 10
-75.8338745437
 20
158.0245100154
 30
0.0
 11
-75.9757561421
 21
158.0245100154
 31
0.0
  0
LINE
  5
106
330
1F
100
AcDbEntity
  8
0
  6
CONTINUOUS
 62
     7
100
AcDbLine
 10
-76.5219180219
 20
154.0245100154
 30
0.0
 11
-76.248837082
 21
154.4145100154
 31
0.0
  0
LINE
  5
107
330
1F
100
AcDbEntity
  8
0
  6
CONTINUOUS
 62
     7
100
AcDbLine
 10
-76.248837082
 20
157.6345100154
 30
0.0
 11
-76.5219180219
 21
158.0245100154
 31
0.0
  0
LINE
  5
108
330
1F
100
AcDbEntity
  8
0
  6
CONTINUOUS
 62
     7
100
AcDbLine
 10
-75.1458310654
 20
154.0245100154
 30
0.0
 11
-74.8727501255
 21
154.4145100154
 31
0.0
  0
LINE
  5
109
330
1F
100
AcDbEntity
  8
0
  6
CONTINUOUS
 62
     7
100
AcDbLine
 10
-74.8727501255
 20
157.6345100154
 30
0.0
 11
-75.1458310654
 21
158.0245100154
 31
0.0
  0
LINE
  5
10A
330
1F
100
AcDbEntity
  8
0
  6
CONTINUOUS
 62
     7
100
AcDbLine
 10
-77.3518430987
 20
154.0245100154
 30
0.0
 11
-77.2099615002
 21
154.0245100154
 31
0.0
  0
LINE
  5
10B
330
1F
100
AcDbEntity
  8
0
  6
CONTINUOUS
 62
     7
100
AcDbLine
 10
-77.2099615002
 20
158.0245100154
 30
0.0
 11
-77.3518430987
 21
158.0245100154
 31
0.0
  0
LINE
  5
10C
330
1F
100
AcDbEntity
  8
0
  6
CONTINUOUS
 62
     7
100
AcDbLine
 10
-74.4577875872
 20
154.0245100154
 30
0.0
 11
-74.1847066472
 21
154.4145100154
 31
0.0
  0
LINE
  5
10D
330
1F
100
AcDbEntity
  8
0
  6
CONTINUOUS
 62
     7
100
AcDbLine
 10
-74.1847066472
 20
157.6345100154
 30
0.0
 11
-74.4577875872
 21
158.0245100154
 31
0.0
  0
LINE
  5
10E
330
1F
100
AcDbEntity
  8
0
  6
CONTINUOUS
 62
     7
100
AcDbLine
 10
-74.5996691856
 20
154.0245100154
 30
0.0
 11
-74.4577875872
 21
154.0245100154
 31
0.0
  0
LINE
  5
10F
330
1F
100
AcDbEntity
  8
0
  6
CONTINUOUS
 62
     7
100
AcDbLine
 10
-74.4577875872
 20
158.0245100154
 30
0.0
 11
-74.5996691856
 21
158.0245100154
 31
0.0
  0
LINE
  5
110
330
1F
100
AcDbEntity
  8
0
  6
CONTINUOUS
 62
     7
100
AcDbLine
 10
-76.6637996204
 20
154.0245100154
 30
0.0
 11
-76.5219180219
 21
154.0245100154
 31
0.0
  0
LINE
  5
111
330
1F
100
AcDbEntity
  8
0
  6
CONTINUOUS
 62
     7
100
AcDbLine
 10
-76.5219180219
 20
158.0245100154
 30
0.0
 11
-76.6637996204
 21
158.0245100154
 31
0.0
  0
LINE
  5
112
330
1F
100
AcDbEntity
  8
0
  6
CONTINUOUS
 62
     7
100
AcDbLine
 10
-76.6637996204
 20
158.0245100154
 30
0.0
 11
-76.9368805603
 21
157.6345100154
 31
0.0
  0
LINE
  5
113
330
1F
100
AcDbEntity
  8
0
  6
CONTINUOUS
 62
     7
100
AcDbLine
 10
-76.9368805603
 20
154.4145100154
 30
0.0
 11
-76.6637996204
 21
154.0245100154
 31
0.0
  0
LINE
  5
114
330
1F
100
AcDbEntity
  8
0
  6
CONTINUOUS
 62
     7
100
AcDbLine
 10
-71.0175701958
 20
154.0245100154
 30
0.0
 11
-70.7444892559
 21
154.4145100154
 31
0.0
  0
LINE
  5
115
330
1F
100
AcDbEntity
  8
0
  6
CONTINUOUS
 62
     7
100
AcDbLine
 10
-70.7444892559
 20
157.6345100154
 30
0.0
 11
-71.0175701958
 21
158.0245100154
 31
0.0
  0
LINE
  5
116
330
1F
100
AcDbEntity
  8
0
  6
CONTINUOUS
 62
     7
100
AcDbLine
 10
-72.5355387508
 20
154.0245100154
 30
0.0
 11
-72.3936571524
 21
154.0245100154
 31
0.0
  0
LINE
  5
117
330
1F
100
AcDbEntity
  8
0
  6
CONTINUOUS
 62
     7
100
AcDbLine
 10
-72.3936571524
 20
158.0245100154
 30
0.0
 11
-72.5355387508
 21
158.0245100154
 31
0.0
  0
LINE
  5
118
330
1F
100
AcDbEntity
  8
0
  6
CONTINUOUS
 62
     7
100
AcDbLine
 10
-73.2235822291
 20
154.0245100154
 30
0.0
 11
-73.0817006306
 21
154.0245100154
 31
0.0
  0
LINE
  5
119
330
1F
100
AcDbEntity
  8
0
  6
CONTINUOUS
 62
     7
100
AcDbLine
 10
-73.0817006306
 20
158.0245100154
 30
0.0
 11
-73.2235822291
 21
158.0245100154
 31
0.0
  0
LINE
  5
11A
330
1F
100
AcDbEntity
  8
0
  6
CONTINUOUS
 62
     7
100
AcDbLine
 10
-70.3295267176
 20
154.0245100154
 30
0.0
 11
-70.0564457777
 21
154.4145100154
 31
0.0
  0
LINE
  5
11B
330
1F
100
AcDbEntity
  8
0
  6
CONTINUOUS
 62
     7
100
AcDbLine
 10
-70.0564457777
 20
157.6345100154
 30
0.0
 11
-70.3295267176
 21
158.0245100154
 31
0.0
  0
LINE
  5
11C
330
1F
100
AcDbEntity
  8
0
  6
CONTINUOUS
 62
     7
100
AcDbLine
 10
-70.471408316
 20
154.0245100154
 30
0.0
 11
-70.3295267176
 21
154.0245100154
 31
0.0
  0
LINE
  5
11D
330
1F
100
AcDbEntity
  8
0
  6
CONTINUOUS
 62
     7
100
AcDbLine
 10
-70.3295267176
 20
158.0245100154
 30
0.0
 11
-70.471408316
 21
158.0245100154
 31
0.0
  0
LINE
  5
11E
330
1F
100
AcDbEntity
  8
0
  6
CONTINUOUS
 62
     7
100
AcDbLine
 10
-69.7833648378
 20
158.0245100154
 30
0.0
 11
-70.0564457777
 21
157.6345100154
 31
0.0
  0
LINE
  5
11F
330
1F
100
AcDbEntity
  8
0
  6
CONTINUOUS
 62
     7
100
AcDbLine
 10
-70.0564457777
 20
154.4145100154
 30
0.0
 11
-69.7833648378
 21
154.0245100154
 31
0.0
  0
LINE
  5
120
330
1F
100
AcDbEntity
  8
0
  6
CONTINUOUS
 62
     7
100
AcDbLine
 10
-71.7056136741
 20
154.0245100154
 30
0.0
 11
-71.4325327342
 21
154.4145100154
 31
0.0
  0
LINE
  5
121
330
1F
100
AcDbEntity
  8
0
  6
CONTINUOUS
 62
     7
100
AcDbLine
 10
-71.4325327342
 20
157.6345100154
 30
0.0
 11
-71.7056136741
 21
158.0245100154
 31
0.0
  0
LINE
  5
122
330
1F
100
AcDbEntity
  8
0
  6
CONTINUOUS
 62
     7
100
AcDbLine
 10
-71.8474952726
 20
154.0245100154
 30
0.0
 11
-71.7056136741
 21
154.0245100154
 31
0.0
  0
LINE
  5
123
330
1F
100
AcDbEntity
  8
0
  6
CONTINUOUS
 62
     7
100
AcDbLine
 10
-71.7056136741
 20
158.0245100154
 30
0.0
 11
-71.8474952726
 21
158.0245100154
 31
0.0
  0
LINE
  5
124
330
1F
100
AcDbEntity
  8
0
  6
CONTINUOUS
 62
     7
100
AcDbLine
 10
-72.5355387508
 20
158.0245100154
 30
0.0
 11
-72.8086196907
 21
157.6345100154
 31
0.0
  0
LINE
  5
125
330
1F
100
AcDbEntity
  8
0
  6
CONTINUOUS
 62
     7
100
AcDbLine
 10
-72.8086196907
 20
154.4145100154
 30
0.0
 11
-72.5355387508
 21
154.0245100154
 31
0.0
  0
LINE
  5
126
330
1F
100
AcDbEntity
  8
0
  6
CONTINUOUS
 62
     7
100
AcDbLine
 10
-70.471408316
 20
158.0245100154
 30
0.0
 11
-70.7444892559
 21
157.6345100154
 31
0.0
  0
LINE
  5
127
330
1F
100
AcDbEntity
  8
0
  6
CONTINUOUS
 62
     7
100
AcDbLine
 10
-70.7444892559
 20
154.4145100154
 30
0.0
 11
-70.471408316
 21
154.0245100154
 31
0.0
  0
LINE
  5
128
330
1F
100
AcDbEntity
  8
0
  6
CONTINUOUS
 62
     7
100
AcDbLine
 10
-73.2235822291
 20
158.0245100154
 30
0.0
 11
-73.496663169
 21
157.6345100154
 31
0.0
  0
LINE
  5
129
330
1F
100
AcDbEntity
  8
0
  6
CONTINUOUS
 62
     7
100
AcDbLine
 10
-73.496663169
 20
154.4145100154
 30
0.0
 11
-73.2235822291
 21
154.0245100154
 31
0.0
  0
LINE
  5
12A
330
1F
100
AcDbEntity
  8
0
  6
CONTINUOUS
 62
     7
100
AcDbLine
 10
-73.0817006306
 20
154.0245100154
 30
0.0
 11
-72.8086196907
 21
154.4145100154
 31
0.0
  0
LINE
  5
12B
330
1F
100
AcDbEntity
  8
0
  6
CONTINUOUS
 62
     7
100
AcDbLine
 10
-72.8086196907
 20
157.6345100154
 30
0.0
 11
-73.0817006306
 21
158.0245100154
 31
0.0
  0
LINE
  5
12C
330
1F
100
AcDbEntity
  8
0
  6
CONTINUOUS
 62
     7
100
AcDbLine
 10
-71.8474952726
 20
158.0245100154
 30
0.0
 11
-72.1205762125
 21
157.6345100154
 31
0.0
  0
LINE
  5
12D
330
1F
100
AcDbEntity
  8
0
  6
CONTINUOUS
 62
     7
100
AcDbLine
 10
-72.1205762125
 20
154.4145100154
 30
0.0
 11
-71.8474952726
 21
154.0245100154
 31
0.0
  0
LINE
  5
12E
330
1F
100
AcDbEntity
  8
0
  6
CONTINUOUS
 62
     7
100
AcDbLine
 10
-69.6414832393
 20
154.0245100154
 30
0.0
 11
-69.3684022994
 21
154.4145100154
 31
0.0
  0
LINE
  5
12F
330
1F
100
AcDbEntity
  8
0
  6
CONTINUOUS
 62
     7
100
AcDbLine
 10
-69.3684022994
 20
157.6345100154
 30
0.0
 11
-69.6414832393
 21
158.0245100154
 31
0.0
  0
LINE
  5
130
330
1F
100
AcDbEntity
  8
0
  6
CONTINUOUS
 62
     7
100
AcDbLine
 10
-71.1594517943
 20
154.0245100154
 30
0.0
 11
-71.0175701958
 21
154.0245100154
 31
0.0
  0
LINE
  5
131
330
1F
100
AcDbEntity
  8
0
  6
CONTINUOUS
 62
     7
100
AcDbLine
 10
-71.0175701958
 20
158.0245100154
 30
0.0
 11
-71.1594517943
 21
158.0245100154
 31
0.0
  0
LINE
  5
132
330
1F
100
AcDbEntity
  8
0
  6
CONTINUOUS
 62
     7
100
AcDbLine
 10
-71.1594517943
 20
158.0245100154
 30
0.0
 11
-71.4325327342
 21
157.6345100154
 31
0.0
  0
LINE
  5
133
330
1F
100
AcDbEntity
  8
0
  6
CONTINUOUS
 62
     7
100
AcDbLine
 10
-71.4325327342
 20
154.4145100154
 30
0.0
 11
-71.1594517943
 21
154.0245100154
 31
0.0
  0
LINE
  5
134
330
1F
100
AcDbEntity
  8
0
  6
CONTINUOUS
 62
     7
100
AcDbLine
 10
-69.7833648378
 20
154.0245100154
 30
0.0
 11
-69.6414832393
 21
154.0245100154
 31
0.0
  0
LINE
  5
135
330
1F
100
AcDbEntity
  8
0
  6
CONTINUOUS
 62
     7
100
AcDbLine
 10
-69.6414832393
 20
158.0245100154
 30
0.0
 11
-69.7833648378
 21
158.0245100154
 31
0.0
  0
LINE
  5
136
330
1F
100
AcDbEntity
  8
0
  6
CONTINUOUS
 62
     7
100
AcDbLine
 10
-72.3936571524
 20
154.0245100154
 30
0.0
 11
-72.1205762125
 21
154.4145100154
 31
0.0
  0
LINE
  5
137
330
1F
100
AcDbEntity
  8
0
  6
CONTINUOUS
 62
     7
100
AcDbLine
 10
-72.1205762125
 20
157.6345100154
 30
0.0
 11
-72.3936571524
 21
158.0245100154
 31
0.0
  0
LINE
  5
138
330
1F
100
AcDbEntity
  8
0
  6
CONTINUOUS
 62
     7
100
AcDbLine
 10
-65.6551039682
 20
154.0245100154
 30
0.0
 11
-65.5132223698
 21
154.0245100154
 31
0.0
  0
LINE
  5
139
330
1F
100
AcDbEntity
  8
0
  6
CONTINUOUS
 62
     7
100
AcDbLine
 10
-65.5132223698
 20
158.0245100154
 30
0.0
 11
-65.6551039682
 21
158.0245100154
 31
0.0
  0
LINE
  5
13A
330
1F
100
AcDbEntity
  8
0
  6
CONTINUOUS
 62
     7
100
AcDbLine
 10
-67.0311909247
 20
158.0245100154
 30
0.0
 11
-67.3042718646
 21
157.6345100154
 31
0.0
  0
LINE
  5
13B
330
1F
100
AcDbEntity
  8
0
  6
CONTINUOUS
 62
     7
100
AcDbLine
 10
-67.3042718646
 20
154.4145100154
 30
0.0
 11
-67.0311909247
 21
154.0245100154
 31
0.0
  0
LINE
  5
13C
330
1F
100
AcDbEntity
  8
0
  6
CONTINUOUS
 62
     7
100
AcDbLine
 10
-68.2653962828
 20
154.0245100154
 30
0.0
 11
-67.9923153429
 21
154.4145100154
 31
0.0
  0
LINE
  5
13D
330
1F
100
AcDbEntity
  8
0
  6
CONTINUOUS
 62
     7
100
AcDbLine
 10
-67.9923153429
 20
157.6345100154
 30
0.0
 11
-68.2653962828
 21
158.0245100154
 31
0.0
  0
LINE
  5
13E
330
1F
100
AcDbEntity
  8
0
  6
CONTINUOUS
 62
     7
100
AcDbLine
 10
-68.4072778813
 20
154.0245100154
 30
0.0
 11
-68.2653962828
 21
154.0245100154
 31
0.0
  0
LINE
  5
13F
330
1F
100
AcDbEntity
  8
0
  6
CONTINUOUS
 62
     7
100
AcDbLine
 10
-68.2653962828
 20
158.0245100154
 30
0.0
 11
-68.4072778813
 21
158.0245100154
 31
0.0
  0
LINE
  5
140
330
1F
100
AcDbEntity
  8
0
  6
CONTINUOUS
 62
     7
100
AcDbLine
 10
-66.3431474465
 20
154.0245100154
 30
0.0
 11
-66.201265848
 21
154.0245100154
 31
0.0
  0
LINE
  5
141
330
1F
100
AcDbEntity
  8
0
  6
CONTINUOUS
 62
     7
100
AcDbLine
 10
-66.201265848
 20
158.0245100154
 30
0.0
 11
-66.3431474465
 21
158.0245100154
 31
0.0
  0
LINE
  5
142
330
1F
100
AcDbEntity
  8
0
  6
CONTINUOUS
 62
     7
100
AcDbLine
 10
-68.4072778813
 20
158.0245100154
 30
0.0
 11
-68.6803588212
 21
157.6345100154
 31
0.0
  0
LINE
  5
143
330
1F
100
AcDbEntity
  8
0
  6
CONTINUOUS
 62
     7
100
AcDbLine
 10
-68.6803588212
 20
154.4145100154
 30
0.0
 11
-68.4072778813
 21
154.0245100154
 31
0.0
  0
LINE
  5
144
330
1F
100
AcDbEntity
  8
0
  6
CONTINUOUS
 62
     7
100
AcDbLine
 10
-67.719234403
 20
158.0245100154
 30
0.0
 11
-67.9923153429
 21
157.6345100154
 31
0.0
  0
LINE
  5
145
330
1F
100
AcDbEntity
  8
0
  6
CONTINUOUS
 62
     7
100
AcDbLine
 10
-67.9923153429
 20
154.4145100154
 30
0.0
 11
-67.719234403
 21
154.0245100154
 31
0.0
  0
LINE
  5
146
330
1F
100
AcDbEntity
  8
0
  6
CONTINUOUS
 62
     7
100
AcDbLine
 10
-66.201265848
 20
154.0245100154
 30
0.0
 11
-65.9281849081
 21
154.4145100154
 31
0.0
  0
LINE
  5
147
330
1F
100
AcDbEntity
  8
0
  6
CONTINUOUS
 62
     7
100
AcDbLine
 10
-65.9281849081
 20
157.6345100154
 30
0.0
 11
-66.201265848
 21
158.0245100154
 31
0.0
  0
LINE
  5
148
330
1F
100
AcDbEntity
  8
0
  6
CONTINUOUS
 62
     7
100
AcDbLine
 10
-65.6551039682
 20
158.0245100154
 30
0.0
 11
-65.9281849081
 21
157.6345100154
 31
0.0
  0
LINE
  5
149
330
1F
100
AcDbEntity
  8
0
  6
CONTINUOUS
 62
     7
100
AcDbLine
 10
-65.9281849081
 20
154.4145100154
 30
0.0
 11
-65.6551039682
 21
154.0245100154
 31
0.0
  0
LINE
  5
14A
330
1F
100
AcDbEntity
  8
0
  6
CONTINUOUS
 62
     7
100
AcDbLine
 10
-67.719234403
 20
154.0245100154
 30
0.0
 11
-67.5773528045
 21
154.0245100154
 31
0.0
  0
LINE
  5
14B
330
1F
100
AcDbEntity
  8
0
  6
CONTINUOUS
 62
     7
100
AcDbLine
 10
-67.5773528045
 20
158.0245100154
 30
0.0
 11
-67.719234403
 21
158.0245100154
 31
0.0
  0
LINE
  5
14C
330
1F
100
AcDbEntity
  8
0
  6
CONTINUOUS
 62
     7
100
AcDbLine
 10
-67.5773528045
 20
154.0245100154
 30
0.0
 11
-67.3042718646
 21
154.4145100154
 31
0.0
  0
LINE
  5
14D
330
1F
100
AcDbEntity
  8
0
  6
CONTINUOUS
 62
     7
100
AcDbLine
 10
-67.3042718646
 20
157.6345100154
 30
0.0
 11
-67.5773528045
 21
158.0245100154
 31
0.0
  0
LINE
  5
14E
330
1F
100
AcDbEntity
  8
0
  6
CONTINUOUS
 62
     7
100
AcDbLine
 10
-66.3431474465
 20
158.0245100154
 30
0.0
 11
-66.6162283864
 21
157.6345100154
 31
0.0
  0
LINE
  5
14F
330
1F
100
AcDbEntity
  8
0
  6
CONTINUOUS
 62
     7
100
AcDbLine
 10
-66.6162283864
 20
154.4145100154
 30
0.0
 11
-66.3431474465
 21
154.0245100154
 31
0.0
  0
LINE
  5
150
330
1F
100
AcDbEntity
  8
0
  6
CONTINUOUS
 62
     7
100
AcDbLine
 10
-69.0953213595
 20
158.0245100154
 30
0.0
 11
-69.3684022994
 21
157.6345100154
 31
0.0
  0
LINE
  5
151
330
1F
100
AcDbEntity
  8
0
  6
CONTINUOUS
 62
     7
100
AcDbLine
 10
-69.3684022994
 20
154.4145100154
 30
0.0
 11
-69.0953213595
 21
154.0245100154
 31
0.0
  0
LINE
  5
152
330
1F
100
AcDbEntity
  8
0
  6
CONTINUOUS
 62
     7
100
AcDbLine
 10
-69.0953213595
 20
154.0245100154
 30
0.0
 11
-68.9534397611
 21
154.0245100154
 31
0.0
  0
LINE
  5
153
330
1F
100
AcDbEntity
  8
0
  6
CONTINUOUS
 62
     7
100
AcDbLine
 10
-68.9534397611
 20
158.0245100154
 30
0.0
 11
-69.0953213595
 21
158.0245100154
 31
0.0
  0
LINE
  5
154
330
1F
100
AcDbEntity
  8
0
  6
CONTINUOUS
 62
     7
100
AcDbLine
 10
-68.9534397611
 20
154.0245100154
 30
0.0
 11
-68.6803588212
 21
154.4145100154
 31
0.0
  0
LINE
  5
155
330
1F
100
AcDbEntity
  8
0
  6
CONTINUOUS
 62
     7
100
AcDbLine
 10
-68.6803588212
 20
157.6345100154
 30
0.0
 11
-68.9534397611
 21
158.0245100154
 31
0.0
  0
LINE
  5
156
330
1F
100
AcDbEntity
  8
0
  6
CONTINUOUS
 62
     7
100
AcDbLine
 10
-66.8893093263
 20
154.0245100154
 30
0.0
 11
-66.6162283864
 21
154.4145100154
 31
0.0
  0
LINE
  5
157
330
1F
100
AcDbEntity
  8
0
  6
CONTINUOUS
 62
     7
100
AcDbLine
 10
-66.6162283864
 20
157.6345100154
 30
0.0
 11
-66.8893093263
 21
158.0245100154
 31
0.0
  0
LINE
  5
158
330
1F
100
AcDbEntity
  8
0
  6
CONTINUOUS
 62
     7
100
AcDbLine
 10
-67.0311909247
 20
154.0245100154
 30
0.0
 11
-66.8893093263
 21
154.0245100154
 31
0.0
  0
LINE
  5
159
330
1F
100
AcDbEntity
  8
0
  6
CONTINUOUS
 62
     7
100
AcDbLine
 10
-66.8893093263
 20
158.0245100154
 30
0.0
 11
-67.0311909247
 21
158.0245100154
 31
0.0
  0
LINE
  5
15A
330
1F
100
AcDbEntity
  8
0
  6
CONTINUOUS
 62
     7
100
AcDbLine
 10
-64.96706049
 20
154.0245100154
 30
0.0
 11
-64.8251788915
 21
154.0245100154
 31
0.0
  0
LINE
  5
15B
330
1F
100
AcDbEntity
  8
0
  6
CONTINUOUS
 62
     7
100
AcDbLine
 10
-64.8251788915
 20
158.0245100154
 30
0.0
 11
-64.96706049
 21
158.0245100154
 31
0.0
  0
LINE
  5
15C
330
1F
100
AcDbEntity
  8
0
  6
CONTINUOUS
 62
     7
100
AcDbLine
 10
-62.7610484567
 20
154.0245100154
 30
0.0
 11
-62.4879675168
 21
154.4145100154
 31
0.0
  0
LINE
  5
15D
330
1F
100
AcDbEntity
  8
0
  6
CONTINUOUS
 62
     7
100
AcDbLine
 10
-62.4879675168
 20
157.6345100154
 30
0.0
 11
-62.7610484567
 21
158.0245100154
 31
0.0
  0
LINE
  5
15E
330
1F
100
AcDbEntity
  8
0
  6
CONTINUOUS
 62
     7
100
AcDbLine
 10
-63.449091935
 20
154.0245100154
 30
0.0
 11
-63.1760109951
 21
154.4145100154
 31
0.0
  0
LINE
  5
15F
330
1F
100
AcDbEntity
  8
0
  6
CONTINUOUS
 62
     7
100
AcDbLine
 10
-63.1760109951
 20
157.6345100154
 30
0.0
 11
-63.449091935
 21
158.0245100154
 31
0.0
  0
LINE
  5
160
330
1F
100
AcDbEntity
  8
0
  6
CONTINUOUS
 62
     7
100
AcDbLine
 10
-65.5132223698
 20
154.0245100154
 30
0.0
 11
-65.2401414299
 21
154.4145100154
 31
0.0
  0
LINE
  5
161
330
1F
100
AcDbEntity
  8
0
  6
CONTINUOUS
 62
     7
100
AcDbLine
 10
-65.2401414299
 20
157.6345100154
 30
0.0
 11
-65.5132223698
 21
158.0245100154
 31
0.0
  0
LINE
  5
162
330
1F
100
AcDbEntity
  8
0
  6
CONTINUOUS
 62
     7
100
AcDbLine
 10
-64.1371354132
 20
154.0245100154
 30
0.0
 11
-63.8640544733
 21
154.4145100154
 31
0.0
  0
LINE
  5
163
330
1F
100
AcDbEntity
  8
0
  6
CONTINUOUS
 62
     7
100
AcDbLine
 10
-63.8640544733
 20
157.6345100154
 30
0.0
 11
-64.1371354132
 21
158.0245100154
 31
0.0
  0
LINE
  5
164
330
1F
100
AcDbEntity
  8
0
  6
CONTINUOUS
 62
     7
100
AcDbLine
 10
-62.0730049785
 20
154.0245100154
 30
0.0
 11
-61.7999240386
 21
154.4145100154
 31
0.0
  0
LINE
  5
165
330
1F
100
AcDbEntity
  8
0
  6
CONTINUOUS
 62
     7
100
AcDbLine
 10
-61.7999240386
 20
157.6345100154
 30
0.0
 11
-62.0730049785
 21
158.0245100154
 31
0.0
  0
LINE
  5
166
330
1F
100
AcDbEntity
  8
0
  6
CONTINUOUS
 62
     7
100
AcDbLine
 10
-62.9029300552
 20
154.0245100154
 30
0.0
 11
-62.7610484567
 21
154.0245100154
 31
0.0
  0
LINE
  5
167
330
1F
100
AcDbEntity
  8
0
  6
CONTINUOUS
 62
     7
100
AcDbLine
 10
-62.7610484567
 20
158.0245100154
 30
0.0
 11
-62.9029300552
 21
158.0245100154
 31
0.0
  0
LINE
  5
168
330
1F
100
AcDbEntity
  8
0
  6
CONTINUOUS
 62
     7
100
AcDbLine
 10
-64.96706049
 20
158.0245100154
 30
0.0
 11
-65.2401414299
 21
157.6345100154
 31
0.0
  0
LINE
  5
169
330
1F
100
AcDbEntity
  8
0
  6
CONTINUOUS
 62
     7
100
AcDbLine
 10
-65.2401414299
 20
154.4145100154
 30
0.0
 11
-64.96706049
 21
154.0245100154
 31
0.0
  0
LINE
  5
16A
330
1F
100
AcDbEntity
  8
0
  6
CONTINUOUS
 62
     7
100
AcDbLine
 10
-63.5909735334
 20
154.0245100154
 30
0.0
 11
-63.449091935
 21
154.0245100154
 31
0.0
  0
LINE
  5
16B
330
1F
100
AcDbEntity
  8
0
  6
CONTINUOUS
 62
     7
100
AcDbLine
 10
-63.449091935
 20
158.0245100154
 30
0.0
 11
-63.5909735334
 21
158.0245100154
 31
0.0
  0
LINE
  5
16C
330
1F
100
AcDbEntity
  8
0
  6
CONTINUOUS
 62
     7
100
AcDbLine
 10
-62.2148865769
 20
158.0245100154
 30
0.0
 11
-62.4879675168
 21
157.6345100154
 31
0.0
  0
LINE
  5
16D
330
1F
100
AcDbEntity
  8
0
  6
CONTINUOUS
 62
     7
100
AcDbLine
 10
-62.4879675168
 20
154.4145100154
 30
0.0
 11
-62.2148865769
 21
154.0245100154
 31
0.0
  0
LINE
  5
16E
330
1F
100
AcDbEntity
  8
0
  6
CONTINUOUS
 62
     7
100
AcDbLine
 10
-62.2148865769
 20
154.0245100154
 30
0.0
 11
-62.0730049785
 21
154.0245100154
 31
0.0
  0
LINE
  5
16F
330
1F
100
AcDbEntity
  8
0
  6
CONTINUOUS
 62
     7
100
AcDbLine
 10
-62.0730049785
 20
158.0245100154
 30
0.0
 11
-62.2148865769
 21
158.0245100154
 31
0.0
  0
LINE
  5
170
330
1F
100
AcDbEntity
  8
0
  6
CONTINUOUS
 62
     7
100
AcDbLine
 10
-64.2790170117
 20
154.0245100154
 30
0.0
 11
-64.1371354132
 21
154.0245100154
 31
0.0
  0
LINE
  5
171
330
1F
100
AcDbEntity
  8
0
  6
CONTINUOUS
 62
     7
100
AcDbLine
 10
-64.1371354132
 20
158.0245100154
 30
0.0
 11
-64.2790170117
 21
158.0245100154
 31
0.0
  0
LINE
  5
172
330
1F
100
AcDbEntity
  8
0
  6
CONTINUOUS
 62
     7
100
AcDbLine
 10
-62.9029300552
 20
158.0245100154
 30
0.0
 11
-63.1760109951
 21
157.6345100154
 31
0.0
  0
LINE
  5
173
330
1F
100
AcDbEntity
  8
0
  6
CONTINUOUS
 62
     7
100
AcDbLine
 10
-63.1760109951
 20
154.4145100154
 30
0.0
 11
-62.9029300552
 21
154.0245100154
 31
0.0
  0
LINE
  5
174
330
1F
100
AcDbEntity
  8
0
  6
CONTINUOUS
 62
     7
100
AcDbLine
 10
-63.5909735334
 20
158.0245100154
 30
0.0
 11
-63.8640544733
 21
157.6345100154
 31
0.0
  0
LINE
  5
175
330
1F
100
AcDbEntity
  8
0
  6
CONTINUOUS
 62
     7
100
AcDbLine
 10
-63.8640544733
 20
154.4145100154
 30
0.0
 11
-63.5909735334
 21
154.0245100154
 31
0.0
  0
LINE
  5
176
330
1F
100
AcDbEntity
  8
0
  6
CONTINUOUS
 62
     7
100
AcDbLine
 10
-64.2790170117
 20
158.0245100154
 30
0.0
 11
-64.5520979516
 21
157.6345100154
 31
0.0
  0
LINE
  5
177
330
1F
100
AcDbEntity
  8
0
  6
CONTINUOUS
 62
     7
100
AcDbLine
 10
-64.5520979516
 20
154.4145100154
 30
0.0
 11
-64.2790170117
 21
154.0245100154
 31
0.0
  0
LINE
  5
178
330
1F
100
AcDbEntity
  8
0
  6
CONTINUOUS
 62
     7
100
AcDbLine
 10
-64.8251788915
 20
154.0245100154
 30
0.0
 11
-64.5520979516
 21
154.4145100154
 31
0.0
  0
LINE
  5
179
330
1F
100
AcDbEntity
  8
0
  6
CONTINUOUS
 62
     7
100
AcDbLine
 10
-64.5520979516
 20
157.6345100154
 30
0.0
 11
-64.8251788915
 21
158.0245100154
 31
0.0
  0
LINE
  5
17A
330
1F
100
AcDbEntity
  8
0
  6
CONTINUOUS
 62
     7
100
AcDbLine
 10
-61.5268430987
 20
158.0245100154
 30
0.0
 11
-61.7999240386
 21
157.6345100154
 31
0.0
  0
LINE
  5
17B
330
1F
100
AcDbEntity
  8
0
  6
CONTINUOUS
 62
     7
100
AcDbLine
 10
-61.7999240386
 20
154.4145100154
 30
0.0
 11
-61.5268430987
 21
154.0245100154
 31
0.0
  0
LINE
  5
17C
330
1F
100
AcDbEntity
  8
0
  6
CONTINUOUS
 62
     7
100
AcDbLine
 10
-59.4627126639
 20
158.0245100154
 30
0.0
 11
-59.7357936038
 21
157.6345100154
 31
0.0
  0
LINE
  5
17D
330
1F
100
AcDbEntity
  8
0
  6
CONTINUOUS
 62
     7
100
AcDbLine
 10
-59.7357936038
 20
154.4145100154
 30
0.0
 11
-59.4627126639
 21
154.0245100154
 31
0.0
  0
LINE
  5
17E
330
1F
100
AcDbEntity
  8
0
  6
CONTINUOUS
 62
     7
100
AcDbLine
 10
-60.1507561421
 20
158.0245100154
 30
0.0
 11
-60.423837082
 21
157.6345100154
 31
0.0
  0
LINE
  5
17F
330
1F
100
AcDbEntity
  8
0
  6
CONTINUOUS
 62
     7
100
AcDbLine
 10
-60.423837082
 20
154.4145100154
 30
0.0
 11
-60.1507561421
 21
154.0245100154
 31
0.0
  0
LINE
  5
180
330
1F
100
AcDbEntity
  8
0
  6
CONTINUOUS
 62
     7
100
AcDbLine
 10
-60.6969180219
 20
154.0245100154
 30
0.0
 11
-60.423837082
 21
154.4145100154
 31
0.0
  0
LINE
  5
181
330
1F
100
AcDbEntity
  8
0
  6
CONTINUOUS
 62
     7
100
AcDbLine
 10
-60.423837082
 20
157.6345100154
 30
0.0
 11
-60.6969180219
 21
158.0245100154
 31
0.0
  0
LINE
  5
182
330
1F
100
AcDbEntity
  8
0
  6
CONTINUOUS
 62
     7
100
AcDbLine
 10
-60.8387996204
 20
158.0245100154
 30
0.0
 11
-61.1118805603
 21
157.6345100154
 31
0.0
  0
LINE
  5
183
330
1F
100
AcDbEntity
  8
0
  6
CONTINUOUS
 62
     7
100
AcDbLine
 10
-61.1118805603
 20
154.4145100154
 30
0.0
 11
-60.8387996204
 21
154.0245100154
 31
0.0
  0
LINE
  5
184
330
1F
100
AcDbEntity
  8
0
  6
CONTINUOUS
 62
     7
100
AcDbLine
 10
-58.7746691856
 20
154.0245100154
 30
0.0
 11
-58.6327875872
 21
154.0245100154
 31
0.0
  0
LINE
  5
185
330
1F
100
AcDbEntity
  8
0
  6
CONTINUOUS
 62
     7
100
AcDbLine
 10
-58.6327875872
 20
158.0245100154
 30
0.0
 11
-58.7746691856
 21
158.0245100154
 31
0.0
  0
LINE
  5
186
330
1F
100
AcDbEntity
  8
0
  6
CONTINUOUS
 62
     7
100
AcDbLine
 10
-58.0866257073
 20
154.0245100154
 30
0.0
 11
-57.9447441089
 21
154.0245100154
 31
0.0
  0
LINE
  5
187
330
1F
100
AcDbEntity
  8
0
  6
CONTINUOUS
 62
     7
100
AcDbLine
 10
-57.9447441089
 20
158.0245100154
 30
0.0
 11
-58.0866257073
 21
158.0245100154
 31
0.0
  0
LINE
  5
188
330
1F
100
AcDbEntity
  8
0
  6
CONTINUOUS
 62
     7
100
AcDbLine
 10
-57.3985822291
 20
158.0245100154
 30
0.0
 11
-57.671663169
 21
157.6345100154
 31
0.0
  0
LINE
  5
189
330
1F
100
AcDbEntity
  8
0
  6
CONTINUOUS
 62
     7
100
AcDbLine
 10
-57.671663169
 20
154.4145100154
 30
0.0
 11
-57.3985822291
 21
154.0245100154
 31
0.0
  0
LINE
  5
18A
330
1F
100
AcDbEntity
  8
0
  6
CONTINUOUS
 62
     7
100
AcDbLine
 10
-58.6327875872
 20
154.0245100154
 30
0.0
 11
-58.3597066472
 21
154.4145100154
 31
0.0
  0
LINE
  5
18B
330
1F
100
AcDbEntity
  8
0
  6
CONTINUOUS
 62
     7
100
AcDbLine
 10
-58.3597066472
 20
157.6345100154
 30
0.0
 11
-58.6327875872
 21
158.0245100154
 31
0.0
  0
LINE
  5
18C
330
1F
100
AcDbEntity
  8
0
  6
CONTINUOUS
 62
     7
100
AcDbLine
 10
-60.1507561421
 20
154.0245100154
 30
0.0
 11
-60.0088745437
 21
154.0245100154
 31
0.0
  0
LINE
  5
18D
330
1F
100
AcDbEntity
  8
0
  6
CONTINUOUS
 62
     7
100
AcDbLine
 10
-60.0088745437
 20
158.0245100154
 30
0.0
 11
-60.1507561421
 21
158.0245100154
 31
0.0
  0
LINE
  5
18E
330
1F
100
AcDbEntity
  8
0
  6
CONTINUOUS
 62
     7
100
AcDbLine
 10
-57.9447441089
 20
154.0245100154
 30
0.0
 11
-57.671663169
 21
154.4145100154
 31
0.0
  0
LINE
  5
18F
330
1F
100
AcDbEntity
  8
0
  6
CONTINUOUS
 62
     7
100
AcDbLine
 10
-57.671663169
 20
157.6345100154
 30
0.0
 11
-57.9447441089
 21
158.0245100154
 31
0.0
  0
LINE
  5
190
330
1F
100
AcDbEntity
  8
0
  6
CONTINUOUS
 62
     7
100
AcDbLine
 10
-58.7746691856
 20
158.0245100154
 30
0.0
 11
-59.0477501255
 21
157.6345100154
 31
0.0
  0
LINE
  5
191
330
1F
100
AcDbEntity
  8
0
  6
CONTINUOUS
 62
     7
100
AcDbLine
 10
-59.0477501255
 20
154.4145100154
 30
0.0
 11
-58.7746691856
 21
154.0245100154
 31
0.0
  0
LINE
  5
192
330
1F
100
AcDbEntity
  8
0
  6
CONTINUOUS
 62
     7
100
AcDbLine
 10
-60.8387996204
 20
154.0245100154
 30
0.0
 11
-60.6969180219
 21
154.0245100154
 31
0.0
  0
LINE
  5
193
330
1F
100
AcDbEntity
  8
0
  6
CONTINUOUS
 62
     7
100
AcDbLine
 10
-60.6969180219
 20
158.0245100154
 30
0.0
 11
-60.8387996204
 21
158.0245100154
 31
0.0
  0
LINE
  5
194
330
1F
100
AcDbEntity
  8
0
  6
CONTINUOUS
 62
     7
100
AcDbLine
 10
-61.3849615002
 20
154.0245100154
 30
0.0
 11
-61.1118805603
 21
154.4145100154
 31
0.0
  0
LINE
  5
195
330
1F
100
AcDbEntity
  8
0
  6
CONTINUOUS
 62
     7
100
AcDbLine
 10
-61.1118805603
 20
157.6345100154
 30
0.0
 11
-61.3849615002
 21
158.0245100154
 31
0.0
  0
LINE
  5
196
330
1F
100
AcDbEntity
  8
0
  6
CONTINUOUS
 62
     7
100
AcDbLine
 10
-58.0866257073
 20
158.0245100154
 30
0.0
 11
-58.3597066472
 21
157.6345100154
 31
0.0
  0
LINE
  5
197
330
1F
100
AcDbEntity
  8
0
  6
CONTINUOUS
 62
     7
100
AcDbLine
 10
-58.3597066472
 20
154.4145100154
 30
0.0
 11
-58.0866257073
 21
154.0245100154
 31
0.0
  0
LINE
  5
198
330
1F
100
AcDbEntity
  8
0
  6
CONTINUOUS
 62
     7
100
AcDbLine
 10
-60.0088745437
 20
154.0245100154
 30
0.0
 11
-59.7357936038
 21
154.4145100154
 31
0.0
  0
LINE
  5
199
330
1F
100
AcDbEntity
  8
0
  6
CONTINUOUS
 62
     7
100
AcDbLine
 10
-59.7357936038
 20
157.6345100154
 30
0.0
 11
-60.0088745437
 21
158.0245100154
 31
0.0
  0
LINE
  5
19A
330
1F
100
AcDbEntity
  8
0
  6
CONTINUOUS
 62
     7
100
AcDbLine
 10
-59.3208310654
 20
154.0245100154
 30
0.0
 11
-59.0477501255
 21
154.4145100154
 31
0.0
  0
LINE
  5
19B
330
1F
100
AcDbEntity
  8
0
  6
CONTINUOUS
 62
     7
100
AcDbLine
 10
-59.0477501255
 20
157.6345100154
 30
0.0
 11
-59.3208310654
 21
158.0245100154
 31
0.0
  0
LINE
  5
19C
330
1F
100
AcDbEntity
  8
0
  6
CONTINUOUS
 62
     7
100
AcDbLine
 10
-61.5268430987
 20
154.0245100154
 30
0.0
 11
-61.3849615002
 21
154.0245100154
 31
0.0
  0
LINE
  5
19D
330
1F
100
AcDbEntity
  8
0
  6
CONTINUOUS
 62
     7
100
AcDbLine
 10
-61.3849615002
 20
158.0245100154
 30
0.0
 11
-61.5268430987
 21
158.0245100154
 31
0.0
  0
LINE
  5
19E
330
1F
100
AcDbEntity
  8
0
  6
CONTINUOUS
 62
     7
100
AcDbLine
 10
-59.4627126639
 20
154.0245100154
 30
0.0
 11
-59.3208310654
 21
154.0245100154
 31
0.0
  0
LINE
  5
19F
330
1F
100
AcDbEntity
  8
0
  6
CONTINUOUS
 62
     7
100
AcDbLine
 10
-59.3208310654
 20
158.0245100154
 30
0.0
 11
-59.4627126639
 21
158.0245100154
 31
0.0
  0
LINE
  5
1A0
330
1F
100
AcDbEntity
  8
0
  6
CONTINUOUS
 62
     7
100
AcDbLine
 10
-57.3985822291
 20
154.0245100154
 30
0.0
 11
-57.2567006306
 21
154.0245100154
 31
0.0
  0
LINE
  5
1A1
330
1F
100
AcDbEntity
  8
0
  6
CONTINUOUS
 62
     7
100
AcDbLine
 10
-57.2567006306
 20
158.0245100154
 30
0.0
 11
-57.3985822291
 21
158.0245100154
 31
0.0
  0
LINE
  5
1A2
330
1F
100
AcDbEntity
  8
0
  6
CONTINUOUS
 62
     7
100
AcDbLine
 10
-55.8806136741
 20
154.0245100154
 30
0.0
 11
-55.8209432056
 21
154.1097282761
 31
0.0
  0
LINE
  5
1A3
330
1F
100
AcDbEntity
  8
0
  6
CONTINUOUS
 62
     7
100
AcDbLine
 10
-55.8209432056
 20
157.9392917547
 30
0.0
 11
-55.8806136741
 21
158.0245100154
 31
0.0
  0
LINE
  5
1A4
330
1F
100
AcDbEntity
  8
0
  6
CONTINUOUS
 62
     7
100
AcDbLine
 10
-56.7105387508
 20
154.0245100154
 30
0.0
 11
-56.5686571524
 21
154.0245100154
 31
0.0
  0
LINE
  5
1A5
330
1F
100
AcDbEntity
  8
0
  6
CONTINUOUS
 62
     7
100
AcDbLine
 10
-56.5686571524
 20
158.0245100154
 30
0.0
 11
-56.7105387508
 21
158.0245100154
 31
0.0
  0
LINE
  5
1A6
330
1F
100
AcDbEntity
  8
0
  6
CONTINUOUS
 62
     7
100
AcDbLine
 10
-56.5686571524
 20
154.0245100154
 30
0.0
 11
-56.2955762125
 21
154.4145100154
 31
0.0
  0
LINE
  5
1A7
330
1F
100
AcDbEntity
  8
0
  6
CONTINUOUS
 62
     7
100
AcDbLine
 10
-56.2955762125
 20
157.6345100154
 30
0.0
 11
-56.5686571524
 21
158.0245100154
 31
0.0
  0
LINE
  5
1A8
330
1F
100
AcDbEntity
  8
0
  6
CONTINUOUS
 62
     7
100
AcDbLine
 10
-56.0224952726
 20
154.0245100154
 30
0.0
 11
-55.8806136741
 21
154.0245100154
 31
0.0
  0
LINE
  5
1A9
330
1F
100
AcDbEntity
  8
0
  6
CONTINUOUS
 62
     7
100
AcDbLine
 10
-55.8806136741
 20
158.0245100154
 30
0.0
 11
-56.0224952726
 21
158.0245100154
 31
0.0
  0
LINE
  5
1AA
330
1F
100
AcDbEntity
  8
0
  6
CONTINUOUS
 62
     7
100
AcDbLine
 10
-56.7105387508
 20
158.0245100154
 30
0.0
 11
-56.9836196907
 21
157.6345100154
 31
0.0
  0
LINE
  5
1AB
330
1F
100
AcDbEntity
  8
0
  6
CONTINUOUS
 62
     7
100
AcDbLine
 10
-56.9836196907
 20
154.4145100154
 30
0.0
 11
-56.7105387508
 21
154.0245100154
 31
0.0
  0
LINE
  5
1AC
330
1F
100
AcDbEntity
  8
0
  6
CONTINUOUS
 62
     7
100
AcDbLine
 10
-57.2567006306
 20
154.0245100154
 30
0.0
 11
-56.9836196907
 21
154.4145100154
 31
0.0
  0
LINE
  5
1AD
330
1F
100
AcDbEntity
  8
0
  6
CONTINUOUS
 62
     7
100
AcDbLine
 10
-56.9836196907
 20
157.6345100154
 30
0.0
 11
-57.2567006306
 21
158.0245100154
 31
0.0
  0
LINE
  5
1AE
330
1F
100
AcDbEntity
  8
0
  6
CONTINUOUS
 62
     7
100
AcDbLine
 10
-56.0224952726
 20
158.0245100154
 30
0.0
 11
-56.2955762125
 21
157.6345100154
 31
0.0
  0
LINE
  5
1AF
330
1F
100
AcDbEntity
  8
0
  6
CONTINUOUS
 62
     7
100
AcDbLine
 10
-56.2955762125
 20
154.4145100154
 30
0.0
 11
-56.0224952726
 21
154.0245100154
 31
0.0
  0
LINE
  5
1B0
330
1F
100
AcDbEntity
  8
0
  6
CONTINUOUS
 62
     7
100
AcDbLine
 10
-74.9770989516
 20
162.5245100154
 30
0.0
 11
-80.7270989516
 21
162.5245100154
 31
0.0
  0
LINE
  5
1B1
330
1F
100
AcDbEntity
  8
0
  6
CONTINUOUS
 62
     7
100
AcDbLine
 10
-80.7270989516
 20
149.5245100154
 30
0.0
 11
-74.9770989516
 21
149.5245100154
 31
0.0
  0
LINE
  5
1B2
330
1F
100
AcDbEntity
  8
0
  6
CONTINUOUS
 62
     7
100
AcDbLine
 10
-74.9770989516
 20
149.5245100154
 30
0.0
 11
-74.7270989516
 21
149.7745100154
 31
0.0
  0
LINE
  5
1B3
330
1F
100
AcDbEntity
  8
0
  6
CONTINUOUS
 62
     7
100
AcDbLine
 10
-74.7270989516
 20
162.2745100154
 30
0.0
 11
-74.9770989516
 21
162.5245100154
 31
0.0
  0
LINE
  5
1B4
330
1F
100
AcDbEntity
  8
0
  6
CONTINUOUS
 62
     7
100
AcDbLine
 10
-48.5709432056
 20
162.5245100154
 30
0.0
 11
-48.8209432056
 21
162.2745100154
 31
0.0
  0
LINE
  5
1B5
330
1F
100
AcDbEntity
  8
0
  6
CONTINUOUS
 62
     7
100
AcDbLine
 10
-48.8209432056
 20
149.7745100154
 30
0.0
 11
-48.5709432056
 21
149.5245100154
 31
0.0
  0
LINE
  5
1B6
330
1F
100
AcDbEntity
  8
0
  6
CONTINUOUS
 62
     7
100
AcDbLine
 10
-48.5709432056
 20
149.5245100154
 30
0.0
 11
-42.8209432056
 21
149.5245100154
 31
0.0
  0
LINE
  5
1B7
330
1F
100
AcDbEntity
  8
0
  6
CONTINUOUS
 62
     7
100
AcDbLine
 10
-42.8209432056
 20
162.5245100154
 30
0.0
 11
-48.5709432056
 21
162.5245100154
 31
0.0
  0
LINE
  5
1B8
330
1F
100
AcDbEntity
  8
0
  6
CONTINUOUS
 62
     7
100
AcDbLine
 10
-83.7270989516
 20
162.0245100154
 30
0.0
 11
-84.7270989516
 21
162.0245100154
 31
0.0
  0
LINE
  5
1B9
330
1F
100
AcDbEntity
  8
0
  6
CONTINUOUS
 62
     7
100
AcDbLine
 10
-84.7270989516
 20
150.0245100154
 30
0.0
 11
-83.7270989516
 21
150.0245100154
 31
0.0
  0
LINE
  5
1BA
330
1F
100
AcDbEntity
  8
0
  6
CONTINUOUS
 62
     7
100
AcDbLine
 10
-39.8209432056
 20
150.0245100154
 30
0.0
 11
-38.8209432056
 21
150.0245100154
 31
0.0
  0
LINE
  5
1BB
330
1F
100
AcDbEntity
  8
0
  6
CONTINUOUS
 62
     7
100
AcDbLine
 10
-38.8209432056
 20
162.0245100154
 30
0.0
 11
-39.8209432056
 21
162.0245100154
 31
0.0
  0
LINE
  5
1BC
330
1F
100
AcDbEntity
  8
0
  6
CONTINUOUS
 62
     7
100
AcDbLine
 10
-83.7270989516
 20
84.0245100154
 30
0.0
 11
-83.9770989516
 21
84.0245100154
 31
0.0
  0
LINE
  5
1BD
330
1F
100
AcDbEntity
  8
0
  6
CONTINUOUS
 62
     7
100
AcDbLine
 10
-84.9770989516
 20
84.0245100154
 30
0.0
 11
-83.9770989516
 21
84.0245100154
 31
0.0
  0
LINE
  5
1BE
330
1F
100
AcDbEntity
  8
0
  6
CONTINUOUS
 62
     7
100
AcDbLine
 10
-84.9770989516
 20
91.0745100154
 30
0.0
 11
-84.9770989516
 21
84.0245100154
 31
0.0
  0
LINE
  5
1BF
330
1F
100
AcDbEntity
  8
0
  6
CONTINUOUS
 62
     7
100
AcDbLine
 10
-84.9770989516
 20
70.0245100154
 30
0.0
 11
-84.9770989516
 21
62.9745100154
 31
0.0
  0
LINE
  5
1C0
330
1F
100
AcDbEntity
  8
0
  6
CONTINUOUS
 62
     7
100
AcDbLine
 10
-84.9770989516
 20
70.0245100154
 30
0.0
 11
-83.9770989516
 21
70.0245100154
 31
0.0
  0
LINE
  5
1C1
330
1F
100
AcDbEntity
  8
0
  6
CONTINUOUS
 62
     7
100
AcDbLine
 10
-85.2270989516
 20
70.0245100154
 30
0.0
 11
-85.2270989516
 21
84.0245100154
 31
0.0
  0
LINE
  5
1C2
330
1F
100
AcDbEntity
  8
0
  6
CONTINUOUS
 62
     7
100
AcDbLine
 10
-84.9770989516
 20
84.0245100154
 30
0.0
 11
-85.2270989516
 21
84.0245100154
 31
0.0
  0
LINE
  5
1C3
330
1F
100
AcDbEntity
  8
0
  6
CONTINUOUS
 62
     7
100
AcDbLine
 10
-84.9770989516
 20
84.0245100154
 30
0.0
 11
-84.9770989516
 21
70.0245100154
 31
0.0
  0
LINE
  5
1C4
330
1F
100
AcDbEntity
  8
0
  6
CONTINUOUS
 62
     7
100
AcDbLine
 10
-85.2270989516
 20
70.0245100154
 30
0.0
 11
-84.9770989516
 21
70.0245100154
 31
0.0
  0
LINE
  5
1C5
330
1F
100
AcDbEntity
  8
0
  6
CONTINUOUS
 62
     7
100
AcDbLine
 10
-83.9770989516
 20
70.0245100154
 30
0.0
 11
-83.9770989516
 21
84.0245100154
 31
0.0
  0
LINE
  5
1C6
330
1F
100
AcDbEntity
  8
0
  6
CONTINUOUS
 62
     7
100
AcDbLine
 10
-85.2270989516
 20
84.0245100154
 30
0.0
 11
-85.2270989516
 21
90.8245100154
 31
0.0
  0
LINE
  5
1C7
330
1F
100
AcDbEntity
  8
0
  6
CONTINUOUS
 62
     7
100
AcDbLine
 10
-85.2270989516
 20
63.2245100154
 30
0.0
 11
-85.2270989516
 21
70.0245100154
 31
0.0
  0
LINE
  5
1C8
330
1F
100
AcDbEntity
  8
0
  6
CONTINUOUS
 62
     7
100
AcDbLine
 10
-83.9770989516
 20
70.0245100154
 30
0.0
 11
-83.7270989516
 21
70.0245100154
 31
0.0
  0
LINE
  5
1C9
330
1F
100
AcDbEntity
  8
0
  6
CONTINUOUS
 62
     7
100
AcDbLine
 10
-75.3770989516
 20
70.0245100154
 30
0.0
 11
-75.3770989516
 21
84.0245100154
 31
0.0
  0
LINE
  5
1CA
330
1F
100
AcDbEntity
  8
0
  6
CONTINUOUS
 62
     7
100
AcDbLine
 10
-80.7270989516
 20
89.6245100154
 30
0.0
 11
-75.3770989516
 21
89.6245100154
 31
0.0
  0
LINE
  5
1CB
330
1F
100
AcDbEntity
  8
0
  6
CONTINUOUS
 62
     7
100
AcDbLine
 10
-75.3770989516
 20
84.0245100154
 30
0.0
 11
-75.3770989516
 21
89.6245100154
 31
0.0
  0
LINE
  5
1CC
330
1F
100
AcDbEntity
  8
0
  6
CONTINUOUS
 62
     7
100
AcDbLine
 10
-75.3770989516
 20
64.4245100154
 30
0.0
 11
-75.3770989516
 21
70.0245100154
 31
0.0
  0
LINE
  5
1CD
330
1F
100
AcDbEntity
  8
0
  6
CONTINUOUS
 62
     7
100
AcDbLine
 10
-75.3770989516
 20
64.4245100154
 30
0.0
 11
-80.7270989516
 21
64.4245100154
 31
0.0
  0
LINE
  5
1CE
330
1F
100
AcDbEntity
  8
0
  6
CONTINUOUS
 62
     7
100
AcDbLine
 10
-75.3770989516
 20
89.6245100154
 30
0.0
 11
-75.1270989516
 21
89.3745100154
 31
0.0
  0
LINE
  5
1CF
330
1F
100
AcDbEntity
  8
0
  6
CONTINUOUS
 62
     7
100
AcDbLine
 10
-75.1270989516
 20
89.3745100154
 30
0.0
 11
-75.1270989516
 21
84.0245100154
 31
0.0
  0
LINE
  5
1D0
330
1F
100
AcDbEntity
  8
0
  6
CONTINUOUS
 62
     7
100
AcDbLine
 10
-75.3770989516
 20
84.0245100154
 30
0.0
 11
-75.1270989516
 21
84.0245100154
 31
0.0
  0
LINE
  5
1D1
330
1F
100
AcDbEntity
  8
0
  6
CONTINUOUS
 62
     7
100
AcDbLine
 10
-75.1270989516
 20
84.0245100154
 30
0.0
 11
-75.1270989516
 21
70.0245100154
 31
0.0
  0
LINE
  5
1D2
330
1F
100
AcDbEntity
  8
0
  6
CONTINUOUS
 62
     7
100
AcDbLine
 10
-75.1270989516
 20
70.0245100154
 30
0.0
 11
-75.3770989516
 21
70.0245100154
 31
0.0
  0
LINE
  5
1D3
330
1F
100
AcDbEntity
  8
0
  6
CONTINUOUS
 62
     7
100
AcDbLine
 10
-75.1270989516
 20
70.0245100154
 30
0.0
 11
-75.1270989516
 21
64.6745100154
 31
0.0
  0
LINE
  5
1D4
330
1F
100
AcDbEntity
  8
0
  6
CONTINUOUS
 62
     7
100
AcDbLine
 10
-75.1270989516
 20
64.6745100154
 30
0.0
 11
-75.3770989516
 21
64.4245100154
 31
0.0
  0
LINE
  5
1D5
330
1F
100
AcDbEntity
  8
0
  6
CONTINUOUS
 62
     7
100
AcDbLine
 10
-38.3209432056
 20
84.0245100154
 30
0.0
 11
-38.3209432056
 21
70.0245100154
 31
0.0
  0
LINE
  5
1D6
330
1F
100
AcDbEntity
  8
0
  6
CONTINUOUS
 62
     7
100
AcDbLine
 10
-38.3209432056
 20
70.0245100154
 30
0.0
 11
-38.5709432056
 21
70.0245100154
 31
0.0
  0
LINE
  5
1D7
330
1F
100
AcDbEntity
  8
0
  6
CONTINUOUS
 62
     7
100
AcDbLine
 10
-38.5709432056
 20
70.0245100154
 30
0.0
 11
-38.5709432056
 21
84.0245100154
 31
0.0
  0
LINE
  5
1D8
330
1F
100
AcDbEntity
  8
0
  6
CONTINUOUS
 62
     7
100
AcDbLine
 10
-38.5709432056
 20
84.0245100154
 30
0.0
 11
-38.3209432056
 21
84.0245100154
 31
0.0
  0
LINE
  5
1D9
330
1F
100
AcDbEntity
  8
0
  6
CONTINUOUS
 62
     7
100
AcDbLine
 10
-38.5709432056
 20
84.0245100154
 30
0.0
 11
-38.5709432056
 21
91.0745100154
 31
0.0
  0
LINE
  5
1DA
330
1F
100
AcDbEntity
  8
0
  6
CONTINUOUS
 62
     7
100
AcDbLine
 10
-38.3209432056
 20
90.8245100154
 30
0.0
 11
-38.3209432056
 21
84.0245100154
 31
0.0
  0
LINE
  5
1DB
330
1F
100
AcDbEntity
  8
0
  6
CONTINUOUS
 62
     7
100
AcDbLine
 10
-38.3209432056
 20
70.0245100154
 30
0.0
 11
-38.3209432056
 21
63.2245100154
 31
0.0
  0
LINE
  5
1DC
330
1F
100
AcDbEntity
  8
0
  6
CONTINUOUS
 62
     7
100
AcDbLine
 10
-38.5709432056
 20
62.9745100154
 30
0.0
 11
-38.5709432056
 21
70.0245100154
 31
0.0
  0
LINE
  5
1DD
330
1F
100
AcDbEntity
  8
0
  6
CONTINUOUS
 62
     7
100
AcDbLine
 10
-39.5709432056
 20
84.0245100154
 30
0.0
 11
-39.5709432056
 21
70.0245100154
 31
0.0
  0
LINE
  5
1DE
330
1F
100
AcDbEntity
  8
0
  6
CONTINUOUS
 62
     7
100
AcDbLine
 10
-38.5709432056
 20
84.0245100154
 30
0.0
 11
-39.5709432056
 21
84.0245100154
 31
0.0
  0
LINE
  5
1DF
330
1F
100
AcDbEntity
  8
0
  6
CONTINUOUS
 62
     7
100
AcDbLine
 10
-38.5709432056
 20
70.0245100154
 30
0.0
 11
-39.5709432056
 21
70.0245100154
 31
0.0
  0
LINE
  5
1E0
330
1F
100
AcDbEntity
  8
0
  6
CONTINUOUS
 62
     7
100
AcDbLine
 10
-39.8209432056
 20
84.0245100154
 30
0.0
 11
-39.5709432056
 21
84.0245100154
 31
0.0
  0
LINE
  5
1E1
330
1F
100
AcDbEntity
  8
0
  6
CONTINUOUS
 62
     7
100
AcDbLine
 10
-39.5709432056
 20
70.0245100154
 30
0.0
 11
-39.8209432056
 21
70.0245100154
 31
0.0
  0
LINE
  5
1E2
330
1F
100
AcDbEntity
  8
0
  6
CONTINUOUS
 62
     7
100
AcDbLine
 10
-48.1709432056
 20
89.6245100154
 30
0.0
 11
-48.1709432056
 21
84.0245100154
 31
0.0
  0
LINE
  5
1E3
330
1F
100
AcDbEntity
  8
0
  6
CONTINUOUS
 62
     7
100
AcDbLine
 10
-48.1709432056
 20
84.0245100154
 30
0.0
 11
-48.4209432056
 21
84.0245100154
 31
0.0
  0
LINE
  5
1E4
330
1F
100
AcDbEntity
  8
0
  6
CONTINUOUS
 62
     7
100
AcDbLine
 10
-48.4209432056
 20
84.0245100154
 30
0.0
 11
-48.4209432056
 21
89.3745100154
 31
0.0
  0
LINE
  5
1E5
330
1F
100
AcDbEntity
  8
0
  6
CONTINUOUS
 62
     7
100
AcDbLine
 10
-48.1709432056
 20
89.6245100154
 30
0.0
 11
-48.4209432056
 21
89.3745100154
 31
0.0
  0
LINE
  5
1E6
330
1F
100
AcDbEntity
  8
0
  6
CONTINUOUS
 62
     7
100
AcDbLine
 10
-42.8209432056
 20
89.6245100154
 30
0.0
 11
-48.1709432056
 21
89.6245100154
 31
0.0
  0
LINE
  5
1E7
330
1F
100
AcDbEntity
  8
0
  6
CONTINUOUS
 62
     7
100
AcDbLine
 10
-48.1709432056
 20
84.0245100154
 30
0.0
 11
-48.1709432056
 21
70.0245100154
 31
0.0
  0
LINE
  5
1E8
330
1F
100
AcDbEntity
  8
0
  6
CONTINUOUS
 62
     7
100
AcDbLine
 10
-48.1709432056
 20
64.4245100154
 30
0.0
 11
-42.8209432056
 21
64.4245100154
 31
0.0
  0
LINE
  5
1E9
330
1F
100
AcDbEntity
  8
0
  6
CONTINUOUS
 62
     7
100
AcDbLine
 10
-48.1709432056
 20
70.0245100154
 30
0.0
 11
-48.1709432056
 21
64.4245100154
 31
0.0
  0
LINE
  5
1EA
330
1F
100
AcDbEntity
  8
0
  6
CONTINUOUS
 62
     7
100
AcDbLine
 10
-48.4209432056
 20
64.6745100154
 30
0.0
 11
-48.4209432056
 21
70.0245100154
 31
0.0
  0
LINE
  5
1EB
330
1F
100
AcDbEntity
  8
0
  6
CONTINUOUS
 62
     7
100
AcDbLine
 10
-48.4209432056
 20
70.0245100154
 30
0.0
 11
-48.1709432056
 21
70.0245100154
 31
0.0
  0
LINE
  5
1EC
330
1F
100
AcDbEntity
  8
0
  6
CONTINUOUS
 62
     7
100
AcDbLine
 10
-48.4209432056
 20
64.6745100154
 30
0.0
 11
-48.1709432056
 21
64.4245100154
 31
0.0
  0
LINE
  5
1ED
330
1F
100
AcDbEntity
  8
0
  6
CONTINUOUS
 62
     7
100
AcDbLine
 10
-48.4209432056
 20
70.0245100154
 30
0.0
 11
-48.4209432056
 21
84.0245100154
 31
0.0
  0
LINE
  5
1EE
330
1F
100
AcDbEntity
  8
0
  6
CONTINUOUS
 62
     7
100
AcDbLine
 10
-80.7270989516
 20
160.0245100154
 30
0.0
 11
-83.7270989516
 21
160.0245100154
 31
0.0
  0
LINE
  5
1EF
330
1F
100
AcDbEntity
  8
0
  6
CONTINUOUS
 62
     7
100
AcDbLine
 10
-83.7270989516
 20
165.0245100154
 30
0.0
 11
-80.7270989516
 21
165.0245100154
 31
0.0
  0
LINE
  5
1F0
330
1F
100
AcDbEntity
  8
0
  6
CONTINUOUS
 62
     7
100
AcDbLine
 10
-80.7270989516
 20
165.0245100154
 30
0.0
 11
-80.7270989516
 21
160.0245100154
 31
0.0
  0
LINE
  5
1F1
330
1F
100
AcDbEntity
  8
0
  6
CONTINUOUS
 62
     7
100
AcDbLine
 10
-83.7270989516
 20
160.0245100154
 30
0.0
 11
-83.7270989516
 21
165.0245100154
 31
0.0
  0
LINE
  5
1F2
330
1F
100
AcDbEntity
  8
0
  6
CONTINUOUS
 62
     7
100
AcDbLine
 10
-80.7270989516
 20
160.0245100154
 30
0.0
 11
-80.7270989516
 21
58.0245100154
 31
0.0
  0
LINE
  5
1F3
330
1F
100
AcDbEntity
  8
0
  6
CONTINUOUS
 62
     7
100
AcDbLine
 10
-83.7270989516
 20
58.0245100154
 30
0.0
 11
-80.7270989516
 21
58.0245100154
 31
0.0
  0
LINE
  5
1F4
330
1F
100
AcDbEntity
  8
0
  6
CONTINUOUS
 62
     7
100
AcDbLine
 10
-83.7270989516
 20
160.0245100154
 30
0.0
 11
-83.7270989516
 21
58.0245100154
 31
0.0
  0
LINE
  5
1F5
330
1F
100
AcDbEntity
  8
0
  6
CONTINUOUS
 62
     7
100
AcDbLine
 10
-80.7270989516
 20
53.0245100154
 30
0.0
 11
-83.7270989516
 21
53.0245100154
 31
0.0
  0
LINE
  5
1F6
330
1F
100
AcDbEntity
  8
0
  6
CONTINUOUS
 62
     7
100
AcDbLine
 10
-80.7270989516
 20
58.0245100154
 30
0.0
 11
-80.7270989516
 21
53.0245100154
 31
0.0
  0
LINE
  5
1F7
330
1F
100
AcDbEntity
  8
0
  6
CONTINUOUS
 62
     7
100
AcDbLine
 10
-83.7270989516
 20
53.0245100154
 30
0.0
 11
-83.7270989516
 21
58.0245100154
 31
0.0
  0
LINE
  5
1F8
330
1F
100
AcDbEntity
  8
0
  6
CONTINUOUS
 62
     7
100
AcDbLine
 10
-39.8209432056
 20
160.0245100154
 30
0.0
 11
-42.8209432056
 21
160.0245100154
 31
0.0
  0
LINE
  5
1F9
330
1F
100
AcDbEntity
  8
0
  6
CONTINUOUS
 62
     7
100
AcDbLine
 10
-39.8209432056
 20
160.0245100154
 30
0.0
 11
-39.8209432056
 21
58.0245100154
 31
0.0
  0
LINE
  5
1FA
330
1F
100
AcDbEntity
  8
0
  6
CONTINUOUS
 62
     7
100
AcDbLine
 10
-42.8209432056
 20
58.0245100154
 30
0.0
 11
-39.8209432056
 21
58.0245100154
 31
0.0
  0
LINE
  5
1FB
330
1F
100
AcDbEntity
  8
0
  6
CONTINUOUS
 62
     7
100
AcDbLine
 10
-42.8209432056
 20
160.0245100154
 30
0.0
 11
-42.8209432056
 21
58.0245100154
 31
0.0
  0
LINE
  5
1FC
330
1F
100
AcDbEntity
  8
0
  6
CONTINUOUS
 62
     7
100
AcDbLine
 10
-42.8209432056
 20
165.0245100154
 30
0.0
 11
-39.8209432056
 21
165.0245100154
 31
0.0
  0
LINE
  5
1FD
330
1F
100
AcDbEntity
  8
0
  6
CONTINUOUS
 62
     7
100
AcDbLine
 10
-39.8209432056
 20
165.0245100154
 30
0.0
 11
-39.8209432056
 21
160.0245100154
 31
0.0
  0
LINE
  5
1FE
330
1F
100
AcDbEntity
  8
0
  6
CONTINUOUS
 62
     7
100
AcDbLine
 10
-42.8209432056
 20
160.0245100154
 30
0.0
 11
-42.8209432056
 21
165.0245100154
 31
0.0
  0
LINE
  5
1FF
330
1F
100
AcDbEntity
  8
0
  6
CONTINUOUS
 62
     7
100
AcDbLine
 10
-39.8209432056
 20
53.0245100154
 30
0.0
 11
-42.8209432056
 21
53.0245100154
 31
0.0
  0
LINE
  5
200
330
1F
100
AcDbEntity
  8
0
  6
CONTINUOUS
 62
     7
100
AcDbLine
 10
-39.8209432056
 20
58.0245100154
 30
0.0
 11
-39.8209432056
 21
53.0245100154
 31
0.0
  0
LINE
  5
201
330
1F
100
AcDbEntity
  8
0
  6
CONTINUOUS
 62
     7
100
AcDbLine
 10
-42.8209432056
 20
53.0245100154
 30
0.0
 11
-42.8209432056
 21
58.0245100154
 31
0.0
  0
LINE
  5
202
330
1F
100
AcDbEntity
  8
0
  6
CONTINUOUS
 62
     7
100
AcDbLine
 10
-55.8209432056
 20
156.4178451157
 30
0.0
 11
-55.8209432056
 21
158.9745100154
 31
0.0
  0
ARC
  5
203
330
1F
100
AcDbEntity
  8
0
  6
CONTINUOUS
 62
     7
100
AcDbCircle
 10
-55.7832209813
 20
156.325762211
 30
0.0
 40
0.0995099368729358
100
AcDbArc
 50
82.9126484446
 51
112.2767057315
  0
LINE
  5
204
330
1F
100
AcDbEntity
  8
0
  6
CONTINUOUS
 62
     7
100
AcDbLine
 10
-55.7709432056
 20
156.3986926653
 30
0.0
 11
-55.7709432056
 21
156.4245118123
 31
0.0
  0
LWPOLYLINE
  5
205
330
1F
100
AcDbEntity
  8
0
  6
CONTINUOUS
 62
     7
100
AcDbPolyline
 90
        9
 70
   128
 43
0.0
 10
-55.7709432056
 20
156.3986926653
 10
-55.7806977217
 20
156.3990606743
 10
-55.7900773772
 20
156.4001505588
 10
-55.7987217172
 20
156.4019204352
 10
-55.8062985446
 20
156.4043022882
 10
-55.8125166862
 20
156.4072045844
 10
-55.8171371822
 20
156.4105157903
 10
-55.8199824696
 20
156.414108658
 10
-55.8209432056
 20
156.4178451157
  0
LINE
  5
206
330
1F
100
AcDbEntity
  8
0
  6
CONTINUOUS
 62
     7
100
AcDbLine
 10
-55.7709432056
 20
156.3986926653
 30
0.0
 11
-55.7709432056
 21
153.6584725236
 31
0.0
  0
LWPOLYLINE
  5
207
330
1F
100
AcDbEntity
  8
0
  6
CONTINUOUS
 62
     7
100
AcDbPolyline
 90
        9
 70
   128
 43
0.0
 10
-55.7709432056
 20
153.6584725236
 10
-55.7806977217
 20
153.6588405325
 10
-55.7900773772
 20
153.659930417
 10
-55.7987217172
 20
153.6617002935
 10
-55.8062985446
 20
153.6640821464
 10
-55.8125166862
 20
153.6669844426
 10
-55.8171371822
 20
153.6702956485
 10
-55.8199824696
 20
153.6738885163
 10
-55.8209432056
 20
153.677624974
  0
LINE
  5
208
330
1F
100
AcDbEntity
  8
0
  6
CONTINUOUS
 62
     7
100
AcDbLine
 10
-55.8209432056
 20
153.677624974
 30
0.0
 11
-55.8209432056
 21
156.4178451157
 31
0.0
  0
ARC
  5
209
330
1F
100
AcDbEntity
  8
0
  6
CONTINUOUS
 62
     7
100
AcDbCircle
 10
-55.7755318735
 20
153.6833928621
 30
0.0
 40
0.045776168637379
100
AcDbArc
 50
187.2386228288
 51
275.7530723874
  0
LINE
  5
20A
330
1F
100
AcDbEntity
  8
0
  6
CONTINUOUS
 62
     7
100
AcDbLine
 10
-55.7709432056
 20
153.6378472614
 30
0.0
 11
-55.7709432056
 21
153.6584725236
 31
0.0
  0
LINE
  5
20B
330
1F
100
AcDbEntity
  8
0
  6
CONTINUOUS
 62
     7
100
AcDbLine
 10
-55.8209432056
 20
153.0745100154
 30
0.0
 11
-55.8209432056
 21
153.677624974
 31
0.0
  0
LINE
  5
20C
330
1F
100
AcDbEntity
  8
0
  6
CONTINUOUS
 62
     7
100
AcDbLine
 10
-80.1040170117
 20
154.0245100154
 30
0.0
 11
-80.1040170117
 21
158.0245100154
 31
0.0
  0
LINE
  5
20D
330
1F
100
AcDbEntity
  8
0
  6
CONTINUOUS
 62
     7
100
AcDbLine
 10
-79.9621354132
 20
154.0245100154
 30
0.0
 11
-79.9621354132
 21
158.0245100154
 31
0.0
  0
LINE
  5
20E
330
1F
100
AcDbEntity
  8
0
  6
CONTINUOUS
 62
     7
100
AcDbLine
 10
-79.0010109951
 20
154.4145100154
 30
0.0
 11
-79.0010109951
 21
157.6345100154
 31
0.0
  0
LINE
  5
20F
330
1F
100
AcDbEntity
  8
0
  6
CONTINUOUS
 62
     7
100
AcDbLine
 10
-79.274091935
 20
154.0245100154
 30
0.0
 11
-79.274091935
 21
158.0245100154
 31
0.0
  0
LINE
  5
210
330
1F
100
AcDbEntity
  8
0
  6
CONTINUOUS
 62
     7
100
AcDbLine
 10
-77.6249240386
 20
154.4145100154
 30
0.0
 11
-77.6249240386
 21
157.6345100154
 31
0.0
  0
LINE
  5
211
330
1F
100
AcDbEntity
  8
0
  6
CONTINUOUS
 62
     7
100
AcDbLine
 10
-77.8980049785
 20
154.0245100154
 30
0.0
 11
-77.8980049785
 21
158.0245100154
 31
0.0
  0
LINE
  5
212
330
1F
100
AcDbEntity
  8
0
  6
CONTINUOUS
 62
     7
100
AcDbLine
 10
-78.3129675168
 20
154.4145100154
 30
0.0
 11
-78.3129675168
 21
157.6345100154
 31
0.0
  0
LINE
  5
213
330
1F
100
AcDbEntity
  8
0
  6
CONTINUOUS
 62
     7
100
AcDbLine
 10
-78.5860484567
 20
154.0245100154
 30
0.0
 11
-78.5860484567
 21
158.0245100154
 31
0.0
  0
LINE
  5
214
330
1F
100
AcDbEntity
  8
0
  6
CONTINUOUS
 62
     7
100
AcDbLine
 10
-80.3770979516
 20
154.4145100154
 30
0.0
 11
-80.3770979516
 21
157.6345100154
 31
0.0
  0
LINE
  5
215
330
1F
100
AcDbEntity
  8
0
  6
CONTINUOUS
 62
     7
100
AcDbLine
 10
-80.6501788915
 20
154.0245100154
 30
0.0
 11
-80.6501788915
 21
158.0245100154
 31
0.0
  0
LINE
  5
216
330
1F
100
AcDbEntity
  8
0
  6
CONTINUOUS
 62
     7
100
AcDbLine
 10
-79.4159735334
 20
154.0245100154
 30
0.0
 11
-79.4159735334
 21
158.0245100154
 31
0.0
  0
LINE
  5
217
330
1F
100
AcDbEntity
  8
0
  6
CONTINUOUS
 62
     7
100
AcDbLine
 10
-78.0398865769
 20
154.0245100154
 30
0.0
 11
-78.0398865769
 21
158.0245100154
 31
0.0
  0
LINE
  5
218
330
1F
100
AcDbEntity
  8
0
  6
CONTINUOUS
 62
     7
100
AcDbLine
 10
-78.7279300552
 20
154.0245100154
 30
0.0
 11
-78.7279300552
 21
158.0245100154
 31
0.0
  0
LINE
  5
219
330
1F
100
AcDbEntity
  8
0
  6
CONTINUOUS
 62
     7
100
AcDbLine
 10
-77.3518430987
 20
154.0245100154
 30
0.0
 11
-77.3518430987
 21
158.0245100154
 31
0.0
  0
LINE
  5
21A
330
1F
100
AcDbEntity
  8
0
  6
CONTINUOUS
 62
     7
100
AcDbLine
 10
-79.6890544733
 20
154.4145100154
 30
0.0
 11
-79.6890544733
 21
157.6345100154
 31
0.0
  0
LINE
  5
21B
330
1F
100
AcDbEntity
  8
0
  6
CONTINUOUS
 62
     7
100
AcDbLine
 10
-74.5996691856
 20
154.0245100154
 30
0.0
 11
-74.5996691856
 21
158.0245100154
 31
0.0
  0
LINE
  5
21C
330
1F
100
AcDbEntity
  8
0
  6
CONTINUOUS
 62
     7
100
AcDbLine
 10
-74.8727501255
 20
154.4145100154
 30
0.0
 11
-74.8727501255
 21
157.6345100154
 31
0.0
  0
LINE
  5
21D
330
1F
100
AcDbEntity
  8
0
  6
CONTINUOUS
 62
     7
100
AcDbLine
 10
-75.2877126639
 20
154.0245100154
 30
0.0
 11
-75.2877126639
 21
158.0245100154
 31
0.0
  0
LINE
  5
21E
330
1F
100
AcDbEntity
  8
0
  6
CONTINUOUS
 62
     7
100
AcDbLine
 10
-75.5607936038
 20
154.4145100154
 30
0.0
 11
-75.5607936038
 21
157.6345100154
 31
0.0
  0
LINE
  5
21F
330
1F
100
AcDbEntity
  8
0
  6
CONTINUOUS
 62
     7
100
AcDbLine
 10
-73.9116257073
 20
154.0245100154
 30
0.0
 11
-73.9116257073
 21
158.0245100154
 31
0.0
  0
LINE
  5
220
330
1F
100
AcDbEntity
  8
0
  6
CONTINUOUS
 62
     7
100
AcDbLine
 10
-73.7697441089
 20
154.0245100154
 30
0.0
 11
-73.7697441089
 21
158.0245100154
 31
0.0
  0
LINE
  5
221
330
1F
100
AcDbEntity
  8
0
  6
CONTINUOUS
 62
     7
100
AcDbLine
 10
-75.9757561421
 20
154.0245100154
 30
0.0
 11
-75.9757561421
 21
158.0245100154
 31
0.0
  0
LINE
  5
222
330
1F
100
AcDbEntity
  8
0
  6
CONTINUOUS
 62
     7
100
AcDbLine
 10
-76.248837082
 20
154.4145100154
 30
0.0
 11
-76.248837082
 21
157.6345100154
 31
0.0
  0
LINE
  5
223
330
1F
100
AcDbEntity
  8
0
  6
CONTINUOUS
 62
     7
100
AcDbLine
 10
-75.8338745437
 20
154.0245100154
 30
0.0
 11
-75.8338745437
 21
158.0245100154
 31
0.0
  0
LINE
  5
224
330
1F
100
AcDbEntity
  8
0
  6
CONTINUOUS
 62
     7
100
AcDbLine
 10
-73.496663169
 20
154.4145100154
 30
0.0
 11
-73.496663169
 21
157.6345100154
 31
0.0
  0
LINE
  5
225
330
1F
100
AcDbEntity
  8
0
  6
CONTINUOUS
 62
     7
100
AcDbLine
 10
-75.1458310654
 20
154.0245100154
 30
0.0
 11
-75.1458310654
 21
158.0245100154
 31
0.0
  0
LINE
  5
226
330
1F
100
AcDbEntity
  8
0
  6
CONTINUOUS
 62
     7
100
AcDbLine
 10
-76.9368805603
 20
154.4145100154
 30
0.0
 11
-76.9368805603
 21
157.6345100154
 31
0.0
  0
LINE
  5
227
330
1F
100
AcDbEntity
  8
0
  6
CONTINUOUS
 62
     7
100
AcDbLine
 10
-77.2099615002
 20
154.0245100154
 30
0.0
 11
-77.2099615002
 21
158.0245100154
 31
0.0
  0
LINE
  5
228
330
1F
100
AcDbEntity
  8
0
  6
CONTINUOUS
 62
     7
100
AcDbLine
 10
-74.1847066472
 20
154.4145100154
 30
0.0
 11
-74.1847066472
 21
157.6345100154
 31
0.0
  0
LINE
  5
229
330
1F
100
AcDbEntity
  8
0
  6
CONTINUOUS
 62
     7
100
AcDbLine
 10
-76.5219180219
 20
154.0245100154
 30
0.0
 11
-76.5219180219
 21
158.0245100154
 31
0.0
  0
LINE
  5
22A
330
1F
100
AcDbEntity
  8
0
  6
CONTINUOUS
 62
     7
100
AcDbLine
 10
-74.4577875872
 20
154.0245100154
 30
0.0
 11
-74.4577875872
 21
158.0245100154
 31
0.0
  0
LINE
  5
22B
330
1F
100
AcDbEntity
  8
0
  6
CONTINUOUS
 62
     7
100
AcDbLine
 10
-76.6637996204
 20
154.0245100154
 30
0.0
 11
-76.6637996204
 21
158.0245100154
 31
0.0
  0
LINE
  5
22C
330
1F
100
AcDbEntity
  8
0
  6
CONTINUOUS
 62
     7
100
AcDbLine
 10
-70.7444892559
 20
154.4145100154
 30
0.0
 11
-70.7444892559
 21
157.6345100154
 31
0.0
  0
LINE
  5
22D
330
1F
100
AcDbEntity
  8
0
  6
CONTINUOUS
 62
     7
100
AcDbLine
 10
-71.0175701958
 20
154.0245100154
 30
0.0
 11
-71.0175701958
 21
158.0245100154
 31
0.0
  0
LINE
  5
22E
330
1F
100
AcDbEntity
  8
0
  6
CONTINUOUS
 62
     7
100
AcDbLine
 10
-72.5355387508
 20
154.0245100154
 30
0.0
 11
-72.5355387508
 21
158.0245100154
 31
0.0
  0
LINE
  5
22F
330
1F
100
AcDbEntity
  8
0
  6
CONTINUOUS
 62
     7
100
AcDbLine
 10
-72.3936571524
 20
154.0245100154
 30
0.0
 11
-72.3936571524
 21
158.0245100154
 31
0.0
  0
LINE
  5
230
330
1F
100
AcDbEntity
  8
0
  6
CONTINUOUS
 62
     7
100
AcDbLine
 10
-73.2235822291
 20
154.0245100154
 30
0.0
 11
-73.2235822291
 21
158.0245100154
 31
0.0
  0
LINE
  5
231
330
1F
100
AcDbEntity
  8
0
  6
CONTINUOUS
 62
     7
100
AcDbLine
 10
-73.0817006306
 20
154.0245100154
 30
0.0
 11
-73.0817006306
 21
158.0245100154
 31
0.0
  0
LINE
  5
232
330
1F
100
AcDbEntity
  8
0
  6
CONTINUOUS
 62
     7
100
AcDbLine
 10
-70.0564457777
 20
154.4145100154
 30
0.0
 11
-70.0564457777
 21
157.6345100154
 31
0.0
  0
LINE
  5
233
330
1F
100
AcDbEntity
  8
0
  6
CONTINUOUS
 62
     7
100
AcDbLine
 10
-70.3295267176
 20
154.0245100154
 30
0.0
 11
-70.3295267176
 21
158.0245100154
 31
0.0
  0
LINE
  5
234
330
1F
100
AcDbEntity
  8
0
  6
CONTINUOUS
 62
     7
100
AcDbLine
 10
-70.471408316
 20
154.0245100154
 30
0.0
 11
-70.471408316
 21
158.0245100154
 31
0.0
  0
LINE
  5
235
330
1F
100
AcDbEntity
  8
0
  6
CONTINUOUS
 62
     7
100
AcDbLine
 10
-69.7833648378
 20
154.0245100154
 30
0.0
 11
-69.7833648378
 21
158.0245100154
 31
0.0
  0
LINE
  5
236
330
1F
100
AcDbEntity
  8
0
  6
CONTINUOUS
 62
     7
100
AcDbLine
 10
-71.4325327342
 20
154.4145100154
 30
0.0
 11
-71.4325327342
 21
157.6345100154
 31
0.0
  0
LINE
  5
237
330
1F
100
AcDbEntity
  8
0
  6
CONTINUOUS
 62
     7
100
AcDbLine
 10
-71.7056136741
 20
154.0245100154
 30
0.0
 11
-71.7056136741
 21
158.0245100154
 31
0.0
  0
LINE
  5
238
330
1F
100
AcDbEntity
  8
0
  6
CONTINUOUS
 62
     7
100
AcDbLine
 10
-71.8474952726
 20
154.0245100154
 30
0.0
 11
-71.8474952726
 21
158.0245100154
 31
0.0
  0
LINE
  5
239
330
1F
100
AcDbEntity
  8
0
  6
CONTINUOUS
 62
     7
100
AcDbLine
 10
-72.8086196907
 20
154.4145100154
 30
0.0
 11
-72.8086196907
 21
157.6345100154
 31
0.0
  0
LINE
  5
23A
330
1F
100
AcDbEntity
  8
0
  6
CONTINUOUS
 62
     7
100
AcDbLine
 10
-72.1205762125
 20
154.4145100154
 30
0.0
 11
-72.1205762125
 21
157.6345100154
 31
0.0
  0
LINE
  5
23B
330
1F
100
AcDbEntity
  8
0
  6
CONTINUOUS
 62
     7
100
AcDbLine
 10
-69.3684022994
 20
154.4145100154
 30
0.0
 11
-69.3684022994
 21
157.6345100154
 31
0.0
  0
LINE
  5
23C
330
1F
100
AcDbEntity
  8
0
  6
CONTINUOUS
 62
     7
100
AcDbLine
 10
-69.6414832393
 20
154.0245100154
 30
0.0
 11
-69.6414832393
 21
158.0245100154
 31
0.0
  0
LINE
  5
23D
330
1F
100
AcDbEntity
  8
0
  6
CONTINUOUS
 62
     7
100
AcDbLine
 10
-71.1594517943
 20
154.0245100154
 30
0.0
 11
-71.1594517943
 21
158.0245100154
 31
0.0
  0
LINE
  5
23E
330
1F
100
AcDbEntity
  8
0
  6
CONTINUOUS
 62
     7
100
AcDbLine
 10
-65.6551039682
 20
154.0245100154
 30
0.0
 11
-65.6551039682
 21
158.0245100154
 31
0.0
  0
LINE
  5
23F
330
1F
100
AcDbEntity
  8
0
  6
CONTINUOUS
 62
     7
100
AcDbLine
 10
-65.5132223698
 20
154.0245100154
 30
0.0
 11
-65.5132223698
 21
158.0245100154
 31
0.0
  0
LINE
  5
240
330
1F
100
AcDbEntity
  8
0
  6
CONTINUOUS
 62
     7
100
AcDbLine
 10
-67.0311909247
 20
154.0245100154
 30
0.0
 11
-67.0311909247
 21
158.0245100154
 31
0.0
  0
LINE
  5
241
330
1F
100
AcDbEntity
  8
0
  6
CONTINUOUS
 62
     7
100
AcDbLine
 10
-67.3042718646
 20
154.4145100154
 30
0.0
 11
-67.3042718646
 21
157.6345100154
 31
0.0
  0
LINE
  5
242
330
1F
100
AcDbEntity
  8
0
  6
CONTINUOUS
 62
     7
100
AcDbLine
 10
-67.9923153429
 20
154.4145100154
 30
0.0
 11
-67.9923153429
 21
157.6345100154
 31
0.0
  0
LINE
  5
243
330
1F
100
AcDbEntity
  8
0
  6
CONTINUOUS
 62
     7
100
AcDbLine
 10
-68.2653962828
 20
154.0245100154
 30
0.0
 11
-68.2653962828
 21
158.0245100154
 31
0.0
  0
LINE
  5
244
330
1F
100
AcDbEntity
  8
0
  6
CONTINUOUS
 62
     7
100
AcDbLine
 10
-68.4072778813
 20
154.0245100154
 30
0.0
 11
-68.4072778813
 21
158.0245100154
 31
0.0
  0
LINE
  5
245
330
1F
100
AcDbEntity
  8
0
  6
CONTINUOUS
 62
     7
100
AcDbLine
 10
-66.3431474465
 20
154.0245100154
 30
0.0
 11
-66.3431474465
 21
158.0245100154
 31
0.0
  0
LINE
  5
246
330
1F
100
AcDbEntity
  8
0
  6
CONTINUOUS
 62
     7
100
AcDbLine
 10
-66.201265848
 20
154.0245100154
 30
0.0
 11
-66.201265848
 21
158.0245100154
 31
0.0
  0
LINE
  5
247
330
1F
100
AcDbEntity
  8
0
  6
CONTINUOUS
 62
     7
100
AcDbLine
 10
-68.6803588212
 20
154.4145100154
 30
0.0
 11
-68.6803588212
 21
157.6345100154
 31
0.0
  0
LINE
  5
248
330
1F
100
AcDbEntity
  8
0
  6
CONTINUOUS
 62
     7
100
AcDbLine
 10
-67.719234403
 20
154.0245100154
 30
0.0
 11
-67.719234403
 21
158.0245100154
 31
0.0
  0
LINE
  5
249
330
1F
100
AcDbEntity
  8
0
  6
CONTINUOUS
 62
     7
100
AcDbLine
 10
-65.9281849081
 20
154.4145100154
 30
0.0
 11
-65.9281849081
 21
157.6345100154
 31
0.0
  0
LINE
  5
24A
330
1F
100
AcDbEntity
  8
0
  6
CONTINUOUS
 62
     7
100
AcDbLine
 10
-67.5773528045
 20
154.0245100154
 30
0.0
 11
-67.5773528045
 21
158.0245100154
 31
0.0
  0
LINE
  5
24B
330
1F
100
AcDbEntity
  8
0
  6
CONTINUOUS
 62
     7
100
AcDbLine
 10
-66.6162283864
 20
154.4145100154
 30
0.0
 11
-66.6162283864
 21
157.6345100154
 31
0.0
  0
LINE
  5
24C
330
1F
100
AcDbEntity
  8
0
  6
CONTINUOUS
 62
     7
100
AcDbLine
 10
-69.0953213595
 20
154.0245100154
 30
0.0
 11
-69.0953213595
 21
158.0245100154
 31
0.0
  0
LINE
  5
24D
330
1F
100
AcDbEntity
  8
0
  6
CONTINUOUS
 62
     7
100
AcDbLine
 10
-68.9534397611
 20
154.0245100154
 30
0.0
 11
-68.9534397611
 21
158.0245100154
 31
0.0
  0
LINE
  5
24E
330
1F
100
AcDbEntity
  8
0
  6
CONTINUOUS
 62
     7
100
AcDbLine
 10
-66.8893093263
 20
154.0245100154
 30
0.0
 11
-66.8893093263
 21
158.0245100154
 31
0.0
  0
LINE
  5
24F
330
1F
100
AcDbEntity
  8
0
  6
CONTINUOUS
 62
     7
100
AcDbLine
 10
-64.96706049
 20
154.0245100154
 30
0.0
 11
-64.96706049
 21
158.0245100154
 31
0.0
  0
LINE
  5
250
330
1F
100
AcDbEntity
  8
0
  6
CONTINUOUS
 62
     7
100
AcDbLine
 10
-64.8251788915
 20
154.0245100154
 30
0.0
 11
-64.8251788915
 21
158.0245100154
 31
0.0
  0
LINE
  5
251
330
1F
100
AcDbEntity
  8
0
  6
CONTINUOUS
 62
     7
100
AcDbLine
 10
-62.4879675168
 20
154.4145100154
 30
0.0
 11
-62.4879675168
 21
157.6345100154
 31
0.0
  0
LINE
  5
252
330
1F
100
AcDbEntity
  8
0
  6
CONTINUOUS
 62
     7
100
AcDbLine
 10
-62.7610484567
 20
154.0245100154
 30
0.0
 11
-62.7610484567
 21
158.0245100154
 31
0.0
  0
LINE
  5
253
330
1F
100
AcDbEntity
  8
0
  6
CONTINUOUS
 62
     7
100
AcDbLine
 10
-63.1760109951
 20
154.4145100154
 30
0.0
 11
-63.1760109951
 21
157.6345100154
 31
0.0
  0
LINE
  5
254
330
1F
100
AcDbEntity
  8
0
  6
CONTINUOUS
 62
     7
100
AcDbLine
 10
-63.449091935
 20
154.0245100154
 30
0.0
 11
-63.449091935
 21
158.0245100154
 31
0.0
  0
LINE
  5
255
330
1F
100
AcDbEntity
  8
0
  6
CONTINUOUS
 62
     7
100
AcDbLine
 10
-65.2401414299
 20
154.4145100154
 30
0.0
 11
-65.2401414299
 21
157.6345100154
 31
0.0
  0
LINE
  5
256
330
1F
100
AcDbEntity
  8
0
  6
CONTINUOUS
 62
     7
100
AcDbLine
 10
-63.8640544733
 20
154.4145100154
 30
0.0
 11
-63.8640544733
 21
157.6345100154
 31
0.0
  0
LINE
  5
257
330
1F
100
AcDbEntity
  8
0
  6
CONTINUOUS
 62
     7
100
AcDbLine
 10
-64.1371354132
 20
154.0245100154
 30
0.0
 11
-64.1371354132
 21
158.0245100154
 31
0.0
  0
LINE
  5
258
330
1F
100
AcDbEntity
  8
0
  6
CONTINUOUS
 62
     7
100
AcDbLine
 10
-61.7999240386
 20
154.4145100154
 30
0.0
 11
-61.7999240386
 21
157.6345100154
 31
0.0
  0
LINE
  5
259
330
1F
100
AcDbEntity
  8
0
  6
CONTINUOUS
 62
     7
100
AcDbLine
 10
-62.0730049785
 20
154.0245100154
 30
0.0
 11
-62.0730049785
 21
158.0245100154
 31
0.0
  0
LINE
  5
25A
330
1F
100
AcDbEntity
  8
0
  6
CONTINUOUS
 62
     7
100
AcDbLine
 10
-62.9029300552
 20
154.0245100154
 30
0.0
 11
-62.9029300552
 21
158.0245100154
 31
0.0
  0
LINE
  5
25B
330
1F
100
AcDbEntity
  8
0
  6
CONTINUOUS
 62
     7
100
AcDbLine
 10
-63.5909735334
 20
154.0245100154
 30
0.0
 11
-63.5909735334
 21
158.0245100154
 31
0.0
  0
LINE
  5
25C
330
1F
100
AcDbEntity
  8
0
  6
CONTINUOUS
 62
     7
100
AcDbLine
 10
-62.2148865769
 20
154.0245100154
 30
0.0
 11
-62.2148865769
 21
158.0245100154
 31
0.0
  0
LINE
  5
25D
330
1F
100
AcDbEntity
  8
0
  6
CONTINUOUS
 62
     7
100
AcDbLine
 10
-64.2790170117
 20
154.0245100154
 30
0.0
 11
-64.2790170117
 21
158.0245100154
 31
0.0
  0
LINE
  5
25E
330
1F
100
AcDbEntity
  8
0
  6
CONTINUOUS
 62
     7
100
AcDbLine
 10
-64.5520979516
 20
154.4145100154
 30
0.0
 11
-64.5520979516
 21
157.6345100154
 31
0.0
  0
LINE
  5
25F
330
1F
100
AcDbEntity
  8
0
  6
CONTINUOUS
 62
     7
100
AcDbLine
 10
-61.5268430987
 20
154.0245100154
 30
0.0
 11
-61.5268430987
 21
158.0245100154
 31
0.0
  0
LINE
  5
260
330
1F
100
AcDbEntity
  8
0
  6
CONTINUOUS
 62
     7
100
AcDbLine
 10
-59.4627126639
 20
154.0245100154
 30
0.0
 11
-59.4627126639
 21
158.0245100154
 31
0.0
  0
LINE
  5
261
330
1F
100
AcDbEntity
  8
0
  6
CONTINUOUS
 62
     7
100
AcDbLine
 10
-59.7357936038
 20
154.4145100154
 30
0.0
 11
-59.7357936038
 21
157.6345100154
 31
0.0
  0
LINE
  5
262
330
1F
100
AcDbEntity
  8
0
  6
CONTINUOUS
 62
     7
100
AcDbLine
 10
-60.1507561421
 20
154.0245100154
 30
0.0
 11
-60.1507561421
 21
158.0245100154
 31
0.0
  0
LINE
  5
263
330
1F
100
AcDbEntity
  8
0
  6
CONTINUOUS
 62
     7
100
AcDbLine
 10
-60.423837082
 20
154.4145100154
 30
0.0
 11
-60.423837082
 21
157.6345100154
 31
0.0
  0
LINE
  5
264
330
1F
100
AcDbEntity
  8
0
  6
CONTINUOUS
 62
     7
100
AcDbLine
 10
-60.6969180219
 20
154.0245100154
 30
0.0
 11
-60.6969180219
 21
158.0245100154
 31
0.0
  0
LINE
  5
265
330
1F
100
AcDbEntity
  8
0
  6
CONTINUOUS
 62
     7
100
AcDbLine
 10
-60.8387996204
 20
154.0245100154
 30
0.0
 11
-60.8387996204
 21
158.0245100154
 31
0.0
  0
LINE
  5
266
330
1F
100
AcDbEntity
  8
0
  6
CONTINUOUS
 62
     7
100
AcDbLine
 10
-61.1118805603
 20
154.4145100154
 30
0.0
 11
-61.1118805603
 21
157.6345100154
 31
0.0
  0
LINE
  5
267
330
1F
100
AcDbEntity
  8
0
  6
CONTINUOUS
 62
     7
100
AcDbLine
 10
-58.7746691856
 20
154.0245100154
 30
0.0
 11
-58.7746691856
 21
158.0245100154
 31
0.0
  0
LINE
  5
268
330
1F
100
AcDbEntity
  8
0
  6
CONTINUOUS
 62
     7
100
AcDbLine
 10
-58.6327875872
 20
154.0245100154
 30
0.0
 11
-58.6327875872
 21
158.0245100154
 31
0.0
  0
LINE
  5
269
330
1F
100
AcDbEntity
  8
0
  6
CONTINUOUS
 62
     7
100
AcDbLine
 10
-58.0866257073
 20
154.0245100154
 30
0.0
 11
-58.0866257073
 21
158.0245100154
 31
0.0
  0
LINE
  5
26A
330
1F
100
AcDbEntity
  8
0
  6
CONTINUOUS
 62
     7
100
AcDbLine
 10
-57.9447441089
 20
154.0245100154
 30
0.0
 11
-57.9447441089
 21
158.0245100154
 31
0.0
  0
LINE
  5
26B
330
1F
100
AcDbEntity
  8
0
  6
CONTINUOUS
 62
     7
100
AcDbLine
 10
-57.3985822291
 20
154.0245100154
 30
0.0
 11
-57.3985822291
 21
158.0245100154
 31
0.0
  0
LINE
  5
26C
330
1F
100
AcDbEntity
  8
0
  6
CONTINUOUS
 62
     7
100
AcDbLine
 10
-57.671663169
 20
154.4145100154
 30
0.0
 11
-57.671663169
 21
157.6345100154
 31
0.0
  0
LINE
  5
26D
330
1F
100
AcDbEntity
  8
0
  6
CONTINUOUS
 62
     7
100
AcDbLine
 10
-58.3597066472
 20
154.4145100154
 30
0.0
 11
-58.3597066472
 21
157.6345100154
 31
0.0
  0
LINE
  5
26E
330
1F
100
AcDbEntity
  8
0
  6
CONTINUOUS
 62
     7
100
AcDbLine
 10
-60.0088745437
 20
154.0245100154
 30
0.0
 11
-60.0088745437
 21
158.0245100154
 31
0.0
  0
LINE
  5
26F
330
1F
100
AcDbEntity
  8
0
  6
CONTINUOUS
 62
     7
100
AcDbLine
 10
-59.0477501255
 20
154.4145100154
 30
0.0
 11
-59.0477501255
 21
157.6345100154
 31
0.0
  0
LINE
  5
270
330
1F
100
AcDbEntity
  8
0
  6
CONTINUOUS
 62
     7
100
AcDbLine
 10
-61.3849615002
 20
154.0245100154
 30
0.0
 11
-61.3849615002
 21
158.0245100154
 31
0.0
  0
LINE
  5
271
330
1F
100
AcDbEntity
  8
0
  6
CONTINUOUS
 62
     7
100
AcDbLine
 10
-59.3208310654
 20
154.0245100154
 30
0.0
 11
-59.3208310654
 21
158.0245100154
 31
0.0
  0
LINE
  5
272
330
1F
100
AcDbEntity
  8
0
  6
CONTINUOUS
 62
     7
100
AcDbLine
 10
-57.2567006306
 20
154.0245100154
 30
0.0
 11
-57.2567006306
 21
158.0245100154
 31
0.0
  0
LINE
  5
273
330
1F
100
AcDbEntity
  8
0
  6
CONTINUOUS
 62
     7
100
AcDbLine
 10
-55.8806136741
 20
154.0245100154
 30
0.0
 11
-55.8806136741
 21
158.0245100154
 31
0.0
  0
LINE
  5
274
330
1F
100
AcDbEntity
  8
0
  6
CONTINUOUS
 62
     7
100
AcDbLine
 10
-56.7105387508
 20
154.0245100154
 30
0.0
 11
-56.7105387508
 21
158.0245100154
 31
0.0
  0
LINE
  5
275
330
1F
100
AcDbEntity
  8
0
  6
CONTINUOUS
 62
     7
100
AcDbLine
 10
-56.5686571524
 20
154.0245100154
 30
0.0
 11
-56.5686571524
 21
158.0245100154
 31
0.0
  0
LINE
  5
276
330
1F
100
AcDbEntity
  8
0
  6
CONTINUOUS
 62
     7
100
AcDbLine
 10
-56.2955762125
 20
154.4145100154
 30
0.0
 11
-56.2955762125
 21
157.6345100154
 31
0.0
  0
LINE
  5
277
330
1F
100
AcDbEntity
  8
0
  6
CONTINUOUS
 62
     7
100
AcDbLine
 10
-56.0224952726
 20
154.0245100154
 30
0.0
 11
-56.0224952726
 21
158.0245100154
 31
0.0
  0
LINE
  5
278
330
1F
100
AcDbEntity
  8
0
  6
CONTINUOUS
 62
     7
100
AcDbLine
 10
-56.9836196907
 20
154.4145100154
 30
0.0
 11
-56.9836196907
 21
157.6345100154
 31
0.0
  0
LINE
  5
279
330
1F
100
AcDbEntity
  8
0
  6
CONTINUOUS
 62
     7
100
AcDbLine
 10
-93.5516989516
 20
161.0755100154
 30
0.0
 11
-93.5516989516
 21
161.0745100154
 31
0.0
  0
LINE
  5
27A
330
1F
100
AcDbEntity
  8
0
  6
CONTINUOUS
 62
     7
100
AcDbLine
 10
-91.0240989516
 20
161.0755100154
 30
0.0
 11
-91.0240989516
 21
161.0745100154
 31
0.0
  0
SPLINE
  5
27B
330
1F
100
AcDbEntity
  8
0
  6
CONTINUOUS
 62
     7
100
AcDbSpline
210
0.0
220
0.0
230
1.0
 70
    24
 71
     3
 72
    12
 73
     8
 74
     0
 42
0.00000001
 43
0.00000001
 40
0.0
 40
0.0
 40
0.0
 40
0.0
 40
0.3143673319851776
 40
0.5871575300358863
 40
0.8110328976779901
 40
0.9077109548243033
 40
1.0
 40
1.0
 40
1.0
 40
1.0
 10
-91.02409895159707
 20
161.0755100154084
 30
0.0
 10
-91.06015013313056
 20
161.0755100154084
 30
0.0
 10
-91.12748449185804
 20
161.0755100154084
 30
0.0
 10
-91.65663898665925
 20
161.0755100154084
 30
0.0
 10
-92.34456992334187
 20
161.0755100154084
 30
0.0
 10
-93.02364925131873
 20
161.0755100154084
 30
0.0
 10
-93.37842912948803
 20
161.0755100154084
 30
0.0
 10
-93.55169895159706
 20
161.0755100154084
 30
0.0
  0
LINE
  5
27C
330
1F
100
AcDbEntity
  8
0
  6
CONTINUOUS
 62
     7
100
AcDbLine
 10
-96.0792989516
 20
161.0755100154
 30
0.0
 11
-96.0792989516
 21
161.0745100154
 31
0.0
  0
SPLINE
  5
27D
330
1F
100
AcDbEntity
  8
0
  6
CONTINUOUS
 62
     7
100
AcDbSpline
210
0.0
220
0.0
230
1.0
 70
    24
 71
     3
 72
    12
 73
     8
 74
     0
 42
0.00000001
 43
0.00000001
 40
0.0
 40
0.0
 40
0.0
 40
0.0
 40
0.0922890451756972
 40
0.1889671023220122
 40
0.4128424699641164
 40
0.685632668014823
 40
1.0
 40
1.0
 40
1.0
 40
1.0
 10
-93.55169895159706
 20
161.0755100154084
 30
0.0
 10
-93.7249687737061
 20
161.0755100154084
 30
0.0
 10
-94.0797486518754
 20
161.0755100154084
 30
0.0
 10
-94.75882797985223
 20
161.0755100154084
 30
0.0
 10
-95.4467589165349
 20
161.0755100154084
 30
0.0
 10
-95.97591341133607
 20
161.0755100154084
 30
0.0
 10
-96.04324777006354
 20
161.0755100154084
 30
0.0
 10
-96.07929895159705
 20
161.0755100154084
 30
0.0
  0
LINE
  5
27E
330
1F
100
AcDbEntity
  8
0
  6
CONTINUOUS
 62
     7
100
AcDbLine
 10
-32.5239432056
 20
161.0755100154
 30
0.0
 11
-32.5239432056
 21
161.0745100154
 31
0.0
  0
LINE
  5
27F
330
1F
100
AcDbEntity
  8
0
  6
CONTINUOUS
 62
     7
100
AcDbLine
 10
-29.9963432056
 20
161.0755100154
 30
0.0
 11
-29.9963432056
 21
161.0745100154
 31
0.0
  0
SPLINE
  5
280
330
1F
100
AcDbEntity
  8
0
  6
CONTINUOUS
 62
     7
100
AcDbSpline
210
0.0
220
0.0
230
1.0
 70
    24
 71
     3
 72
    12
 73
     8
 74
     0
 42
0.00000001
 43
0.00000001
 40
0.0
 40
0.0
 40
0.0
 40
0.0
 40
0.0922890451756974
 40
0.1889671023220119
 40
0.4128424699641163
 40
0.6856326680148238
 40
0.9999999999999999
 40
0.9999999999999999
 40
0.9999999999999999
 40
0.9999999999999999
 10
-29.99634320556758
 20
161.0755100154084
 30
0.0
 10
-30.16961302767661
 20
161.0755100154084
 30
0.0
 10
-30.52439290584592
 20
161.0755100154084
 30
0.0
 10
-31.20347223382276
 20
161.0755100154084
 30
0.0
 10
-31.89140317050541
 20
161.0755100154084
 30
0.0
 10
-32.42055766530657
 20
161.0755100154084
 30
0.0
 10
-32.48789202403407
 20
161.0755100154084
 30
0.0
 10
-32.52394320556758
 20
161.0755100154084
 30
0.0
  0
LINE
  5
281
330
1F
100
AcDbEntity
  8
0
  6
CONTINUOUS
 62
     7
100
AcDbLine
 10
-27.4687432056
 20
161.0755100154
 30
0.0
 11
-27.4687432056
 21
161.0745100154
 31
0.0
  0
SPLINE
  5
282
330
1F
100
AcDbEntity
  8
0
  6
CONTINUOUS
 62
     7
100
AcDbSpline
210
0.0
220
0.0
230
1.0
 70
    24
 71
     3
 72
    12
 73
     8
 74
     0
 42
0.00000001
 43
0.00000001
 40
0.0
 40
0.0
 40
0.0
 40
0.0
 40
0.3143673319851767
 40
0.5871575300358849
 40
0.8110328976779898
 40
0.9077109548243038
 40
1.0
 40
1.0
 40
1.0
 40
1.0
 10
-27.46874320556758
 20
161.0755100154084
 30
0.0
 10
-27.50479438710109
 20
161.0755100154084
 30
0.0
 10
-27.57212874582858
 20
161.0755100154084
 30
0.0
 10
-28.10128324062974
 20
161.0755100154084
 30
0.0
 10
-28.7892141773124
 20
161.0755100154084
 30
0.0
 10
-29.46829350528923
 20
161.0755100154084
 30
0.0
 10
-29.82307338345854
 20
161.0755100154084
 30
0.0
 10
-29.99634320556758
 20
161.0755100154084
 30
0.0
  0
SPLINE
  5
283
330
1F
100
AcDbEntity
  8
0
  6
CONTINUOUS
 62
     7
100
AcDbSpline
210
0.0
220
0.0
230
1.0
 70
    24
 71
     3
 72
    11
 73
     7
 74
     0
 42
0.00000001
 43
0.00000001
 40
0.0
 40
0.0
 40
0.0
 40
0.0
 40
0.2832327603404887
 40
0.5580114153644133
 40
0.7754417085638468
 40
1.0
 40
1.0
 40
1.0
 40
1.0
 10
-29.17174320556758
 20
161.0755100154084
 30
0.0
 10
-29.1807495304189
 20
161.0755100154084
 30
0.0
 10
-29.19849335380808
 20
161.0755100154084
 30
0.0
 10
-29.32199526691496
 20
161.0755100154084
 30
0.0
 10
-29.47247900064808
 20
161.0755100154084
 30
0.0
 10
-29.57928100141263
 20
161.0755100154084
 30
0.0
 10
-29.63354320556758
 20
161.0755100154084
 30
0.0
  0
LINE
  5
284
330
1F
100
AcDbEntity
  8
0
  6
CONTINUOUS
 62
     7
100
AcDbLine
 10
-93.7186989516
 20
161.0755100154
 30
0.0
 11
-93.3737989516
 21
161.0755100154
 31
0.0
  0
ARC
  5
285
330
1F
100
AcDbEntity
  8
0
  6
CONTINUOUS
 62
     7
100
AcDbCircle
 10
-74.0074755425
 20
164.0745100154
 30
0.0
 40
5.0
100
AcDbArc
 50
270.0
 51
306.8698976458
  0
LINE
  5
286
330
1F
100
AcDbEntity
  8
0
  6
CONTINUOUS
 62
     7
100
AcDbLine
 10
-71.0074755425
 20
152.0745100154
 30
0.0
 11
-71.0074755425
 21
154.0389266744
 31
0.0
  0
LINE
  5
287
330
1F
100
AcDbEntity
  8
0
  6
CONTINUOUS
 62
     7
100
AcDbLine
 10
-71.0074755425
 20
158.0100933564
 30
0.0
 11
-71.0074755425
 21
160.0745100154
 31
0.0
  0
ARC
  5
288
330
1F
100
AcDbEntity
  8
0
  6
CONTINUOUS
 62
     7
100
AcDbCircle
 10
-74.0074755425
 20
148.0745100154
 30
0.0
 40
5.000000000000028
100
AcDbArc
 50
53.1301023542
 51
90.0
  0
LINE
  5
289
330
1F
100
AcDbEntity
  8
0
  6
CONTINUOUS
 62
     7
100
AcDbLine
 10
-53.0074755425
 20
152.0745100154
 30
0.0
 11
-53.0074755425
 21
153.0245100154
 31
0.0
  0
LINE
  5
28A
330
1F
100
AcDbEntity
  8
0
  6
CONTINUOUS
 62
     7
100
AcDbLine
 10
-53.0074755425
 20
159.0245100154
 30
0.0
 11
-53.0074755425
 21
160.0745100154
 31
0.0
  0
LINE
  5
28B
330
1F
100
AcDbEntity
  8
0
  6
CONTINUOUS
 62
     7
100
AcDbLine
 10
-71.0074755425
 20
152.0745100154
 30
0.0
 11
-53.0074755425
 21
152.0745100154
 31
0.0
  0
LINE
  5
28C
330
1F
100
AcDbEntity
  8
0
  6
CONTINUOUS
 62
     7
100
AcDbLine
 10
-71.0074755425
 20
160.0745100154
 30
0.0
 11
-53.0074755425
 21
160.0745100154
 31
0.0
  0
ARC
  5
28D
330
1F
100
AcDbEntity
  8
0
  6
CONTINUOUS
 62
     7
100
AcDbCircle
 10
-50.0074755425
 20
148.0745100154
 30
0.0
 40
5.000000000000023
100
AcDbArc
 50
98.109614456
 51
126.8698976458
  0
ARC
  5
28E
330
1F
100
AcDbEntity
  8
0
  6
CONTINUOUS
 62
     7
100
AcDbCircle
 10
-50.0074755425
 20
164.0745100154
 30
0.0
 40
4.999999999999981
100
AcDbArc
 50
233.1301023542
 51
270.0
  0
LINE
  5
28F
330
1F
100
AcDbEntity
  8
0
  6
CONTINUOUS
 62
     7
100
AcDbLine
 10
-74.0074755425
 20
153.0745100154
 30
0.0
 11
-74.7270989516
 21
153.0745100154
 31
0.0
  0
LINE
  5
290
330
1F
100
AcDbEntity
  8
0
  6
CONTINUOUS
 62
     7
100
AcDbLine
 10
-74.0074755425
 20
159.0745100154
 30
0.0
 11
-74.7270989516
 21
159.0745100154
 31
0.0
  0
LINE
  5
291
330
1F
100
AcDbEntity
  8
0
  6
CONTINUOUS
 62
     7
100
AcDbLine
 10
-48.8209432056
 20
159.0745100154
 30
0.0
 11
-50.0074755425
 21
159.0745100154
 31
0.0
  0
LINE
  5
292
330
1F
100
AcDbEntity
  8
0
  6
CONTINUOUS
 62
     7
100
AcDbLine
 10
-74.9770989516
 20
149.5804705788
 30
0.0
 11
-74.9770989516
 21
154.2654844474
 31
0.0
  0
LINE
  5
293
330
1F
100
AcDbEntity
  8
0
  6
CONTINUOUS
 62
     7
100
AcDbLine
 10
-74.9770989516
 20
157.7835355834
 30
0.0
 11
-74.9770989516
 21
162.5245100154
 31
0.0
  0
LINE
  5
294
330
1F
100
AcDbEntity
  8
0
  6
CONTINUOUS
 62
     7
100
AcDbLine
 10
-74.9770989516
 20
149.5245100154
 30
0.0
 11
-74.9770989516
 21
149.5804705788
 31
0.0
  0
LINE
  5
295
330
1F
100
AcDbEntity
  8
0
  6
CONTINUOUS
 62
     7
100
AcDbLine
 10
-74.7270989516
 20
149.8283182494
 30
0.0
 11
-74.7270989516
 21
149.7745100154
 31
0.0
  0
LINE
  5
296
330
1F
100
AcDbEntity
  8
0
  6
CONTINUOUS
 62
     7
100
AcDbLine
 10
-74.7270989516
 20
162.2745100154
 30
0.0
 11
-74.7270989516
 21
157.8425214491
 31
0.0
  0
LINE
  5
297
330
1F
100
AcDbEntity
  8
0
  6
CONTINUOUS
 62
     7
100
AcDbLine
 10
-74.7270989516
 20
154.2064985817
 30
0.0
 11
-74.7270989516
 21
149.8283182494
 31
0.0
  0
LINE
  5
298
330
1F
100
AcDbEntity
  8
0
  6
CONTINUOUS
 62
     7
100
AcDbLine
 10
-48.8209432056
 20
161.8874008006
 30
0.0
 11
-48.8209432056
 21
162.2745100154
 31
0.0
  0
LINE
  5
299
330
1F
100
AcDbEntity
  8
0
  6
CONTINUOUS
 62
     7
100
AcDbLine
 10
-48.8209432056
 20
149.7745100154
 30
0.0
 11
-48.8209432056
 21
153.0745100154
 31
0.0
  0
LINE
  5
29A
330
1F
100
AcDbEntity
  8
0
  6
CONTINUOUS
 62
     7
100
AcDbLine
 10
-48.8209432056
 20
159.080409463
 30
0.0
 11
-48.8209432056
 21
161.8874008006
 31
0.0
  0
LINE
  5
29B
330
1F
100
AcDbEntity
  8
0
  6
CONTINUOUS
 62
     7
100
AcDbLine
 10
-48.5709432056
 20
162.121916432
 30
0.0
 11
-48.5709432056
 21
159.0245100154
 31
0.0
  0
LINE
  5
29C
330
1F
100
AcDbEntity
  8
0
  6
CONTINUOUS
 62
     7
100
AcDbLine
 10
-48.5709432056
 20
153.0245100154
 30
0.0
 11
-48.5709432056
 21
149.5245100154
 31
0.0
  0
LINE
  5
29D
330
1F
100
AcDbEntity
  8
0
  6
CONTINUOUS
 62
     7
100
AcDbLine
 10
-48.5709432056
 20
162.5245100154
 30
0.0
 11
-48.5709432056
 21
162.121916432
 31
0.0
  0
LINE
  5
29E
330
1F
100
AcDbEntity
  8
0
  6
CONTINUOUS
 62
     7
100
AcDbLine
 10
-84.7270989516
 20
162.0245100154
 30
0.0
 11
-84.7270989516
 21
161.0745100154
 31
0.0
  0
LINE
  5
29F
330
1F
100
AcDbEntity
  8
0
  6
CONTINUOUS
 62
     7
100
AcDbLine
 10
-84.7270989516
 20
151.0745100154
 30
0.0
 11
-84.7270989516
 21
150.0245100154
 31
0.0
  0
LINE
  5
2A0
330
1F
100
AcDbEntity
  8
0
  6
CONTINUOUS
 62
     7
100
AcDbLine
 10
-38.8209432056
 20
150.0245100154
 30
0.0
 11
-38.8209432056
 21
151.0745100154
 31
0.0
  0
LINE
  5
2A1
330
1F
100
AcDbEntity
  8
0
  6
CONTINUOUS
 62
     7
100
AcDbLine
 10
-38.8209432056
 20
161.0745100154
 30
0.0
 11
-38.8209432056
 21
162.0245100154
 31
0.0
  0
LINE
  5
2A2
330
1F
100
AcDbEntity
  8
0
  6
CONTINUOUS
 62
     7
100
AcDbLine
 10
11.1790567944
 20
156.0745100154
 30
0.0
 11
-38.8209432056
 21
156.0745100154
 31
0.0
  0
LINE
  5
2A3
330
1F
100
AcDbEntity
  8
0
  6
CONTINUOUS
 62
     7
100
AcDbLine
 10
11.1790567944
 20
156.0745100154
 30
0.0
 11
11.1790567944
 21
151.0745100154
 31
0.0
  0
LINE
  5
2A4
330
1F
100
AcDbEntity
  8
0
  6
CONTINUOUS
 62
     7
100
AcDbLine
 10
11.1790567944
 20
151.0745100154
 30
0.0
 11
-38.8209432056
 21
151.0745100154
 31
0.0
  0
LINE
  5
2A5
330
1F
100
AcDbEntity
  8
0
  6
CONTINUOUS
 62
     7
100
AcDbLine
 10
-38.8209432056
 20
151.0745100154
 30
0.0
 11
-38.8209432056
 21
156.0745100154
 31
0.0
  0
LINE
  5
2A6
330
1F
100
AcDbEntity
  8
0
  6
CONTINUOUS
 62
     7
100
AcDbLine
 10
11.1790567944
 20
161.0745100154
 30
0.0
 11
11.1790567944
 21
156.0745100154
 31
0.0
  0
LINE
  5
2A7
330
1F
100
AcDbEntity
  8
0
  6
CONTINUOUS
 62
     7
100
AcDbLine
 10
-38.8209432056
 20
156.0745100154
 30
0.0
 11
-38.8209432056
 21
161.0745100154
 31
0.0
  0
LINE
  5
2A8
330
1F
100
AcDbEntity
  8
0
  6
CONTINUOUS
 62
     7
100
AcDbLine
 10
-38.8209432056
 20
161.0745100154
 30
0.0
 11
11.1790567944
 21
161.0745100154
 31
0.0
  0
ARC
  5
2A9
330
1F
100
AcDbEntity
  8
0
  6
CONTINUOUS
 62
     7
100
AcDbCircle
 10
16.1790567944
 20
156.0745100154
 30
0.0
 40
5.000000000000004
100
AcDbArc
 50
0.0
 51
90.0
  0
LINE
  5
2AA
330
1F
100
AcDbEntity
  8
0
  6
CONTINUOUS
 62
     7
100
AcDbLine
 10
21.1790567944
 20
156.0745100154
 30
0.0
 11
11.1790567944
 21
156.0745100154
 31
0.0
  0
LINE
  5
2AB
330
1F
100
AcDbEntity
  8
0
  6
CONTINUOUS
 62
     7
100
AcDbLine
 10
11.1790567944
 20
161.0745100154
 30
0.0
 11
16.1790567944
 21
161.0745100154
 31
0.0
  0
ARC
  5
2AC
330
1F
100
AcDbEntity
  8
0
  6
CONTINUOUS
 62
     7
100
AcDbCircle
 10
16.1790567944
 20
156.0745100154
 30
0.0
 40
5.0
100
AcDbArc
 50
270.0
 51
0.0
  0
LINE
  5
2AD
330
1F
100
AcDbEntity
  8
0
  6
CONTINUOUS
 62
     7
100
AcDbLine
 10
16.1790567944
 20
151.0745100154
 30
0.0
 11
11.1790567944
 21
151.0745100154
 31
0.0
  0
ARC
  5
2AE
330
1F
100
AcDbEntity
  8
0
  6
CONTINUOUS
 62
     7
100
AcDbCircle
 10
-139.7270989516
 20
156.0745100154
 30
0.0
 40
5.0
100
AcDbArc
 50
180.0
 51
270.0
  0
LINE
  5
2AF
330
1F
100
AcDbEntity
  8
0
  6
CONTINUOUS
 62
     7
100
AcDbLine
 10
-144.7270989516
 20
156.0745100154
 30
0.0
 11
-134.7270989516
 21
156.0745100154
 31
0.0
  0
LINE
  5
2B0
330
1F
100
AcDbEntity
  8
0
  6
CONTINUOUS
 62
     7
100
AcDbLine
 10
-134.7270989516
 20
151.0745100154
 30
0.0
 11
-134.7270989516
 21
156.0745100154
 31
0.0
  0
LINE
  5
2B1
330
1F
100
AcDbEntity
  8
0
  6
CONTINUOUS
 62
     7
100
AcDbLine
 10
-134.7270989516
 20
151.0745100154
 30
0.0
 11
-139.7270989516
 21
151.0745100154
 31
0.0
  0
ARC
  5
2B2
330
1F
100
AcDbEntity
  8
0
  6
CONTINUOUS
 62
     7
100
AcDbCircle
 10
-139.7270989516
 20
156.0745100154
 30
0.0
 40
5.000000000000028
100
AcDbArc
 50
90.0
 51
180.0
  0
LINE
  5
2B3
330
1F
100
AcDbEntity
  8
0
  6
CONTINUOUS
 62
     7
100
AcDbLine
 10
-139.7270989516
 20
161.0745100154
 30
0.0
 11
-134.7270989516
 21
161.0745100154
 31
0.0
  0
LINE
  5
2B4
330
1F
100
AcDbEntity
  8
0
  6
CONTINUOUS
 62
     7
100
AcDbLine
 10
-134.7270989516
 20
156.0745100154
 30
0.0
 11
-134.7270989516
 21
161.0745100154
 31
0.0
  0
LINE
  5
2B5
330
1F
100
AcDbEntity
  8
0
  6
CONTINUOUS
 62
     7
100
AcDbLine
 10
-134.7270989516
 20
156.0745100154
 30
0.0
 11
-84.7270989516
 21
156.0745100154
 31
0.0
  0
LINE
  5
2B6
330
1F
100
AcDbEntity
  8
0
  6
CONTINUOUS
 62
     7
100
AcDbLine
 10
-134.7270989516
 20
161.0745100154
 30
0.0
 11
-84.7270989516
 21
161.0745100154
 31
0.0
  0
LINE
  5
2B7
330
1F
100
AcDbEntity
  8
0
  6
CONTINUOUS
 62
     7
100
AcDbLine
 10
-84.7270989516
 20
161.0745100154
 30
0.0
 11
-84.7270989516
 21
156.0745100154
 31
0.0
  0
LINE
  5
2B8
330
1F
100
AcDbEntity
  8
0
  6
CONTINUOUS
 62
     7
100
AcDbLine
 10
-84.7270989516
 20
156.0745100154
 30
0.0
 11
-84.7270989516
 21
151.0745100154
 31
0.0
  0
LINE
  5
2B9
330
1F
100
AcDbEntity
  8
0
  6
CONTINUOUS
 62
     7
100
AcDbLine
 10
-84.7270989516
 20
151.0745100154
 30
0.0
 11
-134.7270989516
 21
151.0745100154
 31
0.0
  0
LINE
  5
2BA
330
1F
100
AcDbEntity
  8
0
  6
CONTINUOUS
 62
     7
100
AcDbLine
 10
-83.9770989516
 20
84.0245100154
 30
0.0
 11
-83.9770989516
 21
91.0745100154
 31
0.0
  0
LINE
  5
2BB
330
1F
100
AcDbEntity
  8
0
  6
CONTINUOUS
 62
     7
100
AcDbLine
 10
-83.9770989516
 20
62.9745100154
 30
0.0
 11
-83.9770989516
 21
70.0245100154
 31
0.0
  0
LINE
  5
2BC
330
1F
100
AcDbEntity
  8
0
  6
CONTINUOUS
 62
     7
100
AcDbLine
 10
-75.3770989516
 20
84.0245100154
 30
0.0
 11
-80.7270989516
 21
84.0245100154
 31
0.0
  0
LINE
  5
2BD
330
1F
100
AcDbEntity
  8
0
  6
CONTINUOUS
 62
     7
100
AcDbLine
 10
-80.7270989516
 20
70.0245100154
 30
0.0
 11
-75.3770989516
 21
70.0245100154
 31
0.0
  0
LINE
  5
2BE
330
1F
100
AcDbEntity
  8
0
  6
CONTINUOUS
 62
     7
100
AcDbLine
 10
-39.5709432056
 20
91.0745100154
 30
0.0
 11
-39.5709432056
 21
84.0245100154
 31
0.0
  0
LINE
  5
2BF
330
1F
100
AcDbEntity
  8
0
  6
CONTINUOUS
 62
     7
100
AcDbLine
 10
-39.5709432056
 20
70.0245100154
 30
0.0
 11
-39.5709432056
 21
62.9745100154
 31
0.0
  0
LINE
  5
2C0
330
1F
100
AcDbEntity
  8
0
  6
CONTINUOUS
 62
     7
100
AcDbLine
 10
-42.8209432056
 20
84.0245100154
 30
0.0
 11
-48.1709432056
 21
84.0245100154
 31
0.0
  0
LINE
  5
2C1
330
1F
100
AcDbEntity
  8
0
  6
CONTINUOUS
 62
     7
100
AcDbLine
 10
-48.1709432056
 20
70.0245100154
 30
0.0
 11
-42.8209432056
 21
70.0245100154
 31
0.0
  0
LINE
  5
2C2
330
1F
100
AcDbEntity
  8
0
  6
CONTINUOUS
 62
     7
100
AcDbLine
 10
-55.7709432056
 20
159.0245100154
 30
0.0
 11
-55.7709432056
 21
156.4245118123
 31
0.0
  0
LINE
  5
2C3
330
1F
100
AcDbEntity
  8
0
  6
CONTINUOUS
 62
     7
100
AcDbLine
 10
-55.7709432056
 20
156.4245118123
 30
0.0
 11
-42.8209432056
 21
156.4245118123
 31
0.0
  0
LINE
  5
2C4
330
1F
100
AcDbEntity
  8
0
  6
CONTINUOUS
 62
     7
100
AcDbLine
 10
-42.8209432056
 20
156.3986926653
 30
0.0
 11
-55.7709432056
 21
156.3986926653
 31
0.0
  0
LINE
  5
2C5
330
1F
100
AcDbEntity
  8
0
  6
CONTINUOUS
 62
     7
100
AcDbLine
 10
-55.7709432056
 20
153.6584725236
 30
0.0
 11
-42.8209432056
 21
153.6584725236
 31
0.0
  0
LINE
  5
2C6
330
1F
100
AcDbEntity
  8
0
  6
CONTINUOUS
 62
     7
100
AcDbLine
 10
-42.8209432056
 20
153.6378472614
 30
0.0
 11
-55.7709432056
 21
153.6378472614
 31
0.0
  0
LINE
  5
2C7
330
1F
100
AcDbEntity
  8
0
  6
CONTINUOUS
 62
     7
100
AcDbLine
 10
-55.7709432056
 20
153.6378472614
 30
0.0
 11
-55.7709432056
 21
153.0245100154
 31
0.0
  0
LINE
  5
2C8
330
1F
100
AcDbEntity
  8
0
  6
CONTINUOUS
 62
     7
100
AcDbLine
 10
-74.0074755425
 20
153.0745100154
 30
0.0
 11
-74.0074755425
 21
154.1613977664
 31
0.0
  0
LINE
  5
2C9
330
1F
100
AcDbEntity
  8
0
  6
CONTINUOUS
 62
     7
100
AcDbLine
 10
-74.0074755425
 20
157.8876222644
 30
0.0
 11
-74.0074755425
 21
159.0745100154
 31
0.0
  0
LINE
  5
2CA
330
1F
100
AcDbEntity
  8
0
  6
CONTINUOUS
 62
     7
100
AcDbLine
 10
-50.0074755425
 20
159.0745100154
 30
0.0
 11
-50.0074755425
 21
159.0245100154
 31
0.0
  0
LINE
  5
2CB
330
1F
100
AcDbEntity
  8
0
  6
CONTINUOUS
 62
     7
100
AcDbLine
 10
83.993238829
 20
315.4517348641
 30
0.0
 11
83.9454065436
 21
315.4517348641
 31
0.0
  0
LINE
  5
2CC
330
1F
100
AcDbEntity
  8
0
  6
CONTINUOUS
 62
     7
100
AcDbLine
 10
83.993238829
 20
315.4517348641
 30
0.0
 11
83.993238829
 21
315.5482301938
 31
0.0
  0
LINE
  5
2CD
330
1F
100
AcDbEntity
  8
0
  6
CONTINUOUS
 62
     7
100
AcDbLine
 10
83.993238829
 20
289.6789160531
 30
0.0
 11
84.0414864938
 21
289.6789160531
 31
0.0
  0
LINE
  5
2CE
330
1F
100
AcDbEntity
  8
0
  6
CONTINUOUS
 62
     7
100
AcDbLine
 10
83.993238829
 20
289.6789160531
 30
0.0
 11
83.993238829
 21
289.5824207233
 31
0.0
  0
LINE
  5
2CF
330
1F
100
AcDbEntity
  8
0
  6
CONTINUOUS
 62
     7
100
AcDbLine
 10
83.993238829
 20
289.545579118
 30
0.0
 11
83.9479795026
 21
289.545579118
 31
0.0
  0
LINE
  5
2D0
330
1F
100
AcDbEntity
  8
0
  6
CONTINUOUS
 62
     7
100
AcDbLine
 10
83.993238829
 20
289.545579118
 30
0.0
 11
83.993238829
 21
289.4490837883
 31
0.0
  0
LINE
  5
2D1
330
1F
100
AcDbEntity
  8
0
  6
CONTINUOUS
 62
     7
100
AcDbLine
 10
78.2529750588
 20
270.720979118
 30
0.0
 11
78.3012227237
 21
270.720979118
 31
0.0
  0
LINE
  5
2D2
330
1F
100
AcDbEntity
  8
0
  6
CONTINUOUS
 62
     7
100
AcDbLine
 10
78.2529750588
 20
270.720979118
 30
0.0
 11
78.2529750588
 21
270.8174744478
 31
0.0
  0
LINE
  5
2D3
330
1F
100
AcDbEntity
  8
0
  6
CONTINUOUS
 62
     7
100
AcDbLine
 10
78.2529750588
 20
334.2763348641
 30
0.0
 11
78.2047273939
 21
334.2763348641
 31
0.0
  0
LINE
  5
2D4
330
1F
100
AcDbEntity
  8
0
  6
CONTINUOUS
 62
     7
100
AcDbLine
 10
78.2529750588
 20
334.2763348641
 30
0.0
 11
78.2529750588
 21
334.1798395343
 31
0.0
  0
POINT
  5
2D5
330
1F
100
AcDbEntity
  8
0
  6
CONTINUOUS
 62
     7
100
AcDbPoint
 10
83.993238829
 20
315.4517348641
 30
0.0
  0
POINT
  5
2D6
330
1F
100
AcDbEntity
  8
0
  6
CONTINUOUS
 62
     7
100
AcDbPoint
 10
83.993238829
 20
289.6789160531
 30
0.0
  0
POINT
  5
2D7
330
1F
100
AcDbEntity
  8
0
  6
CONTINUOUS
 62
     7
100
AcDbPoint
 10
83.993238829
 20
289.545579118
 30
0.0
  0
POINT
  5
2D8
330
1F
100
AcDbEntity
  8
0
  6
CONTINUOUS
 62
     7
100
AcDbPoint
 10
78.2529750588
 20
270.720979118
 30
0.0
  0
POINT
  5
2D9
330
1F
100
AcDbEntity
  8
0
  6
CONTINUOUS
 62
     7
100
AcDbPoint
 10
78.2529750588
 20
334.2763348641
 30
0.0
  0
ARC
  5
2DA
330
1F
100
AcDbEntity
  8
0
  6
CONTINUOUS
 62
     7
100
AcDbCircle
 10
62.0695788797
 20
296.495579118
 30
0.0
 40
0.0500000000000114
100
AcDbArc
 50
90.0
 51
180.0
  0
LINE
  5
2DB
330
1F
100
AcDbEntity
  8
0
  6
CONTINUOUS
 62
     7
100
AcDbLine
 10
62.0195788797
 20
296.495579118
 30
0.0
 11
62.0195788797
 21
283.545579118
 31
0.0
  0
LINE
  5
2DC
330
1F
100
AcDbEntity
  8
0
  6
CONTINUOUS
 62
     7
100
AcDbLine
 10
67.9668987782
 20
283.545579118
 30
0.0
 11
67.9668987782
 21
296.495579118
 31
0.0
  0
ARC
  5
2DD
330
1F
100
AcDbEntity
  8
0
  6
CONTINUOUS
 62
     7
100
AcDbCircle
 10
67.9168987782
 20
296.495579118
 30
0.0
 40
0.0500000000000114
100
AcDbArc
 50
0.0
 51
90.0
  0
LINE
  5
2DE
330
1F
100
AcDbEntity
  8
0
  6
CONTINUOUS
 62
     7
100
AcDbLine
 10
62.993238829
 20
321.4517348641
 30
0.0
 11
62.993238829
 21
321.374814804
 31
0.0
  0
LINE
  5
2DF
330
1F
100
AcDbEntity
  8
0
  6
CONTINUOUS
 62
     7
100
AcDbLine
 10
66.993238829
 20
321.374814804
 30
0.0
 11
66.993238829
 21
321.4517348641
 31
0.0
  0
LINE
  5
2E0
330
1F
100
AcDbEntity
  8
0
  6
CONTINUOUS
 62
     7
100
AcDbLine
 10
62.993238829
 20
321.374814804
 30
0.0
 11
63.383238829
 21
321.1017338641
 31
0.0
  0
LINE
  5
2E1
330
1F
100
AcDbEntity
  8
0
  6
CONTINUOUS
 62
     7
100
AcDbLine
 10
66.603238829
 20
321.1017338641
 30
0.0
 11
66.993238829
 21
321.374814804
 31
0.0
  0
LINE
  5
2E2
330
1F
100
AcDbEntity
  8
0
  6
CONTINUOUS
 62
     7
100
AcDbLine
 10
66.993238829
 20
320.8286529242
 30
0.0
 11
66.603238829
 21
321.1017338641
 31
0.0
  0
LINE
  5
2E3
330
1F
100
AcDbEntity
  8
0
  6
CONTINUOUS
 62
     7
100
AcDbLine
 10
63.383238829
 20
321.1017338641
 30
0.0
 11
62.993238829
 21
320.8286529242
 31
0.0
  0
LINE
  5
2E4
330
1F
100
AcDbEntity
  8
0
  6
CONTINUOUS
 62
     7
100
AcDbLine
 10
62.993238829
 20
320.6867713257
 30
0.0
 11
63.383238829
 21
320.4136903858
 31
0.0
  0
LINE
  5
2E5
330
1F
100
AcDbEntity
  8
0
  6
CONTINUOUS
 62
     7
100
AcDbLine
 10
66.603238829
 20
320.4136903858
 30
0.0
 11
66.993238829
 21
320.6867713257
 31
0.0
  0
LINE
  5
2E6
330
1F
100
AcDbEntity
  8
0
  6
CONTINUOUS
 62
     7
100
AcDbLine
 10
62.993238829
 20
320.8286529242
 30
0.0
 11
62.993238829
 21
320.6867713257
 31
0.0
  0
LINE
  5
2E7
330
1F
100
AcDbEntity
  8
0
  6
CONTINUOUS
 62
     7
100
AcDbLine
 10
66.993238829
 20
320.6867713257
 30
0.0
 11
66.993238829
 21
320.8286529242
 31
0.0
  0
LINE
  5
2E8
330
1F
100
AcDbEntity
  8
0
  6
CONTINUOUS
 62
     7
100
AcDbLine
 10
62.993238829
 20
320.1406094459
 30
0.0
 11
62.993238829
 21
319.9987278475
 31
0.0
  0
LINE
  5
2E9
330
1F
100
AcDbEntity
  8
0
  6
CONTINUOUS
 62
     7
100
AcDbLine
 10
66.993238829
 20
319.9987278475
 30
0.0
 11
66.993238829
 21
320.1406094459
 31
0.0
  0
LINE
  5
2EA
330
1F
100
AcDbEntity
  8
0
  6
CONTINUOUS
 62
     7
100
AcDbLine
 10
62.993238829
 20
319.9987278475
 30
0.0
 11
63.383238829
 21
319.7256469076
 31
0.0
  0
LINE
  5
2EB
330
1F
100
AcDbEntity
  8
0
  6
CONTINUOUS
 62
     7
100
AcDbLine
 10
66.603238829
 20
319.7256469076
 30
0.0
 11
66.993238829
 21
319.9987278475
 31
0.0
  0
LINE
  5
2EC
330
1F
100
AcDbEntity
  8
0
  6
CONTINUOUS
 62
     7
100
AcDbLine
 10
66.993238829
 20
320.1406094459
 30
0.0
 11
66.603238829
 21
320.4136903858
 31
0.0
  0
LINE
  5
2ED
330
1F
100
AcDbEntity
  8
0
  6
CONTINUOUS
 62
     7
100
AcDbLine
 10
63.383238829
 20
320.4136903858
 30
0.0
 11
62.993238829
 21
320.1406094459
 31
0.0
  0
LINE
  5
2EE
330
1F
100
AcDbEntity
  8
0
  6
CONTINUOUS
 62
     7
100
AcDbLine
 10
66.993238829
 20
319.4525659677
 30
0.0
 11
66.603238829
 21
319.7256469076
 31
0.0
  0
LINE
  5
2EF
330
1F
100
AcDbEntity
  8
0
  6
CONTINUOUS
 62
     7
100
AcDbLine
 10
63.383238829
 20
319.7256469076
 30
0.0
 11
62.993238829
 21
319.4525659677
 31
0.0
  0
LINE
  5
2F0
330
1F
100
AcDbEntity
  8
0
  6
CONTINUOUS
 62
     7
100
AcDbLine
 10
62.993238829
 20
319.4525659677
 30
0.0
 11
62.993238829
 21
319.3106843692
 31
0.0
  0
LINE
  5
2F1
330
1F
100
AcDbEntity
  8
0
  6
CONTINUOUS
 62
     7
100
AcDbLine
 10
66.993238829
 20
319.3106843692
 30
0.0
 11
66.993238829
 21
319.4525659677
 31
0.0
  0
LINE
  5
2F2
330
1F
100
AcDbEntity
  8
0
  6
CONTINUOUS
 62
     7
100
AcDbLine
 10
62.993238829
 20
319.3106843692
 30
0.0
 11
63.383238829
 21
319.0376034293
 31
0.0
  0
LINE
  5
2F3
330
1F
100
AcDbEntity
  8
0
  6
CONTINUOUS
 62
     7
100
AcDbLine
 10
66.603238829
 20
319.0376034293
 30
0.0
 11
66.993238829
 21
319.3106843692
 31
0.0
  0
LINE
  5
2F4
330
1F
100
AcDbEntity
  8
0
  6
CONTINUOUS
 62
     7
100
AcDbLine
 10
66.993238829
 20
318.7645224894
 30
0.0
 11
66.603238829
 21
319.0376034293
 31
0.0
  0
LINE
  5
2F5
330
1F
100
AcDbEntity
  8
0
  6
CONTINUOUS
 62
     7
100
AcDbLine
 10
63.383238829
 20
319.0376034293
 30
0.0
 11
62.993238829
 21
318.7645224894
 31
0.0
  0
LINE
  5
2F6
330
1F
100
AcDbEntity
  8
0
  6
CONTINUOUS
 62
     7
100
AcDbLine
 10
62.993238829
 20
318.7645224894
 30
0.0
 11
62.993238829
 21
318.6226408909
 31
0.0
  0
LINE
  5
2F7
330
1F
100
AcDbEntity
  8
0
  6
CONTINUOUS
 62
     7
100
AcDbLine
 10
66.993238829
 20
318.6226408909
 30
0.0
 11
66.993238829
 21
318.7645224894
 31
0.0
  0
LINE
  5
2F8
330
1F
100
AcDbEntity
  8
0
  6
CONTINUOUS
 62
     7
100
AcDbLine
 10
62.993238829
 20
318.6226408909
 30
0.0
 11
63.383238829
 21
318.349559951
 31
0.0
  0
LINE
  5
2F9
330
1F
100
AcDbEntity
  8
0
  6
CONTINUOUS
 62
     7
100
AcDbLine
 10
66.603238829
 20
318.349559951
 30
0.0
 11
66.993238829
 21
318.6226408909
 31
0.0
  0
LINE
  5
2FA
330
1F
100
AcDbEntity
  8
0
  6
CONTINUOUS
 62
     7
100
AcDbLine
 10
62.993238829
 20
318.0764790111
 30
0.0
 11
62.993238829
 21
317.9345974127
 31
0.0
  0
LINE
  5
2FB
330
1F
100
AcDbEntity
  8
0
  6
CONTINUOUS
 62
     7
100
AcDbLine
 10
66.993238829
 20
317.9345974127
 30
0.0
 11
66.993238829
 21
318.0764790111
 31
0.0
  0
LINE
  5
2FC
330
1F
100
AcDbEntity
  8
0
  6
CONTINUOUS
 62
     7
100
AcDbLine
 10
66.993238829
 20
318.0764790111
 30
0.0
 11
66.603238829
 21
318.349559951
 31
0.0
  0
LINE
  5
2FD
330
1F
100
AcDbEntity
  8
0
  6
CONTINUOUS
 62
     7
100
AcDbLine
 10
63.383238829
 20
318.349559951
 30
0.0
 11
62.993238829
 21
318.0764790111
 31
0.0
  0
LINE
  5
2FE
330
1F
100
AcDbEntity
  8
0
  6
CONTINUOUS
 62
     7
100
AcDbLine
 10
62.993238829
 20
317.9345974127
 30
0.0
 11
63.383238829
 21
317.6615164728
 31
0.0
  0
LINE
  5
2FF
330
1F
100
AcDbEntity
  8
0
  6
CONTINUOUS
 62
     7
100
AcDbLine
 10
66.603238829
 20
317.6615164728
 30
0.0
 11
66.993238829
 21
317.9345974127
 31
0.0
  0
LINE
  5
300
330
1F
100
AcDbEntity
  8
0
  6
CONTINUOUS
 62
     7
100
AcDbLine
 10
62.993238829
 20
317.3884355329
 30
0.0
 11
62.993238829
 21
317.2465539344
 31
0.0
  0
LINE
  5
301
330
1F
100
AcDbEntity
  8
0
  6
CONTINUOUS
 62
     7
100
AcDbLine
 10
66.993238829
 20
317.2465539344
 30
0.0
 11
66.993238829
 21
317.3884355329
 31
0.0
  0
LINE
  5
302
330
1F
100
AcDbEntity
  8
0
  6
CONTINUOUS
 62
     7
100
AcDbLine
 10
66.993238829
 20
317.3884355329
 30
0.0
 11
66.603238829
 21
317.6615164728
 31
0.0
  0
LINE
  5
303
330
1F
100
AcDbEntity
  8
0
  6
CONTINUOUS
 62
     7
100
AcDbLine
 10
63.383238829
 20
317.6615164728
 30
0.0
 11
62.993238829
 21
317.3884355329
 31
0.0
  0
LINE
  5
304
330
1F
100
AcDbEntity
  8
0
  6
CONTINUOUS
 62
     7
100
AcDbLine
 10
62.993238829
 20
317.2465539344
 30
0.0
 11
63.383238829
 21
316.9734729945
 31
0.0
  0
LINE
  5
305
330
1F
100
AcDbEntity
  8
0
  6
CONTINUOUS
 62
     7
100
AcDbLine
 10
66.603238829
 20
316.9734729945
 30
0.0
 11
66.993238829
 21
317.2465539344
 31
0.0
  0
LINE
  5
306
330
1F
100
AcDbEntity
  8
0
  6
CONTINUOUS
 62
     7
100
AcDbLine
 10
66.993238829
 20
316.7003920546
 30
0.0
 11
66.603238829
 21
316.9734729945
 31
0.0
  0
LINE
  5
307
330
1F
100
AcDbEntity
  8
0
  6
CONTINUOUS
 62
     7
100
AcDbLine
 10
63.383238829
 20
316.9734729945
 30
0.0
 11
62.993238829
 21
316.7003920546
 31
0.0
  0
LINE
  5
308
330
1F
100
AcDbEntity
  8
0
  6
CONTINUOUS
 62
     7
100
AcDbLine
 10
62.993238829
 20
316.7003920546
 30
0.0
 11
62.993238829
 21
316.5585104562
 31
0.0
  0
LINE
  5
309
330
1F
100
AcDbEntity
  8
0
  6
CONTINUOUS
 62
     7
100
AcDbLine
 10
66.993238829
 20
316.5585104562
 30
0.0
 11
66.993238829
 21
316.7003920546
 31
0.0
  0
LINE
  5
30A
330
1F
100
AcDbEntity
  8
0
  6
CONTINUOUS
 62
     7
100
AcDbLine
 10
62.993238829
 20
316.5585104562
 30
0.0
 11
63.383238829
 21
316.2854295163
 31
0.0
  0
LINE
  5
30B
330
1F
100
AcDbEntity
  8
0
  6
CONTINUOUS
 62
     7
100
AcDbLine
 10
66.603238829
 20
316.2854295163
 30
0.0
 11
66.993238829
 21
316.5585104562
 31
0.0
  0
LINE
  5
30C
330
1F
100
AcDbEntity
  8
0
  6
CONTINUOUS
 62
     7
100
AcDbLine
 10
62.993238829
 20
316.0123485763
 30
0.0
 11
62.993238829
 21
315.8704669779
 31
0.0
  0
LINE
  5
30D
330
1F
100
AcDbEntity
  8
0
  6
CONTINUOUS
 62
     7
100
AcDbLine
 10
66.993238829
 20
315.8704669779
 30
0.0
 11
66.993238829
 21
316.0123485763
 31
0.0
  0
LINE
  5
30E
330
1F
100
AcDbEntity
  8
0
  6
CONTINUOUS
 62
     7
100
AcDbLine
 10
62.993238829
 20
315.8704669779
 30
0.0
 11
63.383238829
 21
315.597386038
 31
0.0
  0
LINE
  5
30F
330
1F
100
AcDbEntity
  8
0
  6
CONTINUOUS
 62
     7
100
AcDbLine
 10
66.603238829
 20
315.597386038
 30
0.0
 11
66.993238829
 21
315.8704669779
 31
0.0
  0
LINE
  5
310
330
1F
100
AcDbEntity
  8
0
  6
CONTINUOUS
 62
     7
100
AcDbLine
 10
66.993238829
 20
316.0123485763
 30
0.0
 11
66.603238829
 21
316.2854295163
 31
0.0
  0
LINE
  5
311
330
1F
100
AcDbEntity
  8
0
  6
CONTINUOUS
 62
     7
100
AcDbLine
 10
63.383238829
 20
316.2854295163
 30
0.0
 11
62.993238829
 21
316.0123485763
 31
0.0
  0
LINE
  5
312
330
1F
100
AcDbEntity
  8
0
  6
CONTINUOUS
 62
     7
100
AcDbLine
 10
66.993238829
 20
315.3243050981
 30
0.0
 11
66.603238829
 21
315.597386038
 31
0.0
  0
LINE
  5
313
330
1F
100
AcDbEntity
  8
0
  6
CONTINUOUS
 62
     7
100
AcDbLine
 10
63.383238829
 20
315.597386038
 30
0.0
 11
62.993238829
 21
315.3243050981
 31
0.0
  0
LINE
  5
314
330
1F
100
AcDbEntity
  8
0
  6
CONTINUOUS
 62
     7
100
AcDbLine
 10
62.993238829
 20
315.3243050981
 30
0.0
 11
62.993238829
 21
315.1824234996
 31
0.0
  0
LINE
  5
315
330
1F
100
AcDbEntity
  8
0
  6
CONTINUOUS
 62
     7
100
AcDbLine
 10
66.993238829
 20
315.1824234996
 30
0.0
 11
66.993238829
 21
315.3243050981
 31
0.0
  0
LINE
  5
316
330
1F
100
AcDbEntity
  8
0
  6
CONTINUOUS
 62
     7
100
AcDbLine
 10
62.993238829
 20
315.1824234996
 30
0.0
 11
63.383238829
 21
314.9093425597
 31
0.0
  0
LINE
  5
317
330
1F
100
AcDbEntity
  8
0
  6
CONTINUOUS
 62
     7
100
AcDbLine
 10
66.603238829
 20
314.9093425597
 30
0.0
 11
66.993238829
 21
315.1824234996
 31
0.0
  0
LINE
  5
318
330
1F
100
AcDbEntity
  8
0
  6
CONTINUOUS
 62
     7
100
AcDbLine
 10
66.993238829
 20
314.6362616198
 30
0.0
 11
66.603238829
 21
314.9093425597
 31
0.0
  0
LINE
  5
319
330
1F
100
AcDbEntity
  8
0
  6
CONTINUOUS
 62
     7
100
AcDbLine
 10
63.383238829
 20
314.9093425597
 30
0.0
 11
62.993238829
 21
314.6362616198
 31
0.0
  0
LINE
  5
31A
330
1F
100
AcDbEntity
  8
0
  6
CONTINUOUS
 62
     7
100
AcDbLine
 10
62.993238829
 20
314.4943800214
 30
0.0
 11
63.383238829
 21
314.2212990815
 31
0.0
  0
LINE
  5
31B
330
1F
100
AcDbEntity
  8
0
  6
CONTINUOUS
 62
     7
100
AcDbLine
 10
66.603238829
 20
314.2212990815
 30
0.0
 11
66.993238829
 21
314.4943800214
 31
0.0
  0
LINE
  5
31C
330
1F
100
AcDbEntity
  8
0
  6
CONTINUOUS
 62
     7
100
AcDbLine
 10
62.993238829
 20
314.6362616198
 30
0.0
 11
62.993238829
 21
314.4943800214
 31
0.0
  0
LINE
  5
31D
330
1F
100
AcDbEntity
  8
0
  6
CONTINUOUS
 62
     7
100
AcDbLine
 10
66.993238829
 20
314.4943800214
 30
0.0
 11
66.993238829
 21
314.6362616198
 31
0.0
  0
LINE
  5
31E
330
1F
100
AcDbEntity
  8
0
  6
CONTINUOUS
 62
     7
100
AcDbLine
 10
66.993238829
 20
313.9482181416
 30
0.0
 11
66.603238829
 21
314.2212990815
 31
0.0
  0
LINE
  5
31F
330
1F
100
AcDbEntity
  8
0
  6
CONTINUOUS
 62
     7
100
AcDbLine
 10
63.383238829
 20
314.2212990815
 30
0.0
 11
62.993238829
 21
313.9482181416
 31
0.0
  0
LINE
  5
320
330
1F
100
AcDbEntity
  8
0
  6
CONTINUOUS
 62
     7
100
AcDbLine
 10
62.993238829
 20
313.8063365431
 30
0.0
 11
63.383238829
 21
313.5332556032
 31
0.0
  0
LINE
  5
321
330
1F
100
AcDbEntity
  8
0
  6
CONTINUOUS
 62
     7
100
AcDbLine
 10
66.603238829
 20
313.5332556032
 30
0.0
 11
66.993238829
 21
313.8063365431
 31
0.0
  0
LINE
  5
322
330
1F
100
AcDbEntity
  8
0
  6
CONTINUOUS
 62
     7
100
AcDbLine
 10
62.993238829
 20
313.9482181416
 30
0.0
 11
62.993238829
 21
313.8063365431
 31
0.0
  0
LINE
  5
323
330
1F
100
AcDbEntity
  8
0
  6
CONTINUOUS
 62
     7
100
AcDbLine
 10
66.993238829
 20
313.8063365431
 30
0.0
 11
66.993238829
 21
313.9482181416
 31
0.0
  0
LINE
  5
324
330
1F
100
AcDbEntity
  8
0
  6
CONTINUOUS
 62
     7
100
AcDbLine
 10
66.993238829
 20
313.2601746633
 30
0.0
 11
66.603238829
 21
313.5332556032
 31
0.0
  0
LINE
  5
325
330
1F
100
AcDbEntity
  8
0
  6
CONTINUOUS
 62
     7
100
AcDbLine
 10
63.383238829
 20
313.5332556032
 30
0.0
 11
62.993238829
 21
313.2601746633
 31
0.0
  0
LINE
  5
326
330
1F
100
AcDbEntity
  8
0
  6
CONTINUOUS
 62
     7
100
AcDbLine
 10
62.993238829
 20
313.1182930648
 30
0.0
 11
63.383238829
 21
312.8452121249
 31
0.0
  0
LINE
  5
327
330
1F
100
AcDbEntity
  8
0
  6
CONTINUOUS
 62
     7
100
AcDbLine
 10
66.603238829
 20
312.8452121249
 30
0.0
 11
66.993238829
 21
313.1182930648
 31
0.0
  0
LINE
  5
328
330
1F
100
AcDbEntity
  8
0
  6
CONTINUOUS
 62
     7
100
AcDbLine
 10
62.993238829
 20
313.2601746633
 30
0.0
 11
62.993238829
 21
313.1182930648
 31
0.0
  0
LINE
  5
329
330
1F
100
AcDbEntity
  8
0
  6
CONTINUOUS
 62
     7
100
AcDbLine
 10
66.993238829
 20
313.1182930648
 30
0.0
 11
66.993238829
 21
313.2601746633
 31
0.0
  0
LINE
  5
32A
330
1F
100
AcDbEntity
  8
0
  6
CONTINUOUS
 62
     7
100
AcDbLine
 10
62.993238829
 20
312.572131185
 30
0.0
 11
62.993238829
 21
312.4302495866
 31
0.0
  0
LINE
  5
32B
330
1F
100
AcDbEntity
  8
0
  6
CONTINUOUS
 62
     7
100
AcDbLine
 10
66.993238829
 20
312.4302495866
 30
0.0
 11
66.993238829
 21
312.572131185
 31
0.0
  0
LINE
  5
32C
330
1F
100
AcDbEntity
  8
0
  6
CONTINUOUS
 62
     7
100
AcDbLine
 10
66.993238829
 20
312.572131185
 30
0.0
 11
66.603238829
 21
312.8452121249
 31
0.0
  0
LINE
  5
32D
330
1F
100
AcDbEntity
  8
0
  6
CONTINUOUS
 62
     7
100
AcDbLine
 10
63.383238829
 20
312.8452121249
 30
0.0
 11
62.993238829
 21
312.572131185
 31
0.0
  0
LINE
  5
32E
330
1F
100
AcDbEntity
  8
0
  6
CONTINUOUS
 62
     7
100
AcDbLine
 10
66.993238829
 20
311.8840877068
 30
0.0
 11
66.603238829
 21
312.1571686467
 31
0.0
  0
LINE
  5
32F
330
1F
100
AcDbEntity
  8
0
  6
CONTINUOUS
 62
     7
100
AcDbLine
 10
63.383238829
 20
312.1571686467
 30
0.0
 11
62.993238829
 21
311.8840877068
 31
0.0
  0
LINE
  5
330
330
1F
100
AcDbEntity
  8
0
  6
CONTINUOUS
 62
     7
100
AcDbLine
 10
62.993238829
 20
312.4302495866
 30
0.0
 11
63.383238829
 21
312.1571686467
 31
0.0
  0
LINE
  5
331
330
1F
100
AcDbEntity
  8
0
  6
CONTINUOUS
 62
     7
100
AcDbLine
 10
66.603238829
 20
312.1571686467
 30
0.0
 11
66.993238829
 21
312.4302495866
 31
0.0
  0
LINE
  5
332
330
1F
100
AcDbEntity
  8
0
  6
CONTINUOUS
 62
     7
100
AcDbLine
 10
62.993238829
 20
311.8840877068
 30
0.0
 11
62.993238829
 21
311.7422061083
 31
0.0
  0
LINE
  5
333
330
1F
100
AcDbEntity
  8
0
  6
CONTINUOUS
 62
     7
100
AcDbLine
 10
66.993238829
 20
311.7422061083
 30
0.0
 11
66.993238829
 21
311.8840877068
 31
0.0
  0
LINE
  5
334
330
1F
100
AcDbEntity
  8
0
  6
CONTINUOUS
 62
     7
100
AcDbLine
 10
62.993238829
 20
311.7422061083
 30
0.0
 11
63.383238829
 21
311.4691251684
 31
0.0
  0
LINE
  5
335
330
1F
100
AcDbEntity
  8
0
  6
CONTINUOUS
 62
     7
100
AcDbLine
 10
66.603238829
 20
311.4691251684
 30
0.0
 11
66.993238829
 21
311.7422061083
 31
0.0
  0
LINE
  5
336
330
1F
100
AcDbEntity
  8
0
  6
CONTINUOUS
 62
     7
100
AcDbLine
 10
66.993238829
 20
311.1960442285
 30
0.0
 11
66.603238829
 21
311.4691251684
 31
0.0
  0
LINE
  5
337
330
1F
100
AcDbEntity
  8
0
  6
CONTINUOUS
 62
     7
100
AcDbLine
 10
63.383238829
 20
311.4691251684
 30
0.0
 11
62.993238829
 21
311.1960442285
 31
0.0
  0
LINE
  5
338
330
1F
100
AcDbEntity
  8
0
  6
CONTINUOUS
 62
     7
100
AcDbLine
 10
62.993238829
 20
311.1960442285
 30
0.0
 11
62.993238829
 21
311.0541626301
 31
0.0
  0
LINE
  5
339
330
1F
100
AcDbEntity
  8
0
  6
CONTINUOUS
 62
     7
100
AcDbLine
 10
66.993238829
 20
311.0541626301
 30
0.0
 11
66.993238829
 21
311.1960442285
 31
0.0
  0
LINE
  5
33A
330
1F
100
AcDbEntity
  8
0
  6
CONTINUOUS
 62
     7
100
AcDbLine
 10
62.993238829
 20
311.0541626301
 30
0.0
 11
63.383238829
 21
310.7810816902
 31
0.0
  0
LINE
  5
33B
330
1F
100
AcDbEntity
  8
0
  6
CONTINUOUS
 62
     7
100
AcDbLine
 10
66.603238829
 20
310.7810816902
 30
0.0
 11
66.993238829
 21
311.0541626301
 31
0.0
  0
LINE
  5
33C
330
1F
100
AcDbEntity
  8
0
  6
CONTINUOUS
 62
     7
100
AcDbLine
 10
66.993238829
 20
310.5080007503
 30
0.0
 11
66.603238829
 21
310.7810816902
 31
0.0
  0
LINE
  5
33D
330
1F
100
AcDbEntity
  8
0
  6
CONTINUOUS
 62
     7
100
AcDbLine
 10
63.383238829
 20
310.7810816902
 30
0.0
 11
62.993238829
 21
310.5080007503
 31
0.0
  0
LINE
  5
33E
330
1F
100
AcDbEntity
  8
0
  6
CONTINUOUS
 62
     7
100
AcDbLine
 10
62.993238829
 20
310.5080007503
 30
0.0
 11
62.993238829
 21
310.3661191518
 31
0.0
  0
LINE
  5
33F
330
1F
100
AcDbEntity
  8
0
  6
CONTINUOUS
 62
     7
100
AcDbLine
 10
66.993238829
 20
310.3661191518
 30
0.0
 11
66.993238829
 21
310.5080007503
 31
0.0
  0
LINE
  5
340
330
1F
100
AcDbEntity
  8
0
  6
CONTINUOUS
 62
     7
100
AcDbLine
 10
62.993238829
 20
310.3661191518
 30
0.0
 11
63.383238829
 21
310.0930382119
 31
0.0
  0
LINE
  5
341
330
1F
100
AcDbEntity
  8
0
  6
CONTINUOUS
 62
     7
100
AcDbLine
 10
66.603238829
 20
310.0930382119
 30
0.0
 11
66.993238829
 21
310.3661191518
 31
0.0
  0
LINE
  5
342
330
1F
100
AcDbEntity
  8
0
  6
CONTINUOUS
 62
     7
100
AcDbLine
 10
66.993238829
 20
309.819957272
 30
0.0
 11
66.603238829
 21
310.0930382119
 31
0.0
  0
LINE
  5
343
330
1F
100
AcDbEntity
  8
0
  6
CONTINUOUS
 62
     7
100
AcDbLine
 10
63.383238829
 20
310.0930382119
 30
0.0
 11
62.993238829
 21
309.819957272
 31
0.0
  0
LINE
  5
344
330
1F
100
AcDbEntity
  8
0
  6
CONTINUOUS
 62
     7
100
AcDbLine
 10
62.993238829
 20
309.819957272
 30
0.0
 11
62.993238829
 21
309.6780756735
 31
0.0
  0
LINE
  5
345
330
1F
100
AcDbEntity
  8
0
  6
CONTINUOUS
 62
     7
100
AcDbLine
 10
66.993238829
 20
309.6780756735
 30
0.0
 11
66.993238829
 21
309.819957272
 31
0.0
  0
LINE
  5
346
330
1F
100
AcDbEntity
  8
0
  6
CONTINUOUS
 62
     7
100
AcDbLine
 10
62.993238829
 20
309.6780756735
 30
0.0
 11
63.383238829
 21
309.4049947336
 31
0.0
  0
LINE
  5
347
330
1F
100
AcDbEntity
  8
0
  6
CONTINUOUS
 62
     7
100
AcDbLine
 10
66.603238829
 20
309.4049947336
 30
0.0
 11
66.993238829
 21
309.6780756735
 31
0.0
  0
LINE
  5
348
330
1F
100
AcDbEntity
  8
0
  6
CONTINUOUS
 62
     7
100
AcDbLine
 10
66.993238829
 20
309.1319137937
 30
0.0
 11
66.603238829
 21
309.4049947336
 31
0.0
  0
LINE
  5
349
330
1F
100
AcDbEntity
  8
0
  6
CONTINUOUS
 62
     7
100
AcDbLine
 10
63.383238829
 20
309.4049947336
 30
0.0
 11
62.993238829
 21
309.1319137937
 31
0.0
  0
LINE
  5
34A
330
1F
100
AcDbEntity
  8
0
  6
CONTINUOUS
 62
     7
100
AcDbLine
 10
62.993238829
 20
309.1319137937
 30
0.0
 11
62.993238829
 21
308.9900321953
 31
0.0
  0
LINE
  5
34B
330
1F
100
AcDbEntity
  8
0
  6
CONTINUOUS
 62
     7
100
AcDbLine
 10
66.993238829
 20
308.9900321953
 30
0.0
 11
66.993238829
 21
309.1319137937
 31
0.0
  0
LINE
  5
34C
330
1F
100
AcDbEntity
  8
0
  6
CONTINUOUS
 62
     7
100
AcDbLine
 10
66.993238829
 20
308.4438703155
 30
0.0
 11
66.603238829
 21
308.7169512554
 31
0.0
  0
LINE
  5
34D
330
1F
100
AcDbEntity
  8
0
  6
CONTINUOUS
 62
     7
100
AcDbLine
 10
63.383238829
 20
308.7169512554
 30
0.0
 11
62.993238829
 21
308.4438703155
 31
0.0
  0
LINE
  5
34E
330
1F
100
AcDbEntity
  8
0
  6
CONTINUOUS
 62
     7
100
AcDbLine
 10
62.993238829
 20
308.9900321953
 30
0.0
 11
63.383238829
 21
308.7169512554
 31
0.0
  0
LINE
  5
34F
330
1F
100
AcDbEntity
  8
0
  6
CONTINUOUS
 62
     7
100
AcDbLine
 10
66.603238829
 20
308.7169512554
 30
0.0
 11
66.993238829
 21
308.9900321953
 31
0.0
  0
LINE
  5
350
330
1F
100
AcDbEntity
  8
0
  6
CONTINUOUS
 62
     7
100
AcDbLine
 10
66.993238829
 20
307.7558268372
 30
0.0
 11
66.603238829
 21
308.0289077771
 31
0.0
  0
LINE
  5
351
330
1F
100
AcDbEntity
  8
0
  6
CONTINUOUS
 62
     7
100
AcDbLine
 10
63.383238829
 20
308.0289077771
 30
0.0
 11
62.993238829
 21
307.7558268372
 31
0.0
  0
LINE
  5
352
330
1F
100
AcDbEntity
  8
0
  6
CONTINUOUS
 62
     7
100
AcDbLine
 10
62.993238829
 20
308.4438703155
 30
0.0
 11
62.993238829
 21
308.301988717
 31
0.0
  0
LINE
  5
353
330
1F
100
AcDbEntity
  8
0
  6
CONTINUOUS
 62
     7
100
AcDbLine
 10
66.993238829
 20
308.301988717
 30
0.0
 11
66.993238829
 21
308.4438703155
 31
0.0
  0
LINE
  5
354
330
1F
100
AcDbEntity
  8
0
  6
CONTINUOUS
 62
     7
100
AcDbLine
 10
62.993238829
 20
308.301988717
 30
0.0
 11
63.383238829
 21
308.0289077771
 31
0.0
  0
LINE
  5
355
330
1F
100
AcDbEntity
  8
0
  6
CONTINUOUS
 62
     7
100
AcDbLine
 10
66.603238829
 20
308.0289077771
 30
0.0
 11
66.993238829
 21
308.301988717
 31
0.0
  0
LINE
  5
356
330
1F
100
AcDbEntity
  8
0
  6
CONTINUOUS
 62
     7
100
AcDbLine
 10
62.993238829
 20
307.7558268372
 30
0.0
 11
62.993238829
 21
307.6139452388
 31
0.0
  0
LINE
  5
357
330
1F
100
AcDbEntity
  8
0
  6
CONTINUOUS
 62
     7
100
AcDbLine
 10
66.993238829
 20
307.6139452388
 30
0.0
 11
66.993238829
 21
307.7558268372
 31
0.0
  0
LINE
  5
358
330
1F
100
AcDbEntity
  8
0
  6
CONTINUOUS
 62
     7
100
AcDbLine
 10
62.993238829
 20
307.6139452388
 30
0.0
 11
63.383238829
 21
307.3408642989
 31
0.0
  0
LINE
  5
359
330
1F
100
AcDbEntity
  8
0
  6
CONTINUOUS
 62
     7
100
AcDbLine
 10
66.603238829
 20
307.3408642989
 30
0.0
 11
66.993238829
 21
307.6139452388
 31
0.0
  0
LINE
  5
35A
330
1F
100
AcDbEntity
  8
0
  6
CONTINUOUS
 62
     7
100
AcDbLine
 10
66.993238829
 20
307.067783359
 30
0.0
 11
66.603238829
 21
307.3408642989
 31
0.0
  0
LINE
  5
35B
330
1F
100
AcDbEntity
  8
0
  6
CONTINUOUS
 62
     7
100
AcDbLine
 10
63.383238829
 20
307.3408642989
 30
0.0
 11
62.993238829
 21
307.067783359
 31
0.0
  0
LINE
  5
35C
330
1F
100
AcDbEntity
  8
0
  6
CONTINUOUS
 62
     7
100
AcDbLine
 10
62.993238829
 20
307.067783359
 30
0.0
 11
62.993238829
 21
306.9259017605
 31
0.0
  0
LINE
  5
35D
330
1F
100
AcDbEntity
  8
0
  6
CONTINUOUS
 62
     7
100
AcDbLine
 10
66.993238829
 20
306.9259017605
 30
0.0
 11
66.993238829
 21
307.067783359
 31
0.0
  0
LINE
  5
35E
330
1F
100
AcDbEntity
  8
0
  6
CONTINUOUS
 62
     7
100
AcDbLine
 10
66.993238829
 20
306.3797398807
 30
0.0
 11
66.603238829
 21
306.6528208206
 31
0.0
  0
LINE
  5
35F
330
1F
100
AcDbEntity
  8
0
  6
CONTINUOUS
 62
     7
100
AcDbLine
 10
63.383238829
 20
306.6528208206
 30
0.0
 11
62.993238829
 21
306.3797398807
 31
0.0
  0
LINE
  5
360
330
1F
100
AcDbEntity
  8
0
  6
CONTINUOUS
 62
     7
100
AcDbLine
 10
62.993238829
 20
306.9259017605
 30
0.0
 11
63.383238829
 21
306.6528208206
 31
0.0
  0
LINE
  5
361
330
1F
100
AcDbEntity
  8
0
  6
CONTINUOUS
 62
     7
100
AcDbLine
 10
66.603238829
 20
306.6528208206
 30
0.0
 11
66.993238829
 21
306.9259017605
 31
0.0
  0
LINE
  5
362
330
1F
100
AcDbEntity
  8
0
  6
CONTINUOUS
 62
     7
100
AcDbLine
 10
62.993238829
 20
306.2378582822
 30
0.0
 11
63.383238829
 21
305.9647773423
 31
0.0
  0
LINE
  5
363
330
1F
100
AcDbEntity
  8
0
  6
CONTINUOUS
 62
     7
100
AcDbLine
 10
66.603238829
 20
305.9647773423
 30
0.0
 11
66.993238829
 21
306.2378582822
 31
0.0
  0
LINE
  5
364
330
1F
100
AcDbEntity
  8
0
  6
CONTINUOUS
 62
     7
100
AcDbLine
 10
62.993238829
 20
306.3797398807
 30
0.0
 11
62.993238829
 21
306.2378582822
 31
0.0
  0
LINE
  5
365
330
1F
100
AcDbEntity
  8
0
  6
CONTINUOUS
 62
     7
100
AcDbLine
 10
66.993238829
 20
306.2378582822
 30
0.0
 11
66.993238829
 21
306.3797398807
 31
0.0
  0
LINE
  5
366
330
1F
100
AcDbEntity
  8
0
  6
CONTINUOUS
 62
     7
100
AcDbLine
 10
62.993238829
 20
305.549814804
 30
0.0
 11
63.383238829
 21
305.2767338641
 31
0.0
  0
LINE
  5
367
330
1F
100
AcDbEntity
  8
0
  6
CONTINUOUS
 62
     7
100
AcDbLine
 10
66.603238829
 20
305.2767338641
 30
0.0
 11
66.993238829
 21
305.549814804
 31
0.0
  0
LINE
  5
368
330
1F
100
AcDbEntity
  8
0
  6
CONTINUOUS
 62
     7
100
AcDbLine
 10
66.993238829
 20
305.6916964024
 30
0.0
 11
66.603238829
 21
305.9647773423
 31
0.0
  0
LINE
  5
369
330
1F
100
AcDbEntity
  8
0
  6
CONTINUOUS
 62
     7
100
AcDbLine
 10
63.383238829
 20
305.9647773423
 30
0.0
 11
62.993238829
 21
305.6916964024
 31
0.0
  0
LINE
  5
36A
330
1F
100
AcDbEntity
  8
0
  6
CONTINUOUS
 62
     7
100
AcDbLine
 10
62.993238829
 20
305.6916964024
 30
0.0
 11
62.993238829
 21
305.549814804
 31
0.0
  0
LINE
  5
36B
330
1F
100
AcDbEntity
  8
0
  6
CONTINUOUS
 62
     7
100
AcDbLine
 10
66.993238829
 20
305.549814804
 30
0.0
 11
66.993238829
 21
305.6916964024
 31
0.0
  0
LINE
  5
36C
330
1F
100
AcDbEntity
  8
0
  6
CONTINUOUS
 62
     7
100
AcDbLine
 10
66.993238829
 20
305.0036529242
 30
0.0
 11
66.603238829
 21
305.2767338641
 31
0.0
  0
LINE
  5
36D
330
1F
100
AcDbEntity
  8
0
  6
CONTINUOUS
 62
     7
100
AcDbLine
 10
63.383238829
 20
305.2767338641
 30
0.0
 11
62.993238829
 21
305.0036529242
 31
0.0
  0
LINE
  5
36E
330
1F
100
AcDbEntity
  8
0
  6
CONTINUOUS
 62
     7
100
AcDbLine
 10
66.993238829
 20
304.3156094459
 30
0.0
 11
66.603238829
 21
304.5886903858
 31
0.0
  0
LINE
  5
36F
330
1F
100
AcDbEntity
  8
0
  6
CONTINUOUS
 62
     7
100
AcDbLine
 10
63.383238829
 20
304.5886903858
 30
0.0
 11
62.993238829
 21
304.3156094459
 31
0.0
  0
LINE
  5
370
330
1F
100
AcDbEntity
  8
0
  6
CONTINUOUS
 62
     7
100
AcDbLine
 10
62.993238829
 20
305.0036529242
 30
0.0
 11
62.993238829
 21
304.8617713257
 31
0.0
  0
LINE
  5
371
330
1F
100
AcDbEntity
  8
0
  6
CONTINUOUS
 62
     7
100
AcDbLine
 10
66.993238829
 20
304.8617713257
 30
0.0
 11
66.993238829
 21
305.0036529242
 31
0.0
  0
LINE
  5
372
330
1F
100
AcDbEntity
  8
0
  6
CONTINUOUS
 62
     7
100
AcDbLine
 10
62.993238829
 20
304.8617713257
 30
0.0
 11
63.383238829
 21
304.5886903858
 31
0.0
  0
LINE
  5
373
330
1F
100
AcDbEntity
  8
0
  6
CONTINUOUS
 62
     7
100
AcDbLine
 10
66.603238829
 20
304.5886903858
 30
0.0
 11
66.993238829
 21
304.8617713257
 31
0.0
  0
LINE
  5
374
330
1F
100
AcDbEntity
  8
0
  6
CONTINUOUS
 62
     7
100
AcDbLine
 10
62.993238829
 20
304.3156094459
 30
0.0
 11
62.993238829
 21
304.1737278475
 31
0.0
  0
LINE
  5
375
330
1F
100
AcDbEntity
  8
0
  6
CONTINUOUS
 62
     7
100
AcDbLine
 10
66.993238829
 20
304.1737278475
 30
0.0
 11
66.993238829
 21
304.3156094459
 31
0.0
  0
LINE
  5
376
330
1F
100
AcDbEntity
  8
0
  6
CONTINUOUS
 62
     7
100
AcDbLine
 10
62.993238829
 20
304.1737278475
 30
0.0
 11
63.383238829
 21
303.9006469076
 31
0.0
  0
LINE
  5
377
330
1F
100
AcDbEntity
  8
0
  6
CONTINUOUS
 62
     7
100
AcDbLine
 10
66.603238829
 20
303.9006469076
 30
0.0
 11
66.993238829
 21
304.1737278475
 31
0.0
  0
LINE
  5
378
330
1F
100
AcDbEntity
  8
0
  6
CONTINUOUS
 62
     7
100
AcDbLine
 10
66.993238829
 20
303.6275659677
 30
0.0
 11
66.603238829
 21
303.9006469076
 31
0.0
  0
LINE
  5
379
330
1F
100
AcDbEntity
  8
0
  6
CONTINUOUS
 62
     7
100
AcDbLine
 10
63.383238829
 20
303.9006469076
 30
0.0
 11
62.993238829
 21
303.6275659677
 31
0.0
  0
LINE
  5
37A
330
1F
100
AcDbEntity
  8
0
  6
CONTINUOUS
 62
     7
100
AcDbLine
 10
62.993238829
 20
303.6275659677
 30
0.0
 11
62.993238829
 21
303.4856843692
 31
0.0
  0
LINE
  5
37B
330
1F
100
AcDbEntity
  8
0
  6
CONTINUOUS
 62
     7
100
AcDbLine
 10
66.993238829
 20
303.4856843692
 30
0.0
 11
66.993238829
 21
303.6275659677
 31
0.0
  0
LINE
  5
37C
330
1F
100
AcDbEntity
  8
0
  6
CONTINUOUS
 62
     7
100
AcDbLine
 10
62.993238829
 20
303.4856843692
 30
0.0
 11
63.383238829
 21
303.2126034293
 31
0.0
  0
LINE
  5
37D
330
1F
100
AcDbEntity
  8
0
  6
CONTINUOUS
 62
     7
100
AcDbLine
 10
66.603238829
 20
303.2126034293
 30
0.0
 11
66.993238829
 21
303.4856843692
 31
0.0
  0
LINE
  5
37E
330
1F
100
AcDbEntity
  8
0
  6
CONTINUOUS
 62
     7
100
AcDbLine
 10
66.993238829
 20
302.9395224894
 30
0.0
 11
66.603238829
 21
303.2126034293
 31
0.0
  0
LINE
  5
37F
330
1F
100
AcDbEntity
  8
0
  6
CONTINUOUS
 62
     7
100
AcDbLine
 10
63.383238829
 20
303.2126034293
 30
0.0
 11
62.993238829
 21
302.9395224894
 31
0.0
  0
LINE
  5
380
330
1F
100
AcDbEntity
  8
0
  6
CONTINUOUS
 62
     7
100
AcDbLine
 10
62.993238829
 20
302.9395224894
 30
0.0
 11
62.993238829
 21
302.7976408909
 31
0.0
  0
LINE
  5
381
330
1F
100
AcDbEntity
  8
0
  6
CONTINUOUS
 62
     7
100
AcDbLine
 10
66.993238829
 20
302.7976408909
 30
0.0
 11
66.993238829
 21
302.9395224894
 31
0.0
  0
LINE
  5
382
330
1F
100
AcDbEntity
  8
0
  6
CONTINUOUS
 62
     7
100
AcDbLine
 10
62.993238829
 20
302.7976408909
 30
0.0
 11
63.383238829
 21
302.524559951
 31
0.0
  0
LINE
  5
383
330
1F
100
AcDbEntity
  8
0
  6
CONTINUOUS
 62
     7
100
AcDbLine
 10
66.603238829
 20
302.524559951
 30
0.0
 11
66.993238829
 21
302.7976408909
 31
0.0
  0
LINE
  5
384
330
1F
100
AcDbEntity
  8
0
  6
CONTINUOUS
 62
     7
100
AcDbLine
 10
62.993238829
 20
302.2514790111
 30
0.0
 11
62.993238829
 21
302.1095974127
 31
0.0
  0
LINE
  5
385
330
1F
100
AcDbEntity
  8
0
  6
CONTINUOUS
 62
     7
100
AcDbLine
 10
66.993238829
 20
302.1095974127
 30
0.0
 11
66.993238829
 21
302.2514790111
 31
0.0
  0
LINE
  5
386
330
1F
100
AcDbEntity
  8
0
  6
CONTINUOUS
 62
     7
100
AcDbLine
 10
66.993238829
 20
302.2514790111
 30
0.0
 11
66.603238829
 21
302.524559951
 31
0.0
  0
LINE
  5
387
330
1F
100
AcDbEntity
  8
0
  6
CONTINUOUS
 62
     7
100
AcDbLine
 10
63.383238829
 20
302.524559951
 30
0.0
 11
62.993238829
 21
302.2514790111
 31
0.0
  0
LINE
  5
388
330
1F
100
AcDbEntity
  8
0
  6
CONTINUOUS
 62
     7
100
AcDbLine
 10
62.993238829
 20
302.1095974127
 30
0.0
 11
63.383238829
 21
301.8365164728
 31
0.0
  0
LINE
  5
389
330
1F
100
AcDbEntity
  8
0
  6
CONTINUOUS
 62
     7
100
AcDbLine
 10
66.603238829
 20
301.8365164728
 30
0.0
 11
66.993238829
 21
302.1095974127
 31
0.0
  0
LINE
  5
38A
330
1F
100
AcDbEntity
  8
0
  6
CONTINUOUS
 62
     7
100
AcDbLine
 10
66.993238829
 20
301.5634355329
 30
0.0
 11
66.603238829
 21
301.8365164728
 31
0.0
  0
LINE
  5
38B
330
1F
100
AcDbEntity
  8
0
  6
CONTINUOUS
 62
     7
100
AcDbLine
 10
63.383238829
 20
301.8365164728
 30
0.0
 11
62.993238829
 21
301.5634355329
 31
0.0
  0
LINE
  5
38C
330
1F
100
AcDbEntity
  8
0
  6
CONTINUOUS
 62
     7
100
AcDbLine
 10
62.993238829
 20
301.5634355329
 30
0.0
 11
62.993238829
 21
301.4215539344
 31
0.0
  0
LINE
  5
38D
330
1F
100
AcDbEntity
  8
0
  6
CONTINUOUS
 62
     7
100
AcDbLine
 10
66.993238829
 20
301.4215539344
 30
0.0
 11
66.993238829
 21
301.5634355329
 31
0.0
  0
LINE
  5
38E
330
1F
100
AcDbEntity
  8
0
  6
CONTINUOUS
 62
     7
100
AcDbLine
 10
66.993238829
 20
300.8753920546
 30
0.0
 11
66.603238829
 21
301.1484729945
 31
0.0
  0
LINE
  5
38F
330
1F
100
AcDbEntity
  8
0
  6
CONTINUOUS
 62
     7
100
AcDbLine
 10
63.383238829
 20
301.1484729945
 30
0.0
 11
62.993238829
 21
300.8753920546
 31
0.0
  0
LINE
  5
390
330
1F
100
AcDbEntity
  8
0
  6
CONTINUOUS
 62
     7
100
AcDbLine
 10
62.993238829
 20
301.4215539344
 30
0.0
 11
63.383238829
 21
301.1484729945
 31
0.0
  0
LINE
  5
391
330
1F
100
AcDbEntity
  8
0
  6
CONTINUOUS
 62
     7
100
AcDbLine
 10
66.603238829
 20
301.1484729945
 30
0.0
 11
66.993238829
 21
301.4215539344
 31
0.0
  0
LINE
  5
392
330
1F
100
AcDbEntity
  8
0
  6
CONTINUOUS
 62
     7
100
AcDbLine
 10
62.993238829
 20
300.7335104562
 30
0.0
 11
63.383238829
 21
300.4604295163
 31
0.0
  0
LINE
  5
393
330
1F
100
AcDbEntity
  8
0
  6
CONTINUOUS
 62
     7
100
AcDbLine
 10
66.603238829
 20
300.4604295163
 30
0.0
 11
66.993238829
 21
300.7335104562
 31
0.0
  0
LINE
  5
394
330
1F
100
AcDbEntity
  8
0
  6
CONTINUOUS
 62
     7
100
AcDbLine
 10
62.993238829
 20
300.8753920546
 30
0.0
 11
62.993238829
 21
300.7335104562
 31
0.0
  0
LINE
  5
395
330
1F
100
AcDbEntity
  8
0
  6
CONTINUOUS
 62
     7
100
AcDbLine
 10
66.993238829
 20
300.7335104562
 30
0.0
 11
66.993238829
 21
300.8753920546
 31
0.0
  0
LINE
  5
396
330
1F
100
AcDbEntity
  8
0
  6
CONTINUOUS
 62
     7
100
AcDbLine
 10
62.993238829
 20
300.1873485763
 30
0.0
 11
62.993238829
 21
300.0454669779
 31
0.0
  0
LINE
  5
397
330
1F
100
AcDbEntity
  8
0
  6
CONTINUOUS
 62
     7
100
AcDbLine
 10
66.993238829
 20
300.0454669779
 30
0.0
 11
66.993238829
 21
300.1873485763
 31
0.0
  0
LINE
  5
398
330
1F
100
AcDbEntity
  8
0
  6
CONTINUOUS
 62
     7
100
AcDbLine
 10
62.993238829
 20
300.0454669779
 30
0.0
 11
63.383238829
 21
299.772386038
 31
0.0
  0
LINE
  5
399
330
1F
100
AcDbEntity
  8
0
  6
CONTINUOUS
 62
     7
100
AcDbLine
 10
66.603238829
 20
299.772386038
 30
0.0
 11
66.993238829
 21
300.0454669779
 31
0.0
  0
LINE
  5
39A
330
1F
100
AcDbEntity
  8
0
  6
CONTINUOUS
 62
     7
100
AcDbLine
 10
66.993238829
 20
300.1873485763
 30
0.0
 11
66.603238829
 21
300.4604295163
 31
0.0
  0
LINE
  5
39B
330
1F
100
AcDbEntity
  8
0
  6
CONTINUOUS
 62
     7
100
AcDbLine
 10
63.383238829
 20
300.4604295163
 30
0.0
 11
62.993238829
 21
300.1873485763
 31
0.0
  0
LINE
  5
39C
330
1F
100
AcDbEntity
  8
0
  6
CONTINUOUS
 62
     7
100
AcDbLine
 10
66.993238829
 20
299.4993050981
 30
0.0
 11
66.603238829
 21
299.772386038
 31
0.0
  0
LINE
  5
39D
330
1F
100
AcDbEntity
  8
0
  6
CONTINUOUS
 62
     7
100
AcDbLine
 10
63.383238829
 20
299.772386038
 30
0.0
 11
62.993238829
 21
299.4993050981
 31
0.0
  0
LINE
  5
39E
330
1F
100
AcDbEntity
  8
0
  6
CONTINUOUS
 62
     7
100
AcDbLine
 10
62.993238829
 20
299.3574234996
 30
0.0
 11
63.383238829
 21
299.0843425597
 31
0.0
  0
LINE
  5
39F
330
1F
100
AcDbEntity
  8
0
  6
CONTINUOUS
 62
     7
100
AcDbLine
 10
66.603238829
 20
299.0843425597
 30
0.0
 11
66.993238829
 21
299.3574234996
 31
0.0
  0
LINE
  5
3A0
330
1F
100
AcDbEntity
  8
0
  6
CONTINUOUS
 62
     7
100
AcDbLine
 10
62.993238829
 20
299.4993050981
 30
0.0
 11
62.993238829
 21
299.3574234996
 31
0.0
  0
LINE
  5
3A1
330
1F
100
AcDbEntity
  8
0
  6
CONTINUOUS
 62
     7
100
AcDbLine
 10
66.993238829
 20
299.3574234996
 30
0.0
 11
66.993238829
 21
299.4993050981
 31
0.0
  0
LINE
  5
3A2
330
1F
100
AcDbEntity
  8
0
  6
CONTINUOUS
 62
     7
100
AcDbLine
 10
62.993238829
 20
298.6693800214
 30
0.0
 11
63.383238829
 21
298.3962990815
 31
0.0
  0
LINE
  5
3A3
330
1F
100
AcDbEntity
  8
0
  6
CONTINUOUS
 62
     7
100
AcDbLine
 10
66.603238829
 20
298.3962990815
 30
0.0
 11
66.993238829
 21
298.6693800214
 31
0.0
  0
LINE
  5
3A4
330
1F
100
AcDbEntity
  8
0
  6
CONTINUOUS
 62
     7
100
AcDbLine
 10
66.993238829
 20
298.8112616198
 30
0.0
 11
66.603238829
 21
299.0843425597
 31
0.0
  0
LINE
  5
3A5
330
1F
100
AcDbEntity
  8
0
  6
CONTINUOUS
 62
     7
100
AcDbLine
 10
63.383238829
 20
299.0843425597
 30
0.0
 11
62.993238829
 21
298.8112616198
 31
0.0
  0
LINE
  5
3A6
330
1F
100
AcDbEntity
  8
0
  6
CONTINUOUS
 62
     7
100
AcDbLine
 10
62.993238829
 20
298.8112616198
 30
0.0
 11
62.993238829
 21
298.6693800214
 31
0.0
  0
LINE
  5
3A7
330
1F
100
AcDbEntity
  8
0
  6
CONTINUOUS
 62
     7
100
AcDbLine
 10
66.993238829
 20
298.6693800214
 30
0.0
 11
66.993238829
 21
298.8112616198
 31
0.0
  0
LINE
  5
3A8
330
1F
100
AcDbEntity
  8
0
  6
CONTINUOUS
 62
     7
100
AcDbLine
 10
62.993238829
 20
298.1232181416
 30
0.0
 11
62.993238829
 21
297.9813365431
 31
0.0
  0
LINE
  5
3A9
330
1F
100
AcDbEntity
  8
0
  6
CONTINUOUS
 62
     7
100
AcDbLine
 10
66.993238829
 20
297.9813365431
 30
0.0
 11
66.993238829
 21
298.1232181416
 31
0.0
  0
LINE
  5
3AA
330
1F
100
AcDbEntity
  8
0
  6
CONTINUOUS
 62
     7
100
AcDbLine
 10
66.993238829
 20
298.1232181416
 30
0.0
 11
66.603238829
 21
298.3962990815
 31
0.0
  0
LINE
  5
3AB
330
1F
100
AcDbEntity
  8
0
  6
CONTINUOUS
 62
     7
100
AcDbLine
 10
63.383238829
 20
298.3962990815
 30
0.0
 11
62.993238829
 21
298.1232181416
 31
0.0
  0
LINE
  5
3AC
330
1F
100
AcDbEntity
  8
0
  6
CONTINUOUS
 62
     7
100
AcDbLine
 10
62.993238829
 20
297.9813365431
 30
0.0
 11
63.383238829
 21
297.7082556032
 31
0.0
  0
LINE
  5
3AD
330
1F
100
AcDbEntity
  8
0
  6
CONTINUOUS
 62
     7
100
AcDbLine
 10
66.603238829
 20
297.7082556032
 30
0.0
 11
66.993238829
 21
297.9813365431
 31
0.0
  0
LINE
  5
3AE
330
1F
100
AcDbEntity
  8
0
  6
CONTINUOUS
 62
     7
100
AcDbLine
 10
62.993238829
 20
297.4351746633
 30
0.0
 11
62.993238829
 21
297.2932930648
 31
0.0
  0
LINE
  5
3AF
330
1F
100
AcDbEntity
  8
0
  6
CONTINUOUS
 62
     7
100
AcDbLine
 10
66.993238829
 20
297.2932930648
 30
0.0
 11
66.993238829
 21
297.4351746633
 31
0.0
  0
LINE
  5
3B0
330
1F
100
AcDbEntity
  8
0
  6
CONTINUOUS
 62
     7
100
AcDbLine
 10
62.993238829
 20
297.2932930648
 30
0.0
 11
63.383238829
 21
297.0202121249
 31
0.0
  0
LINE
  5
3B1
330
1F
100
AcDbEntity
  8
0
  6
CONTINUOUS
 62
     7
100
AcDbLine
 10
66.603238829
 20
297.0202121249
 30
0.0
 11
66.993238829
 21
297.2932930648
 31
0.0
  0
LINE
  5
3B2
330
1F
100
AcDbEntity
  8
0
  6
CONTINUOUS
 62
     7
100
AcDbLine
 10
66.993238829
 20
297.4351746633
 30
0.0
 11
66.603238829
 21
297.7082556032
 31
0.0
  0
LINE
  5
3B3
330
1F
100
AcDbEntity
  8
0
  6
CONTINUOUS
 62
     7
100
AcDbLine
 10
63.383238829
 20
297.7082556032
 30
0.0
 11
62.993238829
 21
297.4351746633
 31
0.0
  0
LINE
  5
3B4
330
1F
100
AcDbEntity
  8
0
  6
CONTINUOUS
 62
     7
100
AcDbLine
 10
62.993238829
 20
296.6052495866
 30
0.0
 11
63.0784570897
 21
296.545579118
 31
0.0
  0
LINE
  5
3B5
330
1F
100
AcDbEntity
  8
0
  6
CONTINUOUS
 62
     7
100
AcDbLine
 10
66.9080205683
 20
296.545579118
 30
0.0
 11
66.993238829
 21
296.6052495866
 31
0.0
  0
LINE
  5
3B6
330
1F
100
AcDbEntity
  8
0
  6
CONTINUOUS
 62
     7
100
AcDbLine
 10
62.993238829
 20
296.747131185
 30
0.0
 11
62.993238829
 21
296.6052495866
 31
0.0
  0
LINE
  5
3B7
330
1F
100
AcDbEntity
  8
0
  6
CONTINUOUS
 62
     7
100
AcDbLine
 10
66.993238829
 20
296.6052495866
 30
0.0
 11
66.993238829
 21
296.747131185
 31
0.0
  0
LINE
  5
3B8
330
1F
100
AcDbEntity
  8
0
  6
CONTINUOUS
 62
     7
100
AcDbLine
 10
66.993238829
 20
296.747131185
 30
0.0
 11
66.603238829
 21
297.0202121249
 31
0.0
  0
LINE
  5
3B9
330
1F
100
AcDbEntity
  8
0
  6
CONTINUOUS
 62
     7
100
AcDbLine
 10
63.383238829
 20
297.0202121249
 30
0.0
 11
62.993238829
 21
296.747131185
 31
0.0
  0
LINE
  5
3BA
330
1F
100
AcDbEntity
  8
0
  6
CONTINUOUS
 62
     7
100
AcDbLine
 10
90.493238829
 20
315.7017348641
 30
0.0
 11
90.493238829
 21
321.4517348641
 31
0.0
  0
LINE
  5
3BB
330
1F
100
AcDbEntity
  8
0
  6
CONTINUOUS
 62
     7
100
AcDbLine
 10
77.493238829
 20
321.4517348641
 30
0.0
 11
77.493238829
 21
315.7017348641
 31
0.0
  0
LINE
  5
3BC
330
1F
100
AcDbEntity
  8
0
  6
CONTINUOUS
 62
     7
100
AcDbLine
 10
77.493238829
 20
315.7017348641
 30
0.0
 11
77.743238829
 21
315.4517348641
 31
0.0
  0
LINE
  5
3BD
330
1F
100
AcDbEntity
  8
0
  6
CONTINUOUS
 62
     7
100
AcDbLine
 10
90.243238829
 20
315.4517348641
 30
0.0
 11
90.493238829
 21
315.7017348641
 31
0.0
  0
LINE
  5
3BE
330
1F
100
AcDbEntity
  8
0
  6
CONTINUOUS
 62
     7
100
AcDbLine
 10
77.493238829
 20
289.295579118
 30
0.0
 11
77.493238829
 21
283.545579118
 31
0.0
  0
LINE
  5
3BF
330
1F
100
AcDbEntity
  8
0
  6
CONTINUOUS
 62
     7
100
AcDbLine
 10
90.493238829
 20
283.545579118
 30
0.0
 11
90.493238829
 21
289.295579118
 31
0.0
  0
LINE
  5
3C0
330
1F
100
AcDbEntity
  8
0
  6
CONTINUOUS
 62
     7
100
AcDbLine
 10
90.493238829
 20
289.295579118
 30
0.0
 11
90.243238829
 21
289.545579118
 31
0.0
  0
LINE
  5
3C1
330
1F
100
AcDbEntity
  8
0
  6
CONTINUOUS
 62
     7
100
AcDbLine
 10
77.743238829
 20
289.545579118
 30
0.0
 11
77.493238829
 21
289.295579118
 31
0.0
  0
LINE
  5
3C2
330
1F
100
AcDbEntity
  8
0
  6
CONTINUOUS
 62
     7
100
AcDbLine
 10
89.993238829
 20
324.4517348641
 30
0.0
 11
89.993238829
 21
325.4517348641
 31
0.0
  0
LINE
  5
3C3
330
1F
100
AcDbEntity
  8
0
  6
CONTINUOUS
 62
     7
100
AcDbLine
 10
77.993238829
 20
325.4517348641
 30
0.0
 11
77.993238829
 21
324.4517348641
 31
0.0
  0
LINE
  5
3C4
330
1F
100
AcDbEntity
  8
0
  6
CONTINUOUS
 62
     7
100
AcDbLine
 10
77.993238829
 20
280.545579118
 30
0.0
 11
77.993238829
 21
279.545579118
 31
0.0
  0
LINE
  5
3C5
330
1F
100
AcDbEntity
  8
0
  6
CONTINUOUS
 62
     7
100
AcDbLine
 10
89.993238829
 20
279.545579118
 30
0.0
 11
89.993238829
 21
280.545579118
 31
0.0
  0
LINE
  5
3C6
330
1F
100
AcDbEntity
  8
0
  6
CONTINUOUS
 62
     7
100
AcDbLine
 10
96.7752257841
 20
273.4948309611
 30
0.0
 11
96.9082641975
 21
273.8534264704
 31
0.0
  0
LWPOLYLINE
  5
3C7
330
1F
100
AcDbEntity
  8
0
  6
CONTINUOUS
 62
     7
100
AcDbPolyline
 90
        3
 70
   128
 43
0.0
 10
96.9086955274
 20
268.2370094464
 10
96.8421709628
 20
268.4163526562
 10
96.7756463866
 20
268.5956959588
  0
LWPOLYLINE
  5
3C8
330
1F
100
AcDbEntity
  8
0
  6
CONTINUOUS
 62
     7
100
AcDbPolyline
 90
        3
 70
   128
 43
0.0
 10
96.7756463866
 20
273.4954622773
 10
96.8421709628
 20
273.6748055799
 10
96.9086955274
 20
273.8541487897
  0
LINE
  5
3C9
330
1F
100
AcDbEntity
  8
0
  6
CONTINUOUS
 62
     7
100
AcDbLine
 10
96.7752257841
 20
336.4009867071
 30
0.0
 11
96.9082641975
 21
336.7595822165
 31
0.0
  0
LWPOLYLINE
  5
3CA
330
1F
100
AcDbEntity
  8
0
  6
CONTINUOUS
 62
     7
100
AcDbPolyline
 90
        3
 70
   128
 43
0.0
 10
96.9086955274
 20
331.1431651924
 10
96.8421709628
 20
331.3225084023
 10
96.7756463866
 20
331.5018517048
  0
LWPOLYLINE
  5
3CB
330
1F
100
AcDbEntity
  8
0
  6
CONTINUOUS
 62
     7
100
AcDbPolyline
 90
        3
 70
   128
 43
0.0
 10
96.7756463866
 20
336.4016180233
 10
96.8421709628
 20
336.5809613259
 10
96.9086955274
 20
336.7603045357
  0
ARC
  5
3CC
330
1F
100
AcDbEntity
  8
0
  6
CONTINUOUS
 62
     7
100
AcDbCircle
 10
77.193238829
 20
324.7017348641
 30
0.0
 40
0.25
100
AcDbArc
 50
180.0
 51
270.0
  0
ARC
  5
3CD
330
1F
100
AcDbEntity
  8
0
  6
CONTINUOUS
 62
     7
100
AcDbCircle
 10
90.793238829
 20
324.7017348641
 30
0.0
 40
0.25
100
AcDbArc
 50
270.0
 51
0.0
  0
LINE
  5
3CE
330
1F
100
AcDbEntity
  8
0
  6
CONTINUOUS
 62
     7
100
AcDbLine
 10
76.943238829
 20
325.4517348641
 30
0.0
 11
76.943238829
 21
324.7017348641
 31
0.0
  0
LINE
  5
3CF
330
1F
100
AcDbEntity
  8
0
  6
CONTINUOUS
 62
     7
100
AcDbLine
 10
91.043238829
 20
325.4517348641
 30
0.0
 11
91.043238829
 21
324.7017348641
 31
0.0
  0
LINE
  5
3D0
330
1F
100
AcDbEntity
  8
0
  6
CONTINUOUS
 62
     7
100
AcDbLine
 10
91.043238829
 20
279.545579118
 30
0.0
 11
91.043238829
 21
280.295579118
 31
0.0
  0
LINE
  5
3D1
330
1F
100
AcDbEntity
  8
0
  6
CONTINUOUS
 62
     7
100
AcDbLine
 10
76.943238829
 20
279.545579118
 30
0.0
 11
76.943238829
 21
280.295579118
 31
0.0
  0
ARC
  5
3D2
330
1F
100
AcDbEntity
  8
0
  6
CONTINUOUS
 62
     7
100
AcDbCircle
 10
90.793238829
 20
280.295579118
 30
0.0
 40
0.25
100
AcDbArc
 50
0.0
 51
90.0
  0
ARC
  5
3D3
330
1F
100
AcDbEntity
  8
0
  6
CONTINUOUS
 62
     7
100
AcDbCircle
 10
77.193238829
 20
280.295579118
 30
0.0
 40
0.25
100
AcDbArc
 50
90.0
 51
180.0
  0
LINE
  5
3D4
330
1F
100
AcDbEntity
  8
0
  6
CONTINUOUS
 62
     7
100
AcDbLine
 10
63.993238829
 20
324.4517348641
 30
0.0
 11
63.993238829
 21
321.4517348641
 31
0.0
  0
LINE
  5
3D5
330
1F
100
AcDbEntity
  8
0
  6
CONTINUOUS
 62
     7
100
AcDbLine
 10
91.993238829
 20
324.4517348641
 30
0.0
 11
63.993238829
 21
324.4517348641
 31
0.0
  0
LINE
  5
3D6
330
1F
100
AcDbEntity
  8
0
  6
CONTINUOUS
 62
     7
100
AcDbLine
 10
91.993238829
 20
321.4517348641
 30
0.0
 11
91.993238829
 21
324.4517348641
 31
0.0
  0
LINE
  5
3D7
330
1F
100
AcDbEntity
  8
0
  6
CONTINUOUS
 62
     7
100
AcDbLine
 10
91.993238829
 20
321.4517348641
 30
0.0
 11
63.993238829
 21
321.4517348641
 31
0.0
  0
LINE
  5
3D8
330
1F
100
AcDbEntity
  8
0
  6
CONTINUOUS
 62
     7
100
AcDbLine
 10
58.993238829
 20
321.4517348641
 30
0.0
 11
58.993238829
 21
324.4517348641
 31
0.0
  0
LINE
  5
3D9
330
1F
100
AcDbEntity
  8
0
  6
CONTINUOUS
 62
     7
100
AcDbLine
 10
58.993238829
 20
324.4517348641
 30
0.0
 11
63.993238829
 21
324.4517348641
 31
0.0
  0
LINE
  5
3DA
330
1F
100
AcDbEntity
  8
0
  6
CONTINUOUS
 62
     7
100
AcDbLine
 10
63.993238829
 20
321.4517348641
 30
0.0
 11
58.993238829
 21
321.4517348641
 31
0.0
  0
LINE
  5
3DB
330
1F
100
AcDbEntity
  8
0
  6
CONTINUOUS
 62
     7
100
AcDbLine
 10
96.993238829
 20
324.4517348641
 30
0.0
 11
96.993238829
 21
321.4517348641
 31
0.0
  0
LINE
  5
3DC
330
1F
100
AcDbEntity
  8
0
  6
CONTINUOUS
 62
     7
100
AcDbLine
 10
96.993238829
 20
321.4517348641
 30
0.0
 11
91.993238829
 21
321.4517348641
 31
0.0
  0
LINE
  5
3DD
330
1F
100
AcDbEntity
  8
0
  6
CONTINUOUS
 62
     7
100
AcDbLine
 10
91.993238829
 20
324.4517348641
 30
0.0
 11
96.993238829
 21
324.4517348641
 31
0.0
  0
LINE
  5
3DE
330
1F
100
AcDbEntity
  8
0
  6
CONTINUOUS
 62
     7
100
AcDbLine
 10
91.993238829
 20
280.545579118
 30
0.0
 11
91.993238829
 21
283.545579118
 31
0.0
  0
LINE
  5
3DF
330
1F
100
AcDbEntity
  8
0
  6
CONTINUOUS
 62
     7
100
AcDbLine
 10
91.993238829
 20
283.545579118
 30
0.0
 11
96.993238829
 21
283.545579118
 31
0.0
  0
LINE
  5
3E0
330
1F
100
AcDbEntity
  8
0
  6
CONTINUOUS
 62
     7
100
AcDbLine
 10
96.993238829
 20
283.545579118
 30
0.0
 11
96.993238829
 21
280.545579118
 31
0.0
  0
LINE
  5
3E1
330
1F
100
AcDbEntity
  8
0
  6
CONTINUOUS
 62
     7
100
AcDbLine
 10
96.993238829
 20
280.545579118
 30
0.0
 11
91.993238829
 21
280.545579118
 31
0.0
  0
LINE
  5
3E2
330
1F
100
AcDbEntity
  8
0
  6
CONTINUOUS
 62
     7
100
AcDbLine
 10
58.993238829
 20
280.545579118
 30
0.0
 11
58.993238829
 21
283.545579118
 31
0.0
  0
LINE
  5
3E3
330
1F
100
AcDbEntity
  8
0
  6
CONTINUOUS
 62
     7
100
AcDbLine
 10
58.993238829
 20
283.545579118
 30
0.0
 11
63.993238829
 21
283.545579118
 31
0.0
  0
LINE
  5
3E4
330
1F
100
AcDbEntity
  8
0
  6
CONTINUOUS
 62
     7
100
AcDbLine
 10
63.993238829
 20
283.545579118
 30
0.0
 11
63.993238829
 21
280.545579118
 31
0.0
  0
LINE
  5
3E5
330
1F
100
AcDbEntity
  8
0
  6
CONTINUOUS
 62
     7
100
AcDbLine
 10
63.993238829
 20
280.545579118
 30
0.0
 11
58.993238829
 21
280.545579118
 31
0.0
  0
LINE
  5
3E6
330
1F
100
AcDbEntity
  8
0
  6
CONTINUOUS
 62
     7
100
AcDbLine
 10
91.993238829
 20
280.545579118
 30
0.0
 11
63.993238829
 21
280.545579118
 31
0.0
  0
LINE
  5
3E7
330
1F
100
AcDbEntity
  8
0
  6
CONTINUOUS
 62
     7
100
AcDbLine
 10
91.993238829
 20
283.545579118
 30
0.0
 11
63.993238829
 21
283.545579118
 31
0.0
  0
LINE
  5
3E8
330
1F
100
AcDbEntity
  8
0
  6
CONTINUOUS
 62
     7
100
AcDbLine
 10
66.8108859065
 20
296.495579118
 30
0.0
 11
62.0200253213
 21
296.495579118
 31
0.0
  0
LINE
  5
3E9
330
1F
100
AcDbEntity
  8
0
  6
CONTINUOUS
 62
     7
100
AcDbLine
 10
62.0695788797
 20
296.545579118
 30
0.0
 11
66.7805917886
 21
296.545579118
 31
0.0
  0
LWPOLYLINE
  5
3EA
330
1F
100
AcDbEntity
  8
0
  6
CONTINUOUS
 62
     7
100
AcDbPolyline
 90
        9
 70
   128
 43
0.0
 10
66.7805917886
 20
296.545579118
 10
66.7865018778
 20
296.5446183821
 10
66.7921848456
 20
296.5417730947
 10
66.7974222988
 20
296.5371525987
 10
66.8020129648
 20
296.5309344571
 10
66.8057804271
 20
296.5233576297
 10
66.8085799041
 20
296.5147132897
 10
66.8103038136
 20
296.5053336341
 10
66.8108859065
 20
296.495579118
  0
ARC
  5
3EB
330
1F
100
AcDbEntity
  8
0
  6
CONTINUOUS
 62
     7
100
AcDbCircle
 10
62.069803106
 20
296.4958013423
 30
0.0
 40
0.0497782807975061
100
AcDbArc
 50
90.258089748
 51
180.255785293
  0
ARC
  5
3EC
330
1F
100
AcDbEntity
  8
0
  6
CONTINUOUS
 62
     7
100
AcDbCircle
 10
66.7786062672
 20
296.4974131998
 30
0.0
 40
0.0482068249639612
100
AcDbArc
 50
357.819592684
 51
87.6394589906
  0
LINE
  5
3ED
330
1F
100
AcDbEntity
  8
0
  6
CONTINUOUS
 62
     7
100
AcDbLine
 10
66.8108859065
 20
296.495579118
 30
0.0
 11
66.8267781897
 21
296.495579118
 31
0.0
  0
LINE
  5
3EE
330
1F
100
AcDbEntity
  8
0
  6
CONTINUOUS
 62
     7
100
AcDbLine
 10
67.9630851793
 20
296.495579118
 30
0.0
 11
66.8267781897
 21
296.495579118
 31
0.0
  0
ARC
  5
3EF
330
1F
100
AcDbEntity
  8
0
  6
CONTINUOUS
 62
     7
100
AcDbCircle
 10
67.9149132568
 20
296.4974131998
 30
0.0
 40
0.0482068249639612
100
AcDbArc
 50
357.819592684
 51
87.6394589906
  0
LINE
  5
3F0
330
1F
100
AcDbEntity
  8
0
  6
CONTINUOUS
 62
     7
100
AcDbLine
 10
66.7805917886
 20
296.545579118
 30
0.0
 11
67.9168987782
 21
296.545579118
 31
0.0
  0
LINE
  5
3F1
330
1F
100
AcDbEntity
  8
0
  6
CONTINUOUS
 62
     7
100
AcDbLine
 10
62.993238829
 20
321.374814804
 30
0.0
 11
66.993238829
 21
321.374814804
 31
0.0
  0
LINE
  5
3F2
330
1F
100
AcDbEntity
  8
0
  6
CONTINUOUS
 62
     7
100
AcDbLine
 10
63.383238829
 20
321.1017338641
 30
0.0
 11
66.603238829
 21
321.1017338641
 31
0.0
  0
LINE
  5
3F3
330
1F
100
AcDbEntity
  8
0
  6
CONTINUOUS
 62
     7
100
AcDbLine
 10
62.993238829
 20
320.8286529242
 30
0.0
 11
66.993238829
 21
320.8286529242
 31
0.0
  0
LINE
  5
3F4
330
1F
100
AcDbEntity
  8
0
  6
CONTINUOUS
 62
     7
100
AcDbLine
 10
63.383238829
 20
320.4136903858
 30
0.0
 11
66.603238829
 21
320.4136903858
 31
0.0
  0
LINE
  5
3F5
330
1F
100
AcDbEntity
  8
0
  6
CONTINUOUS
 62
     7
100
AcDbLine
 10
62.993238829
 20
320.6867713257
 30
0.0
 11
66.993238829
 21
320.6867713257
 31
0.0
  0
LINE
  5
3F6
330
1F
100
AcDbEntity
  8
0
  6
CONTINUOUS
 62
     7
100
AcDbLine
 10
62.993238829
 20
320.1406094459
 30
0.0
 11
66.993238829
 21
320.1406094459
 31
0.0
  0
LINE
  5
3F7
330
1F
100
AcDbEntity
  8
0
  6
CONTINUOUS
 62
     7
100
AcDbLine
 10
62.993238829
 20
319.9987278475
 30
0.0
 11
66.993238829
 21
319.9987278475
 31
0.0
  0
LINE
  5
3F8
330
1F
100
AcDbEntity
  8
0
  6
CONTINUOUS
 62
     7
100
AcDbLine
 10
63.383238829
 20
319.7256469076
 30
0.0
 11
66.603238829
 21
319.7256469076
 31
0.0
  0
LINE
  5
3F9
330
1F
100
AcDbEntity
  8
0
  6
CONTINUOUS
 62
     7
100
AcDbLine
 10
62.993238829
 20
319.4525659677
 30
0.0
 11
66.993238829
 21
319.4525659677
 31
0.0
  0
LINE
  5
3FA
330
1F
100
AcDbEntity
  8
0
  6
CONTINUOUS
 62
     7
100
AcDbLine
 10
62.993238829
 20
319.3106843692
 30
0.0
 11
66.993238829
 21
319.3106843692
 31
0.0
  0
LINE
  5
3FB
330
1F
100
AcDbEntity
  8
0
  6
CONTINUOUS
 62
     7
100
AcDbLine
 10
63.383238829
 20
319.0376034293
 30
0.0
 11
66.603238829
 21
319.0376034293
 31
0.0
  0
LINE
  5
3FC
330
1F
100
AcDbEntity
  8
0
  6
CONTINUOUS
 62
     7
100
AcDbLine
 10
62.993238829
 20
318.7645224894
 30
0.0
 11
66.993238829
 21
318.7645224894
 31
0.0
  0
LINE
  5
3FD
330
1F
100
AcDbEntity
  8
0
  6
CONTINUOUS
 62
     7
100
AcDbLine
 10
62.993238829
 20
318.6226408909
 30
0.0
 11
66.993238829
 21
318.6226408909
 31
0.0
  0
LINE
  5
3FE
330
1F
100
AcDbEntity
  8
0
  6
CONTINUOUS
 62
     7
100
AcDbLine
 10
63.383238829
 20
318.349559951
 30
0.0
 11
66.603238829
 21
318.349559951
 31
0.0
  0
LINE
  5
3FF
330
1F
100
AcDbEntity
  8
0
  6
CONTINUOUS
 62
     7
100
AcDbLine
 10
62.993238829
 20
318.0764790111
 30
0.0
 11
66.993238829
 21
318.0764790111
 31
0.0
  0
LINE
  5
400
330
1F
100
AcDbEntity
  8
0
  6
CONTINUOUS
 62
     7
100
AcDbLine
 10
62.993238829
 20
317.9345974127
 30
0.0
 11
66.993238829
 21
317.9345974127
 31
0.0
  0
LINE
  5
401
330
1F
100
AcDbEntity
  8
0
  6
CONTINUOUS
 62
     7
100
AcDbLine
 10
63.383238829
 20
317.6615164728
 30
0.0
 11
66.603238829
 21
317.6615164728
 31
0.0
  0
LINE
  5
402
330
1F
100
AcDbEntity
  8
0
  6
CONTINUOUS
 62
     7
100
AcDbLine
 10
62.993238829
 20
317.3884355329
 30
0.0
 11
66.993238829
 21
317.3884355329
 31
0.0
  0
LINE
  5
403
330
1F
100
AcDbEntity
  8
0
  6
CONTINUOUS
 62
     7
100
AcDbLine
 10
62.993238829
 20
317.2465539344
 30
0.0
 11
66.993238829
 21
317.2465539344
 31
0.0
  0
LINE
  5
404
330
1F
100
AcDbEntity
  8
0
  6
CONTINUOUS
 62
     7
100
AcDbLine
 10
63.383238829
 20
316.9734729945
 30
0.0
 11
66.603238829
 21
316.9734729945
 31
0.0
  0
LINE
  5
405
330
1F
100
AcDbEntity
  8
0
  6
CONTINUOUS
 62
     7
100
AcDbLine
 10
62.993238829
 20
316.7003920546
 30
0.0
 11
66.993238829
 21
316.7003920546
 31
0.0
  0
LINE
  5
406
330
1F
100
AcDbEntity
  8
0
  6
CONTINUOUS
 62
     7
100
AcDbLine
 10
62.993238829
 20
316.5585104562
 30
0.0
 11
66.993238829
 21
316.5585104562
 31
0.0
  0
LINE
  5
407
330
1F
100
AcDbEntity
  8
0
  6
CONTINUOUS
 62
     7
100
AcDbLine
 10
63.383238829
 20
316.2854295163
 30
0.0
 11
66.603238829
 21
316.2854295163
 31
0.0
  0
LINE
  5
408
330
1F
100
AcDbEntity
  8
0
  6
CONTINUOUS
 62
     7
100
AcDbLine
 10
62.993238829
 20
316.0123485763
 30
0.0
 11
66.993238829
 21
316.0123485763
 31
0.0
  0
LINE
  5
409
330
1F
100
AcDbEntity
  8
0
  6
CONTINUOUS
 62
     7
100
AcDbLine
 10
62.993238829
 20
315.8704669779
 30
0.0
 11
66.993238829
 21
315.8704669779
 31
0.0
  0
LINE
  5
40A
330
1F
100
AcDbEntity
  8
0
  6
CONTINUOUS
 62
     7
100
AcDbLine
 10
63.383238829
 20
315.597386038
 30
0.0
 11
66.603238829
 21
315.597386038
 31
0.0
  0
LINE
  5
40B
330
1F
100
AcDbEntity
  8
0
  6
CONTINUOUS
 62
     7
100
AcDbLine
 10
62.993238829
 20
315.3243050981
 30
0.0
 11
66.993238829
 21
315.3243050981
 31
0.0
  0
LINE
  5
40C
330
1F
100
AcDbEntity
  8
0
  6
CONTINUOUS
 62
     7
100
AcDbLine
 10
62.993238829
 20
315.1824234996
 30
0.0
 11
66.993238829
 21
315.1824234996
 31
0.0
  0
LINE
  5
40D
330
1F
100
AcDbEntity
  8
0
  6
CONTINUOUS
 62
     7
100
AcDbLine
 10
63.383238829
 20
314.9093425597
 30
0.0
 11
66.603238829
 21
314.9093425597
 31
0.0
  0
LINE
  5
40E
330
1F
100
AcDbEntity
  8
0
  6
CONTINUOUS
 62
     7
100
AcDbLine
 10
62.993238829
 20
314.6362616198
 30
0.0
 11
66.993238829
 21
314.6362616198
 31
0.0
  0
LINE
  5
40F
330
1F
100
AcDbEntity
  8
0
  6
CONTINUOUS
 62
     7
100
AcDbLine
 10
63.383238829
 20
314.2212990815
 30
0.0
 11
66.603238829
 21
314.2212990815
 31
0.0
  0
LINE
  5
410
330
1F
100
AcDbEntity
  8
0
  6
CONTINUOUS
 62
     7
100
AcDbLine
 10
62.993238829
 20
314.4943800214
 30
0.0
 11
66.993238829
 21
314.4943800214
 31
0.0
  0
LINE
  5
411
330
1F
100
AcDbEntity
  8
0
  6
CONTINUOUS
 62
     7
100
AcDbLine
 10
62.993238829
 20
313.9482181416
 30
0.0
 11
66.993238829
 21
313.9482181416
 31
0.0
  0
LINE
  5
412
330
1F
100
AcDbEntity
  8
0
  6
CONTINUOUS
 62
     7
100
AcDbLine
 10
63.383238829
 20
313.5332556032
 30
0.0
 11
66.603238829
 21
313.5332556032
 31
0.0
  0
LINE
  5
413
330
1F
100
AcDbEntity
  8
0
  6
CONTINUOUS
 62
     7
100
AcDbLine
 10
62.993238829
 20
313.8063365431
 30
0.0
 11
66.993238829
 21
313.8063365431
 31
0.0
  0
LINE
  5
414
330
1F
100
AcDbEntity
  8
0
  6
CONTINUOUS
 62
     7
100
AcDbLine
 10
62.993238829
 20
313.2601746633
 30
0.0
 11
66.993238829
 21
313.2601746633
 31
0.0
  0
LINE
  5
415
330
1F
100
AcDbEntity
  8
0
  6
CONTINUOUS
 62
     7
100
AcDbLine
 10
63.383238829
 20
312.8452121249
 30
0.0
 11
66.603238829
 21
312.8452121249
 31
0.0
  0
LINE
  5
416
330
1F
100
AcDbEntity
  8
0
  6
CONTINUOUS
 62
     7
100
AcDbLine
 10
62.993238829
 20
313.1182930648
 30
0.0
 11
66.993238829
 21
313.1182930648
 31
0.0
  0
LINE
  5
417
330
1F
100
AcDbEntity
  8
0
  6
CONTINUOUS
 62
     7
100
AcDbLine
 10
62.993238829
 20
312.572131185
 30
0.0
 11
66.993238829
 21
312.572131185
 31
0.0
  0
LINE
  5
418
330
1F
100
AcDbEntity
  8
0
  6
CONTINUOUS
 62
     7
100
AcDbLine
 10
62.993238829
 20
312.4302495866
 30
0.0
 11
66.993238829
 21
312.4302495866
 31
0.0
  0
LINE
  5
419
330
1F
100
AcDbEntity
  8
0
  6
CONTINUOUS
 62
     7
100
AcDbLine
 10
62.993238829
 20
311.8840877068
 30
0.0
 11
66.993238829
 21
311.8840877068
 31
0.0
  0
LINE
  5
41A
330
1F
100
AcDbEntity
  8
0
  6
CONTINUOUS
 62
     7
100
AcDbLine
 10
63.383238829
 20
312.1571686467
 30
0.0
 11
66.603238829
 21
312.1571686467
 31
0.0
  0
LINE
  5
41B
330
1F
100
AcDbEntity
  8
0
  6
CONTINUOUS
 62
     7
100
AcDbLine
 10
62.993238829
 20
311.7422061083
 30
0.0
 11
66.993238829
 21
311.7422061083
 31
0.0
  0
LINE
  5
41C
330
1F
100
AcDbEntity
  8
0
  6
CONTINUOUS
 62
     7
100
AcDbLine
 10
63.383238829
 20
311.4691251684
 30
0.0
 11
66.603238829
 21
311.4691251684
 31
0.0
  0
LINE
  5
41D
330
1F
100
AcDbEntity
  8
0
  6
CONTINUOUS
 62
     7
100
AcDbLine
 10
62.993238829
 20
311.1960442285
 30
0.0
 11
66.993238829
 21
311.1960442285
 31
0.0
  0
LINE
  5
41E
330
1F
100
AcDbEntity
  8
0
  6
CONTINUOUS
 62
     7
100
AcDbLine
 10
62.993238829
 20
311.0541626301
 30
0.0
 11
66.993238829
 21
311.0541626301
 31
0.0
  0
LINE
  5
41F
330
1F
100
AcDbEntity
  8
0
  6
CONTINUOUS
 62
     7
100
AcDbLine
 10
63.383238829
 20
310.7810816902
 30
0.0
 11
66.603238829
 21
310.7810816902
 31
0.0
  0
LINE
  5
420
330
1F
100
AcDbEntity
  8
0
  6
CONTINUOUS
 62
     7
100
AcDbLine
 10
62.993238829
 20
310.5080007503
 30
0.0
 11
66.993238829
 21
310.5080007503
 31
0.0
  0
LINE
  5
421
330
1F
100
AcDbEntity
  8
0
  6
CONTINUOUS
 62
     7
100
AcDbLine
 10
62.993238829
 20
310.3661191518
 30
0.0
 11
66.993238829
 21
310.3661191518
 31
0.0
  0
LINE
  5
422
330
1F
100
AcDbEntity
  8
0
  6
CONTINUOUS
 62
     7
100
AcDbLine
 10
63.383238829
 20
310.0930382119
 30
0.0
 11
66.603238829
 21
310.0930382119
 31
0.0
  0
LINE
  5
423
330
1F
100
AcDbEntity
  8
0
  6
CONTINUOUS
 62
     7
100
AcDbLine
 10
62.993238829
 20
309.819957272
 30
0.0
 11
66.993238829
 21
309.819957272
 31
0.0
  0
LINE
  5
424
330
1F
100
AcDbEntity
  8
0
  6
CONTINUOUS
 62
     7
100
AcDbLine
 10
62.993238829
 20
309.6780756735
 30
0.0
 11
66.993238829
 21
309.6780756735
 31
0.0
  0
LINE
  5
425
330
1F
100
AcDbEntity
  8
0
  6
CONTINUOUS
 62
     7
100
AcDbLine
 10
63.383238829
 20
309.4049947336
 30
0.0
 11
66.603238829
 21
309.4049947336
 31
0.0
  0
LINE
  5
426
330
1F
100
AcDbEntity
  8
0
  6
CONTINUOUS
 62
     7
100
AcDbLine
 10
62.993238829
 20
309.1319137937
 30
0.0
 11
66.993238829
 21
309.1319137937
 31
0.0
  0
LINE
  5
427
330
1F
100
AcDbEntity
  8
0
  6
CONTINUOUS
 62
     7
100
AcDbLine
 10
62.993238829
 20
308.9900321953
 30
0.0
 11
66.993238829
 21
308.9900321953
 31
0.0
  0
LINE
  5
428
330
1F
100
AcDbEntity
  8
0
  6
CONTINUOUS
 62
     7
100
AcDbLine
 10
62.993238829
 20
308.4438703155
 30
0.0
 11
66.993238829
 21
308.4438703155
 31
0.0
  0
LINE
  5
429
330
1F
100
AcDbEntity
  8
0
  6
CONTINUOUS
 62
     7
100
AcDbLine
 10
63.383238829
 20
308.7169512554
 30
0.0
 11
66.603238829
 21
308.7169512554
 31
0.0
  0
LINE
  5
42A
330
1F
100
AcDbEntity
  8
0
  6
CONTINUOUS
 62
     7
100
AcDbLine
 10
62.993238829
 20
307.7558268372
 30
0.0
 11
66.993238829
 21
307.7558268372
 31
0.0
  0
LINE
  5
42B
330
1F
100
AcDbEntity
  8
0
  6
CONTINUOUS
 62
     7
100
AcDbLine
 10
63.383238829
 20
308.0289077771
 30
0.0
 11
66.603238829
 21
308.0289077771
 31
0.0
  0
LINE
  5
42C
330
1F
100
AcDbEntity
  8
0
  6
CONTINUOUS
 62
     7
100
AcDbLine
 10
62.993238829
 20
308.301988717
 30
0.0
 11
66.993238829
 21
308.301988717
 31
0.0
  0
LINE
  5
42D
330
1F
100
AcDbEntity
  8
0
  6
CONTINUOUS
 62
     7
100
AcDbLine
 10
62.993238829
 20
307.6139452388
 30
0.0
 11
66.993238829
 21
307.6139452388
 31
0.0
  0
LINE
  5
42E
330
1F
100
AcDbEntity
  8
0
  6
CONTINUOUS
 62
     7
100
AcDbLine
 10
63.383238829
 20
307.3408642989
 30
0.0
 11
66.603238829
 21
307.3408642989
 31
0.0
  0
LINE
  5
42F
330
1F
100
AcDbEntity
  8
0
  6
CONTINUOUS
 62
     7
100
AcDbLine
 10
62.993238829
 20
307.067783359
 30
0.0
 11
66.993238829
 21
307.067783359
 31
0.0
  0
LINE
  5
430
330
1F
100
AcDbEntity
  8
0
  6
CONTINUOUS
 62
     7
100
AcDbLine
 10
62.993238829
 20
306.9259017605
 30
0.0
 11
66.993238829
 21
306.9259017605
 31
0.0
  0
LINE
  5
431
330
1F
100
AcDbEntity
  8
0
  6
CONTINUOUS
 62
     7
100
AcDbLine
 10
62.993238829
 20
306.3797398807
 30
0.0
 11
66.993238829
 21
306.3797398807
 31
0.0
  0
LINE
  5
432
330
1F
100
AcDbEntity
  8
0
  6
CONTINUOUS
 62
     7
100
AcDbLine
 10
63.383238829
 20
306.6528208206
 30
0.0
 11
66.603238829
 21
306.6528208206
 31
0.0
  0
LINE
  5
433
330
1F
100
AcDbEntity
  8
0
  6
CONTINUOUS
 62
     7
100
AcDbLine
 10
63.383238829
 20
305.9647773423
 30
0.0
 11
66.603238829
 21
305.9647773423
 31
0.0
  0
LINE
  5
434
330
1F
100
AcDbEntity
  8
0
  6
CONTINUOUS
 62
     7
100
AcDbLine
 10
62.993238829
 20
306.2378582822
 30
0.0
 11
66.993238829
 21
306.2378582822
 31
0.0
  0
LINE
  5
435
330
1F
100
AcDbEntity
  8
0
  6
CONTINUOUS
 62
     7
100
AcDbLine
 10
63.383238829
 20
305.2767338641
 30
0.0
 11
66.603238829
 21
305.2767338641
 31
0.0
  0
LINE
  5
436
330
1F
100
AcDbEntity
  8
0
  6
CONTINUOUS
 62
     7
100
AcDbLine
 10
62.993238829
 20
305.549814804
 30
0.0
 11
66.993238829
 21
305.549814804
 31
0.0
  0
LINE
  5
437
330
1F
100
AcDbEntity
  8
0
  6
CONTINUOUS
 62
     7
100
AcDbLine
 10
62.993238829
 20
305.6916964024
 30
0.0
 11
66.993238829
 21
305.6916964024
 31
0.0
  0
LINE
  5
438
330
1F
100
AcDbEntity
  8
0
  6
CONTINUOUS
 62
     7
100
AcDbLine
 10
62.993238829
 20
305.0036529242
 30
0.0
 11
66.993238829
 21
305.0036529242
 31
0.0
  0
LINE
  5
439
330
1F
100
AcDbEntity
  8
0
  6
CONTINUOUS
 62
     7
100
AcDbLine
 10
62.993238829
 20
304.3156094459
 30
0.0
 11
66.993238829
 21
304.3156094459
 31
0.0
  0
LINE
  5
43A
330
1F
100
AcDbEntity
  8
0
  6
CONTINUOUS
 62
     7
100
AcDbLine
 10
63.383238829
 20
304.5886903858
 30
0.0
 11
66.603238829
 21
304.5886903858
 31
0.0
  0
LINE
  5
43B
330
1F
100
AcDbEntity
  8
0
  6
CONTINUOUS
 62
     7
100
AcDbLine
 10
62.993238829
 20
304.8617713257
 30
0.0
 11
66.993238829
 21
304.8617713257
 31
0.0
  0
LINE
  5
43C
330
1F
100
AcDbEntity
  8
0
  6
CONTINUOUS
 62
     7
100
AcDbLine
 10
62.993238829
 20
304.1737278475
 30
0.0
 11
66.993238829
 21
304.1737278475
 31
0.0
  0
LINE
  5
43D
330
1F
100
AcDbEntity
  8
0
  6
CONTINUOUS
 62
     7
100
AcDbLine
 10
63.383238829
 20
303.9006469076
 30
0.0
 11
66.603238829
 21
303.9006469076
 31
0.0
  0
LINE
  5
43E
330
1F
100
AcDbEntity
  8
0
  6
CONTINUOUS
 62
     7
100
AcDbLine
 10
62.993238829
 20
303.6275659677
 30
0.0
 11
66.993238829
 21
303.6275659677
 31
0.0
  0
LINE
  5
43F
330
1F
100
AcDbEntity
  8
0
  6
CONTINUOUS
 62
     7
100
AcDbLine
 10
62.993238829
 20
303.4856843692
 30
0.0
 11
66.993238829
 21
303.4856843692
 31
0.0
  0
LINE
  5
440
330
1F
100
AcDbEntity
  8
0
  6
CONTINUOUS
 62
     7
100
AcDbLine
 10
63.383238829
 20
303.2126034293
 30
0.0
 11
66.603238829
 21
303.2126034293
 31
0.0
  0
LINE
  5
441
330
1F
100
AcDbEntity
  8
0
  6
CONTINUOUS
 62
     7
100
AcDbLine
 10
62.993238829
 20
302.9395224894
 30
0.0
 11
66.993238829
 21
302.9395224894
 31
0.0
  0
LINE
  5
442
330
1F
100
AcDbEntity
  8
0
  6
CONTINUOUS
 62
     7
100
AcDbLine
 10
62.993238829
 20
302.7976408909
 30
0.0
 11
66.993238829
 21
302.7976408909
 31
0.0
  0
LINE
  5
443
330
1F
100
AcDbEntity
  8
0
  6
CONTINUOUS
 62
     7
100
AcDbLine
 10
63.383238829
 20
302.524559951
 30
0.0
 11
66.603238829
 21
302.524559951
 31
0.0
  0
LINE
  5
444
330
1F
100
AcDbEntity
  8
0
  6
CONTINUOUS
 62
     7
100
AcDbLine
 10
62.993238829
 20
302.2514790111
 30
0.0
 11
66.993238829
 21
302.2514790111
 31
0.0
  0
LINE
  5
445
330
1F
100
AcDbEntity
  8
0
  6
CONTINUOUS
 62
     7
100
AcDbLine
 10
62.993238829
 20
302.1095974127
 30
0.0
 11
66.993238829
 21
302.1095974127
 31
0.0
  0
LINE
  5
446
330
1F
100
AcDbEntity
  8
0
  6
CONTINUOUS
 62
     7
100
AcDbLine
 10
63.383238829
 20
301.8365164728
 30
0.0
 11
66.603238829
 21
301.8365164728
 31
0.0
  0
LINE
  5
447
330
1F
100
AcDbEntity
  8
0
  6
CONTINUOUS
 62
     7
100
AcDbLine
 10
62.993238829
 20
301.5634355329
 30
0.0
 11
66.993238829
 21
301.5634355329
 31
0.0
  0
LINE
  5
448
330
1F
100
AcDbEntity
  8
0
  6
CONTINUOUS
 62
     7
100
AcDbLine
 10
62.993238829
 20
301.4215539344
 30
0.0
 11
66.993238829
 21
301.4215539344
 31
0.0
  0
LINE
  5
449
330
1F
100
AcDbEntity
  8
0
  6
CONTINUOUS
 62
     7
100
AcDbLine
 10
62.993238829
 20
300.8753920546
 30
0.0
 11
66.993238829
 21
300.8753920546
 31
0.0
  0
LINE
  5
44A
330
1F
100
AcDbEntity
  8
0
  6
CONTINUOUS
 62
     7
100
AcDbLine
 10
63.383238829
 20
301.1484729945
 30
0.0
 11
66.603238829
 21
301.1484729945
 31
0.0
  0
LINE
  5
44B
330
1F
100
AcDbEntity
  8
0
  6
CONTINUOUS
 62
     7
100
AcDbLine
 10
63.383238829
 20
300.4604295163
 30
0.0
 11
66.603238829
 21
300.4604295163
 31
0.0
  0
LINE
  5
44C
330
1F
100
AcDbEntity
  8
0
  6
CONTINUOUS
 62
     7
100
AcDbLine
 10
62.993238829
 20
300.7335104562
 30
0.0
 11
66.993238829
 21
300.7335104562
 31
0.0
  0
LINE
  5
44D
330
1F
100
AcDbEntity
  8
0
  6
CONTINUOUS
 62
     7
100
AcDbLine
 10
62.993238829
 20
300.1873485763
 30
0.0
 11
66.993238829
 21
300.1873485763
 31
0.0
  0
LINE
  5
44E
330
1F
100
AcDbEntity
  8
0
  6
CONTINUOUS
 62
     7
100
AcDbLine
 10
62.993238829
 20
300.0454669779
 30
0.0
 11
66.993238829
 21
300.0454669779
 31
0.0
  0
LINE
  5
44F
330
1F
100
AcDbEntity
  8
0
  6
CONTINUOUS
 62
     7
100
AcDbLine
 10
63.383238829
 20
299.772386038
 30
0.0
 11
66.603238829
 21
299.772386038
 31
0.0
  0
LINE
  5
450
330
1F
100
AcDbEntity
  8
0
  6
CONTINUOUS
 62
     7
100
AcDbLine
 10
62.993238829
 20
299.4993050981
 30
0.0
 11
66.993238829
 21
299.4993050981
 31
0.0
  0
LINE
  5
451
330
1F
100
AcDbEntity
  8
0
  6
CONTINUOUS
 62
     7
100
AcDbLine
 10
63.383238829
 20
299.0843425597
 30
0.0
 11
66.603238829
 21
299.0843425597
 31
0.0
  0
LINE
  5
452
330
1F
100
AcDbEntity
  8
0
  6
CONTINUOUS
 62
     7
100
AcDbLine
 10
62.993238829
 20
299.3574234996
 30
0.0
 11
66.993238829
 21
299.3574234996
 31
0.0
  0
LINE
  5
453
330
1F
100
AcDbEntity
  8
0
  6
CONTINUOUS
 62
     7
100
AcDbLine
 10
63.383238829
 20
298.3962990815
 30
0.0
 11
66.603238829
 21
298.3962990815
 31
0.0
  0
LINE
  5
454
330
1F
100
AcDbEntity
  8
0
  6
CONTINUOUS
 62
     7
100
AcDbLine
 10
62.993238829
 20
298.6693800214
 30
0.0
 11
66.993238829
 21
298.6693800214
 31
0.0
  0
LINE
  5
455
330
1F
100
AcDbEntity
  8
0
  6
CONTINUOUS
 62
     7
100
AcDbLine
 10
62.993238829
 20
298.8112616198
 30
0.0
 11
66.993238829
 21
298.8112616198
 31
0.0
  0
LINE
  5
456
330
1F
100
AcDbEntity
  8
0
  6
CONTINUOUS
 62
     7
100
AcDbLine
 10
62.993238829
 20
298.1232181416
 30
0.0
 11
66.993238829
 21
298.1232181416
 31
0.0
  0
LINE
  5
457
330
1F
100
AcDbEntity
  8
0
  6
CONTINUOUS
 62
     7
100
AcDbLine
 10
62.993238829
 20
297.9813365431
 30
0.0
 11
66.993238829
 21
297.9813365431
 31
0.0
  0
LINE
  5
458
330
1F
100
AcDbEntity
  8
0
  6
CONTINUOUS
 62
     7
100
AcDbLine
 10
63.383238829
 20
297.7082556032
 30
0.0
 11
66.603238829
 21
297.7082556032
 31
0.0
  0
LINE
  5
459
330
1F
100
AcDbEntity
  8
0
  6
CONTINUOUS
 62
     7
100
AcDbLine
 10
62.993238829
 20
297.4351746633
 30
0.0
 11
66.993238829
 21
297.4351746633
 31
0.0
  0
LINE
  5
45A
330
1F
100
AcDbEntity
  8
0
  6
CONTINUOUS
 62
     7
100
AcDbLine
 10
62.993238829
 20
297.2932930648
 30
0.0
 11
66.993238829
 21
297.2932930648
 31
0.0
  0
LINE
  5
45B
330
1F
100
AcDbEntity
  8
0
  6
CONTINUOUS
 62
     7
100
AcDbLine
 10
63.383238829
 20
297.0202121249
 30
0.0
 11
66.603238829
 21
297.0202121249
 31
0.0
  0
LINE
  5
45C
330
1F
100
AcDbEntity
  8
0
  6
CONTINUOUS
 62
     7
100
AcDbLine
 10
62.993238829
 20
296.6052495866
 30
0.0
 11
66.993238829
 21
296.6052495866
 31
0.0
  0
LINE
  5
45D
330
1F
100
AcDbEntity
  8
0
  6
CONTINUOUS
 62
     7
100
AcDbLine
 10
62.993238829
 20
296.747131185
 30
0.0
 11
66.993238829
 21
296.747131185
 31
0.0
  0
SPLINE
  5
45E
330
1F
100
AcDbEntity
  8
0
  6
CONTINUOUS
 62
     7
100
AcDbSpline
210
0.0
220
0.0
230
1.0
 70
     8
 71
     3
 72
    12
 73
     8
 74
     0
 42
0.00000001
 43
0.00000001
 40
0.0
 40
0.0
 40
0.0
 40
0.0
 40
0.0904690524822754
 40
0.1858192837529802
 40
0.4089514465726153
 40
0.683077778025748
 40
1.0
 40
1.0
 40
1.0
 40
1.0
 10
82.58047505879665
 20
334.2763348640775
 30
0.0
 10
82.56232648372037
 20
334.1143448327891
 30
0.0
 10
82.52505014303502
 20
333.7816247394176
 30
0.0
 10
82.13206598511086
 20
333.145227746641
 30
0.0
 10
81.26121256050912
 20
332.504461618561
 30
0.0
 10
79.87508510821249
 20
332.0120797748177
 30
0.0
 10
78.81916367970268
 20
331.9494286225902
 30
0.0
 10
78.25297505879664
 20
331.9158348640775
 30
0.0
  0
SPLINE
  5
45F
330
1F
100
AcDbEntity
  8
0
  6
CONTINUOUS
 62
     7
100
AcDbSpline
210
0.0
220
0.0
230
1.0
 70
     8
 71
     3
 72
    12
 73
     8
 74
     0
 42
0.00000001
 43
0.00000001
 40
0.0
 40
0.0
 40
0.0
 40
0.0
 40
0.3169222219742529
 40
0.5910485534273862
 40
0.8141807162470217
 40
0.9095309475177237
 40
1.0
 40
1.0
 40
1.0
 40
1.0
 10
78.25297505879661
 20
336.6368348640775
 30
0.0
 10
78.81916367970264
 20
336.6032411055647
 30
0.0
 10
79.87508510821243
 20
336.5405899533373
 30
0.0
 10
81.26121256050914
 20
336.048208109594
 30
0.0
 10
82.13206598511086
 20
335.407441981514
 30
0.0
 10
82.52505014303505
 20
334.7710449887373
 30
0.0
 10
82.56232648372038
 20
334.4383248953659
 30
0.0
 10
82.58047505879665
 20
334.2763348640775
 30
0.0
  0
SPLINE
  5
460
330
1F
100
AcDbEntity
  8
0
  6
CONTINUOUS
 62
     7
100
AcDbSpline
210
0.0
220
0.0
230
1.0
 70
     8
 71
     3
 72
    12
 73
     8
 74
     0
 42
0.00000001
 43
0.00000001
 40
0.0
 40
0.0
 40
0.0
 40
0.0
 40
0.3169222219742536
 40
0.591048553427388
 40
0.8141807162470215
 40
0.9095309475177253
 40
1.0
 40
1.0
 40
1.0
 40
1.0
 10
78.25297505879664
 20
331.9158348640775
 30
0.0
 10
77.6867864378906
 20
331.9494286225903
 30
0.0
 10
76.6308650093808
 20
332.0120797748177
 30
0.0
 10
75.24473755708414
 20
332.504461618561
 30
0.0
 10
74.37388413248233
 20
333.145227746641
 30
0.0
 10
73.98089997455823
 20
333.7816247394176
 30
0.0
 10
73.9436236338729
 20
334.1143448327891
 30
0.0
 10
73.92547505879662
 20
334.2763348640775
 30
0.0
  0
SPLINE
  5
461
330
1F
100
AcDbEntity
  8
0
  6
CONTINUOUS
 62
     7
100
AcDbSpline
210
0.0
220
0.0
230
1.0
 70
     8
 71
     3
 72
    12
 73
     8
 74
     0
 42
0.00000001
 43
0.00000001
 40
0.0
 40
0.0
 40
0.0
 40
0.0
 40
0.3143673319851776
 40
0.5871575300358863
 40
0.8110328976779901
 40
0.9077109548243033
 40
1.0
 40
1.0
 40
1.0
 40
1.0
 10
78.25297505879664
 20
331.7487348640775
 30
0.0
 10
77.66393258661553
 20
331.784786045611
 30
0.0
 10
76.56375235838365
 20
331.8521204043385
 30
0.0
 10
75.11966841566391
 20
332.3812748991397
 30
0.0
 10
74.21591216123282
 20
333.0692058358223
 30
0.0
 10
73.81017762981584
 20
333.7482851637992
 30
0.0
 10
73.77174503309915
 20
334.1030650419685
 30
0.0
 10
73.75297505879664
 20
334.2763348640775
 30
0.0
  0
SPLINE
  5
462
330
1F
100
AcDbEntity
  8
0
  6
CONTINUOUS
 62
     7
100
AcDbSpline
210
0.0
220
0.0
230
1.0
 70
     8
 71
     3
 72
    12
 73
     8
 74
     0
 42
0.00000001
 43
0.00000001
 40
0.0
 40
0.0
 40
0.0
 40
0.0
 40
0.0922890451756972
 40
0.1889671023220122
 40
0.4128424699641164
 40
0.685632668014823
 40
1.0
 40
1.0
 40
1.0
 40
1.0
 10
73.75297505879664
 20
334.2763348640775
 30
0.0
 10
73.77174503309917
 20
334.4496046861865
 30
0.0
 10
73.81017762981585
 20
334.8043845643559
 30
0.0
 10
74.21591216123282
 20
335.4834638923327
 30
0.0
 10
75.11966841566392
 20
336.1713948290154
 30
0.0
 10
76.56375235838361
 20
336.7005493238165
 30
0.0
 10
77.6639325866155
 20
336.767883682544
 30
0.0
 10
78.25297505879661
 20
336.8039348640775
 30
0.0
  0
SPLINE
  5
463
330
1F
100
AcDbEntity
  8
0
  6
CONTINUOUS
 62
     7
100
AcDbSpline
210
0.0
220
0.0
230
1.0
 70
     8
 71
     3
 72
    12
 73
     8
 74
     0
 42
0.00000001
 43
0.00000001
 40
0.0
 40
0.0
 40
0.0
 40
0.0
 40
0.3143673319851767
 40
0.5871575300358857
 40
0.8110328976779899
 40
0.9077109548243034
 40
1.0
 40
1.0
 40
1.0
 40
1.0
 10
78.25297505879661
 20
336.8039348640775
 30
0.0
 10
78.84201753097773
 20
336.767883682544
 30
0.0
 10
79.94219775920963
 20
336.7005493238165
 30
0.0
 10
81.38628170192929
 20
336.1713948290153
 30
0.0
 10
82.29003795636044
 20
335.4834638923327
 30
0.0
 10
82.69577248777742
 20
334.8043845643559
 30
0.0
 10
82.7342050844941
 20
334.4496046861865
 30
0.0
 10
82.75297505879664
 20
334.2763348640775
 30
0.0
  0
SPLINE
  5
464
330
1F
100
AcDbEntity
  8
0
  6
CONTINUOUS
 62
     7
100
AcDbSpline
210
0.0
220
0.0
230
1.0
 70
     8
 71
     3
 72
    12
 73
     8
 74
     0
 42
0.00000001
 43
0.00000001
 40
0.0
 40
0.0
 40
0.0
 40
0.0
 40
0.0922890451756975
 40
0.1889671023220122
 40
0.4128424699641177
 40
0.6856326680148237
 40
0.9999999999999999
 40
0.9999999999999999
 40
0.9999999999999999
 40
0.9999999999999999
 10
82.75297505879664
 20
334.2763348640775
 30
0.0
 10
82.7342050844941
 20
334.1030650419685
 30
0.0
 10
82.6957724877774
 20
333.7482851637992
 30
0.0
 10
82.29003795636042
 20
333.0692058358223
 30
0.0
 10
81.3862817019293
 20
332.3812748991397
 30
0.0
 10
79.94219775920963
 20
331.8521204043385
 30
0.0
 10
78.84201753097773
 20
331.784786045611
 30
0.0
 10
78.25297505879662
 20
331.7487348640775
 30
0.0
  0
SPLINE
  5
465
330
1F
100
AcDbEntity
  8
0
  6
CONTINUOUS
 62
     7
100
AcDbSpline
210
0.0
220
0.0
230
1.0
 70
     8
 71
     3
 72
    12
 73
     8
 74
     0
 42
0.00000001
 43
0.00000001
 40
0.0
 40
0.0
 40
0.0
 40
0.0
 40
0.0904690524822764
 40
0.1858192837529785
 40
0.4089514465726147
 40
0.6830777780257475
 40
1.0
 40
1.0
 40
1.0
 40
1.0
 10
73.92547505879662
 20
334.2763348640775
 30
0.0
 10
73.94362363387289
 20
334.4383248953659
 30
0.0
 10
73.98089997455823
 20
334.7710449887373
 30
0.0
 10
74.37388413248236
 20
335.4074419815141
 30
0.0
 10
75.24473755708412
 20
336.048208109594
 30
0.0
 10
76.6308650093808
 20
336.5405899533373
 30
0.0
 10
77.68678643789058
 20
336.6032411055647
 30
0.0
 10
78.25297505879661
 20
336.6368348640775
 30
0.0
  0
SPLINE
  5
466
330
1F
100
AcDbEntity
  8
0
  6
CONTINUOUS
 62
     7
100
AcDbSpline
210
0.0
220
0.0
230
1.0
 70
     8
 71
     3
 72
    12
 73
     8
 74
     0
 42
0.00000001
 43
0.00000001
 40
0.0
 40
0.0
 40
0.0
 40
0.0
 40
0.090469052482276
 40
0.1858192837529793
 40
0.4089514465726158
 40
0.6830777780257482
 40
1.0
 40
1.0
 40
1.0
 40
1.0
 10
73.92547505879662
 20
270.720979118048
 30
0.0
 10
73.9436236338729
 20
270.8829691493364
 30
0.0
 10
73.9808999745582
 20
271.2156892427079
 30
0.0
 10
74.3738841324824
 20
271.8520862354846
 30
0.0
 10
75.24473755708412
 20
272.4928523635645
 30
0.0
 10
76.63086500938083
 20
272.9852342073079
 30
0.0
 10
77.6867864378906
 20
273.0478853595353
 30
0.0
 10
78.25297505879664
 20
273.081479118048
 30
0.0
  0
SPLINE
  5
467
330
1F
100
AcDbEntity
  8
0
  6
CONTINUOUS
 62
     7
100
AcDbSpline
210
0.0
220
0.0
230
1.0
 70
     8
 71
     3
 72
    12
 73
     8
 74
     0
 42
0.00000001
 43
0.00000001
 40
0.0
 40
0.0
 40
0.0
 40
0.0
 40
0.3169222219742528
 40
0.5910485534273862
 40
0.8141807162470215
 40
0.9095309475177245
 40
1.0
 40
1.0
 40
1.0
 40
1.0
 10
78.25297505879666
 20
268.360479118048
 30
0.0
 10
77.68678643789063
 20
268.3940728765608
 30
0.0
 10
76.63086500938083
 20
268.4567240287882
 30
0.0
 10
75.24473755708415
 20
268.9491058725316
 30
0.0
 10
74.37388413248237
 20
269.5898720006115
 30
0.0
 10
73.98089997455826
 20
270.2262689933882
 30
0.0
 10
73.9436236338729
 20
270.5589890867597
 30
0.0
 10
73.92547505879662
 20
270.720979118048
 30
0.0
  0
SPLINE
  5
468
330
1F
100
AcDbEntity
  8
0
  6
CONTINUOUS
 62
     7
100
AcDbSpline
210
0.0
220
0.0
230
1.0
 70
     8
 71
     3
 72
    12
 73
     8
 74
     0
 42
0.00000001
 43
0.00000001
 40
0.0
 40
0.0
 40
0.0
 40
0.0
 40
0.0904690524822757
 40
0.1858192837529793
 40
0.4089514465726143
 40
0.6830777780257474
 40
1.0
 40
1.0
 40
1.0
 40
1.0
 10
82.58047505879665
 20
270.720979118048
 30
0.0
 10
82.5623264837204
 20
270.5589890867597
 30
0.0
 10
82.52505014303506
 20
270.2262689933882
 30
0.0
 10
82.13206598511088
 20
269.5898720006115
 30
0.0
 10
81.26121256050916
 20
268.9491058725316
 30
0.0
 10
79.87508510821249
 20
268.4567240287882
 30
0.0
 10
78.8191636797027
 20
268.3940728765608
 30
0.0
 10
78.25297505879666
 20
268.360479118048
 30
0.0
  0
SPLINE
  5
469
330
1F
100
AcDbEntity
  8
0
  6
CONTINUOUS
 62
     7
100
AcDbSpline
210
0.0
220
0.0
230
1.0
 70
     8
 71
     3
 72
    12
 73
     8
 74
     0
 42
0.00000001
 43
0.00000001
 40
0.0
 40
0.0
 40
0.0
 40
0.0
 40
0.3169222219742536
 40
0.5910485534273876
 40
0.8141807162470215
 40
0.9095309475177247
 40
1.0
 40
1.0
 40
1.0
 40
1.0
 10
78.25297505879664
 20
273.081479118048
 30
0.0
 10
78.81916367970265
 20
273.0478853595353
 30
0.0
 10
79.87508510821245
 20
272.9852342073079
 30
0.0
 10
81.26121256050918
 20
272.4928523635645
 30
0.0
 10
82.13206598511088
 20
271.8520862354846
 30
0.0
 10
82.52505014303507
 20
271.2156892427079
 30
0.0
 10
82.56232648372038
 20
270.8829691493364
 30
0.0
 10
82.58047505879665
 20
270.720979118048
 30
0.0
  0
SPLINE
  5
46A
330
1F
100
AcDbEntity
  8
0
  6
CONTINUOUS
 62
     7
100
AcDbSpline
210
0.0
220
0.0
230
1.0
 70
     8
 71
     3
 72
    12
 73
     8
 74
     0
 42
0.00000001
 43
0.00000001
 40
0.0
 40
0.0
 40
0.0
 40
0.0
 40
0.0922890451756972
 40
0.188967102322012
 40
0.4128424699641159
 40
0.685632668014823
 40
1.0
 40
1.0
 40
1.0
 40
1.0
 10
82.75297505879664
 20
270.720979118048
 30
0.0
 10
82.7342050844941
 20
270.547709295939
 30
0.0
 10
82.69577248777743
 20
270.1929294177697
 30
0.0
 10
82.29003795636042
 20
269.5138500897928
 30
0.0
 10
81.38628170192932
 20
268.8259191531102
 30
0.0
 10
79.94219775920968
 20
268.296764658309
 30
0.0
 10
78.84201753097778
 20
268.2294302995816
 30
0.0
 10
78.25297505879666
 20
268.193379118048
 30
0.0
  0
SPLINE
  5
46B
330
1F
100
AcDbEntity
  8
0
  6
CONTINUOUS
 62
     7
100
AcDbSpline
210
0.0
220
0.0
230
1.0
 70
     8
 71
     3
 72
    12
 73
     8
 74
     0
 42
0.00000001
 43
0.00000001
 40
0.0
 40
0.0
 40
0.0
 40
0.0
 40
0.3143673319851767
 40
0.5871575300358849
 40
0.8110328976779898
 40
0.9077109548243038
 40
1.0
 40
1.0
 40
1.0
 40
1.0
 10
78.25297505879666
 20
268.193379118048
 30
0.0
 10
77.66393258661554
 20
268.2294302995816
 30
0.0
 10
76.56375235838364
 20
268.296764658309
 30
0.0
 10
75.11966841566398
 20
268.8259191531102
 30
0.0
 10
74.21591216123284
 20
269.5138500897928
 30
0.0
 10
73.81017762981585
 20
270.1929294177697
 30
0.0
 10
73.77174503309917
 20
270.5477092959389
 30
0.0
 10
73.75297505879664
 20
270.720979118048
 30
0.0
  0
SPLINE
  5
46C
330
1F
100
AcDbEntity
  8
0
  6
CONTINUOUS
 62
     7
100
AcDbSpline
210
0.0
220
0.0
230
1.0
 70
     8
 71
     3
 72
    12
 73
     8
 74
     0
 42
0.00000001
 43
0.00000001
 40
0.0
 40
0.0
 40
0.0
 40
0.0
 40
0.0922890451756974
 40
0.1889671023220119
 40
0.4128424699641163
 40
0.6856326680148238
 40
0.9999999999999999
 40
0.9999999999999999
 40
0.9999999999999999
 40
0.9999999999999999
 10
73.75297505879664
 20
270.720979118048
 30
0.0
 10
73.77174503309915
 20
270.8942489401571
 30
0.0
 10
73.81017762981584
 20
271.2490288183263
 30
0.0
 10
74.21591216123286
 20
271.9281081463032
 30
0.0
 10
75.11966841566394
 20
272.6160390829859
 30
0.0
 10
76.56375235838368
 20
273.145193577787
 30
0.0
 10
77.66393258661553
 20
273.2125279365145
 30
0.0
 10
78.25297505879664
 20
273.248579118048
 30
0.0
  0
SPLINE
  5
46D
330
1F
100
AcDbEntity
  8
0
  6
CONTINUOUS
 62
     7
100
AcDbSpline
210
0.0
220
0.0
230
1.0
 70
     8
 71
     3
 72
    12
 73
     8
 74
     0
 42
0.00000001
 43
0.00000001
 40
0.0
 40
0.0
 40
0.0
 40
0.0
 40
0.3143673319851775
 40
0.5871575300358864
 40
0.81103289767799
 40
0.9077109548243035
 40
1.0
 40
1.0
 40
1.0
 40
1.0
 10
78.25297505879664
 20
273.248579118048
 30
0.0
 10
78.84201753097774
 20
273.2125279365145
 30
0.0
 10
79.94219775920963
 20
273.145193577787
 30
0.0
 10
81.38628170192932
 20
272.6160390829859
 30
0.0
 10
82.29003795636045
 20
271.9281081463032
 30
0.0
 10
82.69577248777742
 20
271.2490288183263
 30
0.0
 10
82.73420508449412
 20
270.8942489401571
 30
0.0
 10
82.75297505879664
 20
270.720979118048
 30
0.0
  0
LINE
  5
46E
330
1F
100
AcDbEntity
  8
0
  6
CONTINUOUS
 62
     7
100
AcDbLine
 10
81.9445750588
 20
334.6391348641
 30
0.0
 11
81.9445750588
 21
334.3679348641
 31
0.0
  0
LINE
  5
46F
330
1F
100
AcDbEntity
  8
0
  6
CONTINUOUS
 62
     7
100
AcDbLine
 10
81.9445750588
 20
334.3679348641
 30
0.0
 11
81.3194750588
 21
334.3679348641
 31
0.0
  0
LINE
  5
470
330
1F
100
AcDbEntity
  8
0
  6
CONTINUOUS
 62
     7
100
AcDbLine
 10
81.3194750588
 20
334.3679348641
 30
0.0
 11
81.3194750588
 21
334.6805348641
 31
0.0
  0
LINE
  5
471
330
1F
100
AcDbEntity
  8
0
  6
CONTINUOUS
 62
     7
100
AcDbLine
 10
81.3194750588
 20
334.6805348641
 30
0.0
 11
80.1877750588
 21
334.6805348641
 31
0.0
  0
LINE
  5
472
330
1F
100
AcDbEntity
  8
0
  6
CONTINUOUS
 62
     7
100
AcDbLine
 10
80.1877750588
 20
334.6805348641
 30
0.0
 11
80.1877750588
 21
333.8613348641
 31
0.0
  0
LINE
  5
473
330
1F
100
AcDbEntity
  8
0
  6
CONTINUOUS
 62
     7
100
AcDbLine
 10
80.1877750588
 20
333.8613348641
 30
0.0
 11
80.8775750588
 21
333.8613348641
 31
0.0
  0
LINE
  5
474
330
1F
100
AcDbEntity
  8
0
  6
CONTINUOUS
 62
     7
100
AcDbLine
 10
80.8775750588
 20
333.8613348641
 30
0.0
 11
80.8775750588
 21
333.4517348641
 31
0.0
  0
LINE
  5
475
330
1F
100
AcDbEntity
  8
0
  6
CONTINUOUS
 62
     7
100
AcDbLine
 10
80.8775750588
 20
333.4517348641
 30
0.0
 11
79.5625750588
 21
333.4517348641
 31
0.0
  0
LINE
  5
476
330
1F
100
AcDbEntity
  8
0
  6
CONTINUOUS
 62
     7
100
AcDbLine
 10
79.5625750588
 20
333.4517348641
 30
0.0
 11
79.5625750588
 21
334.6397348641
 31
0.0
  0
SPLINE
  5
477
330
1F
100
AcDbEntity
  8
0
  6
CONTINUOUS
 62
     7
100
AcDbSpline
210
0.0
220
0.0
230
1.0
 70
     8
 71
     3
 72
    11
 73
     7
 74
     0
 42
0.00000001
 43
0.00000001
 40
0.0
 40
0.0
 40
0.0
 40
0.0
 40
0.2833448308640367
 40
0.5580866109705964
 40
0.7754665892499465
 40
1.0
 40
1.0
 40
1.0
 40
1.0
 10
79.56257505879663
 20
334.6397348640775
 30
0.0
 10
79.57156209660461
 20
334.7083098798017
 30
0.0
 10
79.58926330349667
 20
334.8433778039494
 30
0.0
 10
79.71260881848723
 20
334.9931918603297
 30
0.0
 10
79.86291698062514
 20
335.0843849640705
 30
0.0
 10
79.9695801658952
 20
335.0953590169171
 30
0.0
 10
80.02377505879663
 20
335.1009348640775
 30
0.0
  0
SPLINE
  5
478
330
1F
100
AcDbEntity
  8
0
  6
CONTINUOUS
 62
     7
100
AcDbSpline
210
0.0
220
0.0
230
1.0
 70
     8
 71
     3
 72
    11
 73
     7
 74
     0
 42
0.00000001
 43
0.00000001
 40
0.0
 40
0.0
 40
0.0
 40
0.0
 40
0.2832327603404957
 40
0.558011415364415
 40
0.7754417085638466
 40
1.0
 40
1.0
 40
1.0
 40
1.0
 10
81.48287505879665
 20
335.1009348640775
 30
0.0
 10
81.5514986948605
 20
335.0919285392262
 30
0.0
 10
81.68669764656867
 20
335.074184715837
 30
0.0
 10
81.83665344160201
 20
334.9506828027301
 30
0.0
 10
81.92798973995039
 20
334.800199068997
 30
0.0
 10
81.93898749849632
 20
334.6933970682325
 30
0.0
 10
81.94457505879663
 20
334.6391348640776
 30
0.0
  0
LINE
  5
479
330
1F
100
AcDbEntity
  8
0
  6
CONTINUOUS
 62
     7
100
AcDbLine
 10
80.0237750588
 20
335.1009348641
 30
0.0
 11
81.4828750588
 21
335.1009348641
 31
0.0
  0
LINE
  5
47A
330
1F
100
AcDbEntity
  8
0
  6
CONTINUOUS
 62
     7
100
AcDbLine
 10
74.5613750588
 20
270.358179118
 30
0.0
 11
74.5613750588
 21
270.629379118
 31
0.0
  0
LINE
  5
47B
330
1F
100
AcDbEntity
  8
0
  6
CONTINUOUS
 62
     7
100
AcDbLine
 10
74.5613750588
 20
270.629379118
 30
0.0
 11
75.1864750588
 21
270.629379118
 31
0.0
  0
LINE
  5
47C
330
1F
100
AcDbEntity
  8
0
  6
CONTINUOUS
 62
     7
100
AcDbLine
 10
75.1864750588
 20
270.629379118
 30
0.0
 11
75.1864750588
 21
270.316779118
 31
0.0
  0
LINE
  5
47D
330
1F
100
AcDbEntity
  8
0
  6
CONTINUOUS
 62
     7
100
AcDbLine
 10
75.1864750588
 20
270.316779118
 30
0.0
 11
76.3181750588
 21
270.316779118
 31
0.0
  0
LINE
  5
47E
330
1F
100
AcDbEntity
  8
0
  6
CONTINUOUS
 62
     7
100
AcDbLine
 10
76.3181750588
 20
270.316779118
 30
0.0
 11
76.3181750588
 21
271.135979118
 31
0.0
  0
LINE
  5
47F
330
1F
100
AcDbEntity
  8
0
  6
CONTINUOUS
 62
     7
100
AcDbLine
 10
76.3181750588
 20
271.135979118
 30
0.0
 11
75.6283750588
 21
271.135979118
 31
0.0
  0
LINE
  5
480
330
1F
100
AcDbEntity
  8
0
  6
CONTINUOUS
 62
     7
100
AcDbLine
 10
75.6283750588
 20
271.135979118
 30
0.0
 11
75.6283750588
 21
271.545579118
 31
0.0
  0
LINE
  5
481
330
1F
100
AcDbEntity
  8
0
  6
CONTINUOUS
 62
     7
100
AcDbLine
 10
75.6283750588
 20
271.545579118
 30
0.0
 11
76.9433750588
 21
271.545579118
 31
0.0
  0
SPLINE
  5
482
330
1F
100
AcDbEntity
  8
0
  6
CONTINUOUS
 62
     7
100
AcDbSpline
210
0.0
220
0.0
230
1.0
 70
     8
 71
     3
 72
    11
 73
     7
 74
     0
 42
0.00000001
 43
0.00000001
 40
0.0
 40
0.0
 40
0.0
 40
0.0
 40
0.2833448308640399
 40
0.5580866109706091
 40
0.775466589249945
 40
1.0
 40
1.0
 40
1.0
 40
1.0
 10
76.94337505879665
 20
270.357579118048
 30
0.0
 10
76.93438802098866
 20
270.2890041023238
 30
0.0
 10
76.91668681409662
 20
270.1539361781761
 30
0.0
 10
76.79334129910605
 20
270.0041221217959
 30
0.0
 10
76.64303313696816
 20
269.9129290180551
 30
0.0
 10
76.53636995169808
 20
269.9019549652085
 30
0.0
 10
76.48217505879664
 20
269.8963791180481
 30
0.0
  0
LINE
  5
483
330
1F
100
AcDbEntity
  8
0
  6
CONTINUOUS
 62
     7
100
AcDbLine
 10
76.4821750588
 20
269.896379118
 30
0.0
 11
75.0230750588
 21
269.896379118
 31
0.0
  0
SPLINE
  5
484
330
1F
100
AcDbEntity
  8
0
  6
CONTINUOUS
 62
     7
100
AcDbSpline
210
0.0
220
0.0
230
1.0
 70
     8
 71
     3
 72
    11
 73
     7
 74
     0
 42
0.00000001
 43
0.00000001
 40
0.0
 40
0.0
 40
0.0
 40
0.0
 40
0.2832327603404887
 40
0.5580114153644133
 40
0.7754417085638468
 40
1.0
 40
1.0
 40
1.0
 40
1.0
 10
75.02307505879664
 20
269.8963791180481
 30
0.0
 10
74.95445142273277
 20
269.9053854428993
 30
0.0
 10
74.81925247102458
 20
269.9231292662885
 30
0.0
 10
74.66929667599128
 20
270.0466311793954
 30
0.0
 10
74.57796037764287
 20
270.1971149131285
 30
0.0
 10
74.56696261909693
 20
270.3039169138931
 30
0.0
 10
74.56137505879663
 20
270.358179118048
 30
0.0
  0
LINE
  5
485
330
1F
100
AcDbEntity
  8
0
  6
CONTINUOUS
 62
     7
100
AcDbLine
 10
76.9433750588
 20
271.545579118
 30
0.0
 11
76.9433750588
 21
270.357579118
 31
0.0
  0
LINE
  5
486
330
1F
100
AcDbEntity
  8
0
  6
CONTINUOUS
 62
     7
100
AcDbLine
 10
77.5902750588
 20
335.1009348641
 30
0.0
 11
77.5902750588
 21
333.8613348641
 31
0.0
  0
LINE
  5
487
330
1F
100
AcDbEntity
  8
0
  6
CONTINUOUS
 62
     7
100
AcDbLine
 10
77.5902750588
 20
333.8613348641
 30
0.0
 11
78.7756750588
 21
333.8613348641
 31
0.0
  0
LINE
  5
488
330
1F
100
AcDbEntity
  8
0
  6
CONTINUOUS
 62
     7
100
AcDbLine
 10
78.7756750588
 20
333.8613348641
 30
0.0
 11
78.7756750588
 21
335.1009348641
 31
0.0
  0
LINE
  5
489
330
1F
100
AcDbEntity
  8
0
  6
CONTINUOUS
 62
     7
100
AcDbLine
 10
78.7756750588
 20
335.1009348641
 30
0.0
 11
79.3901750588
 21
335.1009348641
 31
0.0
  0
LINE
  5
48A
330
1F
100
AcDbEntity
  8
0
  6
CONTINUOUS
 62
     7
100
AcDbLine
 10
79.3901750588
 20
335.1009348641
 30
0.0
 11
79.3901750588
 21
333.4517348641
 31
0.0
  0
LINE
  5
48B
330
1F
100
AcDbEntity
  8
0
  6
CONTINUOUS
 62
     7
100
AcDbLine
 10
79.3901750588
 20
333.4517348641
 30
0.0
 11
77.4266750588
 21
333.4517348641
 31
0.0
  0
SPLINE
  5
48C
330
1F
100
AcDbEntity
  8
0
  6
CONTINUOUS
 62
     7
100
AcDbSpline
210
0.0
220
0.0
230
1.0
 70
     8
 71
     3
 72
    11
 73
     7
 74
     0
 42
0.00000001
 43
0.00000001
 40
0.0
 40
0.0
 40
0.0
 40
0.0
 40
0.2832834002916797
 40
0.5580419236669849
 40
0.775451072884866
 40
1.0
 40
1.0
 40
1.0
 40
1.0
 10
77.4266750587966
 20
333.4517348640775
 30
0.0
 10
77.35803606932461
 20
333.4607381038275
 30
0.0
 10
77.22282365065104
 20
333.4784736478945
 30
0.0
 10
77.07285967765085
 20
333.6019841735004
 30
0.0
 10
76.98155092812765
 20
333.7524757782927
 30
0.0
 10
76.97055953676163
 20
333.8592734013652
 30
0.0
 10
76.9649750587966
 20
333.9135348640775
 30
0.0
  0
LINE
  5
48D
330
1F
100
AcDbEntity
  8
0
  6
CONTINUOUS
 62
     7
100
AcDbLine
 10
76.9649750588
 20
335.1009348641
 30
0.0
 11
77.5902750588
 21
335.1009348641
 31
0.0
  0
LINE
  5
48E
330
1F
100
AcDbEntity
  8
0
  6
CONTINUOUS
 62
     7
100
AcDbLine
 10
76.9649750588
 20
333.9135348641
 30
0.0
 11
76.9649750588
 21
335.1009348641
 31
0.0
  0
LINE
  5
48F
330
1F
100
AcDbEntity
  8
0
  6
CONTINUOUS
 62
     7
100
AcDbLine
 10
79.5409750588
 20
271.083779118
 30
0.0
 11
79.5409750588
 21
269.896379118
 31
0.0
  0
LINE
  5
490
330
1F
100
AcDbEntity
  8
0
  6
CONTINUOUS
 62
     7
100
AcDbLine
 10
79.5409750588
 20
269.896379118
 30
0.0
 11
78.9156750588
 21
269.896379118
 31
0.0
  0
LINE
  5
491
330
1F
100
AcDbEntity
  8
0
  6
CONTINUOUS
 62
     7
100
AcDbLine
 10
78.9156750588
 20
269.896379118
 30
0.0
 11
78.9156750588
 21
271.135979118
 31
0.0
  0
LINE
  5
492
330
1F
100
AcDbEntity
  8
0
  6
CONTINUOUS
 62
     7
100
AcDbLine
 10
78.9156750588
 20
271.135979118
 30
0.0
 11
77.7302750588
 21
271.135979118
 31
0.0
  0
LINE
  5
493
330
1F
100
AcDbEntity
  8
0
  6
CONTINUOUS
 62
     7
100
AcDbLine
 10
77.7302750588
 20
271.135979118
 30
0.0
 11
77.7302750588
 21
269.896379118
 31
0.0
  0
LINE
  5
494
330
1F
100
AcDbEntity
  8
0
  6
CONTINUOUS
 62
     7
100
AcDbLine
 10
77.7302750588
 20
269.896379118
 30
0.0
 11
77.1157750588
 21
269.896379118
 31
0.0
  0
LINE
  5
495
330
1F
100
AcDbEntity
  8
0
  6
CONTINUOUS
 62
     7
100
AcDbLine
 10
77.1157750588
 20
269.896379118
 30
0.0
 11
77.1157750588
 21
271.545579118
 31
0.0
  0
LINE
  5
496
330
1F
100
AcDbEntity
  8
0
  6
CONTINUOUS
 62
     7
100
AcDbLine
 10
77.1157750588
 20
271.545579118
 30
0.0
 11
79.0792750588
 21
271.545579118
 31
0.0
  0
SPLINE
  5
497
330
1F
100
AcDbEntity
  8
0
  6
CONTINUOUS
 62
     7
100
AcDbSpline
210
0.0
220
0.0
230
1.0
 70
     8
 71
     3
 72
    11
 73
     7
 74
     0
 42
0.00000001
 43
0.00000001
 40
0.0
 40
0.0
 40
0.0
 40
0.0
 40
0.2832834002916797
 40
0.5580419236669902
 40
0.7754510728848738
 40
1.0
 40
1.0
 40
1.0
 40
1.0
 10
79.07927505879667
 20
271.5455791180481
 30
0.0
 10
79.14791404826866
 20
271.536575878298
 30
0.0
 10
79.28312646694224
 20
271.518840334231
 30
0.0
 10
79.43309043994246
 20
271.3953298086252
 30
0.0
 10
79.52439918946563
 20
271.2448382038328
 30
0.0
 10
79.53539058083167
 20
271.1380405807604
 30
0.0
 10
79.54097505879668
 20
271.083779118048
 30
0.0
  0
LINE
  5
498
330
1F
100
AcDbEntity
  8
0
  6
CONTINUOUS
 62
     7
100
AcDbLine
 10
74.5613750588
 20
333.8613348641
 30
0.0
 11
74.5613750588
 21
333.4517348641
 31
0.0
  0
LINE
  5
499
330
1F
100
AcDbEntity
  8
0
  6
CONTINUOUS
 62
     7
100
AcDbLine
 10
76.1889750588
 20
333.8613348641
 30
0.0
 11
74.5613750588
 21
333.8613348641
 31
0.0
  0
LINE
  5
49A
330
1F
100
AcDbEntity
  8
0
  6
CONTINUOUS
 62
     7
100
AcDbLine
 10
76.1889750588
 20
335.1009348641
 30
0.0
 11
76.1889750588
 21
333.8613348641
 31
0.0
  0
LINE
  5
49B
330
1F
100
AcDbEntity
  8
0
  6
CONTINUOUS
 62
     7
100
AcDbLine
 10
76.8140750588
 20
335.1009348641
 30
0.0
 11
76.1889750588
 21
335.1009348641
 31
0.0
  0
LINE
  5
49C
330
1F
100
AcDbEntity
  8
0
  6
CONTINUOUS
 62
     7
100
AcDbLine
 10
76.8140750588
 20
333.9135348641
 30
0.0
 11
76.8140750588
 21
335.1009348641
 31
0.0
  0
SPLINE
  5
49D
330
1F
100
AcDbEntity
  8
0
  6
CONTINUOUS
 62
     7
100
AcDbSpline
210
0.0
220
0.0
230
1.0
 70
     8
 71
     3
 72
    11
 73
     7
 74
     0
 42
0.00000001
 43
0.00000001
 40
0.0
 40
0.0
 40
0.0
 40
0.0
 40
0.2832831090848585
 40
0.558059811086301
 40
0.7754688048580562
 40
1.0
 40
1.0
 40
1.0
 40
1.0
 10
76.35227505879661
 20
333.4517348640775
 30
0.0
 10
76.42091964181775
 20
333.4607391965377
 30
0.0
 10
76.55614755271095
 20
333.4784774799388
 30
0.0
 10
76.70614183343964
 20
333.6019795408681
 30
0.0
 10
76.79748946934352
 20
333.7524691986686
 30
0.0
 10
76.80848744871894
 20
333.8592725698279
 30
0.0
 10
76.81407505879662
 20
333.9135348640775
 30
0.0
  0
LINE
  5
49E
330
1F
100
AcDbEntity
  8
0
  6
CONTINUOUS
 62
     7
100
AcDbLine
 10
74.5613750588
 20
333.4517348641
 30
0.0
 11
76.3522750588
 21
333.4517348641
 31
0.0
  0
LINE
  5
49F
330
1F
100
AcDbEntity
  8
0
  6
CONTINUOUS
 62
     7
100
AcDbLine
 10
80.3169750588
 20
271.135979118
 30
0.0
 11
81.9445750588
 21
271.135979118
 31
0.0
  0
LINE
  5
4A0
330
1F
100
AcDbEntity
  8
0
  6
CONTINUOUS
 62
     7
100
AcDbLine
 10
80.3169750588
 20
269.896379118
 30
0.0
 11
80.3169750588
 21
271.135979118
 31
0.0
  0
LINE
  5
4A1
330
1F
100
AcDbEntity
  8
0
  6
CONTINUOUS
 62
     7
100
AcDbLine
 10
79.6918750588
 20
269.896379118
 30
0.0
 11
80.3169750588
 21
269.896379118
 31
0.0
  0
LINE
  5
4A2
330
1F
100
AcDbEntity
  8
0
  6
CONTINUOUS
 62
     7
100
AcDbLine
 10
79.6918750588
 20
271.083779118
 30
0.0
 11
79.6918750588
 21
269.896379118
 31
0.0
  0
SPLINE
  5
4A3
330
1F
100
AcDbEntity
  8
0
  6
CONTINUOUS
 62
     7
100
AcDbSpline
210
0.0
220
0.0
230
1.0
 70
     8
 71
     3
 72
    11
 73
     7
 74
     0
 42
0.00000001
 43
0.00000001
 40
0.0
 40
0.0
 40
0.0
 40
0.0
 40
0.2832831090848503
 40
0.5580598110863071
 40
0.7754688048580611
 40
1.0
 40
1.0
 40
1.0
 40
1.0
 10
80.15367505879667
 20
271.5455791180481
 30
0.0
 10
80.08503047577553
 20
271.5365747855878
 30
0.0
 10
79.9498025648823
 20
271.5188365021868
 30
0.0
 10
79.79980828415361
 20
271.3953344412575
 30
0.0
 10
79.70846064824974
 20
271.2448447834569
 30
0.0
 10
79.69746266887434
 20
271.1380414122977
 30
0.0
 10
79.69187505879665
 20
271.083779118048
 30
0.0
  0
LINE
  5
4A4
330
1F
100
AcDbEntity
  8
0
  6
CONTINUOUS
 62
     7
100
AcDbLine
 10
81.9445750588
 20
271.545579118
 30
0.0
 11
80.1536750588
 21
271.545579118
 31
0.0
  0
LINE
  5
4A5
330
1F
100
AcDbEntity
  8
0
  6
CONTINUOUS
 62
     7
100
AcDbLine
 10
81.9445750588
 20
271.135979118
 30
0.0
 11
81.9445750588
 21
271.545579118
 31
0.0
  0
LINE
  5
4A6
330
1F
100
AcDbEntity
  8
0
  6
CONTINUOUS
 62
     7
100
AcDbLine
 10
81.5889750588
 20
270.553979118
 30
0.0
 11
81.5889750588
 21
270.898879118
 31
0.0
  0
LINE
  5
4A7
330
1F
100
AcDbEntity
  8
0
  6
CONTINUOUS
 62
     7
100
AcDbLine
 10
80.5433750588
 20
270.553979118
 30
0.0
 11
81.5889750588
 21
270.553979118
 31
0.0
  0
LINE
  5
4A8
330
1F
100
AcDbEntity
  8
0
  6
CONTINUOUS
 62
     7
100
AcDbLine
 10
81.5889750588
 20
270.898879118
 30
0.0
 11
80.5433750588
 21
270.898879118
 31
0.0
  0
LINE
  5
4A9
330
1F
100
AcDbEntity
  8
0
  6
CONTINUOUS
 62
     7
100
AcDbLine
 10
80.5433750588
 20
270.898879118
 30
0.0
 11
80.5433750588
 21
270.553979118
 31
0.0
  0
LINE
  5
4AA
330
1F
100
AcDbEntity
  8
0
  6
CONTINUOUS
 62
     7
100
AcDbLine
 10
74.9169750588
 20
334.4433348641
 30
0.0
 11
74.9169750588
 21
334.0984348641
 31
0.0
  0
LINE
  5
4AB
330
1F
100
AcDbEntity
  8
0
  6
CONTINUOUS
 62
     7
100
AcDbLine
 10
75.9625750588
 20
334.4433348641
 30
0.0
 11
74.9169750588
 21
334.4433348641
 31
0.0
  0
LINE
  5
4AC
330
1F
100
AcDbEntity
  8
0
  6
CONTINUOUS
 62
     7
100
AcDbLine
 10
75.9625750588
 20
334.0984348641
 30
0.0
 11
75.9625750588
 21
334.4433348641
 31
0.0
  0
LINE
  5
4AD
330
1F
100
AcDbEntity
  8
0
  6
CONTINUOUS
 62
     7
100
AcDbLine
 10
74.9169750588
 20
334.0984348641
 30
0.0
 11
75.9625750588
 21
334.0984348641
 31
0.0
  0
LINE
  5
4AE
330
1F
100
AcDbEntity
  8
0
  6
CONTINUOUS
 62
     7
100
AcDbLine
 10
79.943238829
 20
311.732111455
 30
0.0
 11
87.943238829
 21
311.732111455
 31
0.0
  0
ARC
  5
4AF
330
1F
100
AcDbEntity
  8
0
  6
CONTINUOUS
 62
     7
100
AcDbCircle
 10
75.943238829
 20
314.732111455
 30
0.0
 40
5.000000000000014
100
AcDbArc
 50
323.1301023542
 51
0.0
  0
LINE
  5
4B0
330
1F
100
AcDbEntity
  8
0
  6
CONTINUOUS
 62
     7
100
AcDbLine
 10
80.943238829
 20
314.732111455
 30
0.0
 11
86.943238829
 21
314.732111455
 31
0.0
  0
ARC
  5
4B1
330
1F
100
AcDbEntity
  8
0
  6
CONTINUOUS
 62
     7
100
AcDbCircle
 10
91.943238829
 20
314.732111455
 30
0.0
 40
5.0
100
AcDbArc
 50
180.0
 51
216.8698976458
  0
LINE
  5
4B2
330
1F
100
AcDbEntity
  8
0
  6
CONTINUOUS
 62
     7
100
AcDbLine
 10
79.943238829
 20
311.732111455
 30
0.0
 11
79.943238829
 21
293.732111455
 31
0.0
  0
LINE
  5
4B3
330
1F
100
AcDbEntity
  8
0
  6
CONTINUOUS
 62
     7
100
AcDbLine
 10
87.943238829
 20
311.732111455
 30
0.0
 11
87.943238829
 21
293.732111455
 31
0.0
  0
LINE
  5
4B4
330
1F
100
AcDbEntity
  8
0
  6
CONTINUOUS
 62
     7
100
AcDbLine
 10
79.943238829
 20
293.732111455
 30
0.0
 11
87.943238829
 21
293.732111455
 31
0.0
  0
ARC
  5
4B5
330
1F
100
AcDbEntity
  8
0
  6
CONTINUOUS
 62
     7
100
AcDbCircle
 10
91.943238829
 20
290.732111455
 30
0.0
 40
4.999999999999988
100
AcDbArc
 50
143.1301023542
 51
180.0
  0
LINE
  5
4B6
330
1F
100
AcDbEntity
  8
0
  6
CONTINUOUS
 62
     7
100
AcDbLine
 10
86.943238829
 20
290.732111455
 30
0.0
 11
80.943238829
 21
290.732111455
 31
0.0
  0
ARC
  5
4B7
330
1F
100
AcDbEntity
  8
0
  6
CONTINUOUS
 62
     7
100
AcDbCircle
 10
75.943238829
 20
290.732111455
 30
0.0
 40
5.000000000000014
100
AcDbArc
 50
0.0
 51
36.8698976458
  0
LINE
  5
4B8
330
1F
100
AcDbEntity
  8
0
  6
CONTINUOUS
 62
     7
100
AcDbLine
 10
80.943238829
 20
314.732111455
 30
0.0
 11
80.943238829
 21
315.4517348641
 31
0.0
  0
LINE
  5
4B9
330
1F
100
AcDbEntity
  8
0
  6
CONTINUOUS
 62
     7
100
AcDbLine
 10
86.943238829
 20
314.732111455
 30
0.0
 11
86.943238829
 21
315.4517348641
 31
0.0
  0
LINE
  5
4BA
330
1F
100
AcDbEntity
  8
0
  6
CONTINUOUS
 62
     7
100
AcDbLine
 10
80.943238829
 20
289.545579118
 30
0.0
 11
80.943238829
 21
290.732111455
 31
0.0
  0
LINE
  5
4BB
330
1F
100
AcDbEntity
  8
0
  6
CONTINUOUS
 62
     7
100
AcDbLine
 10
86.943238829
 20
289.545579118
 30
0.0
 11
86.943238829
 21
290.732111455
 31
0.0
  0
LINE
  5
4BC
330
1F
100
AcDbEntity
  8
0
  6
CONTINUOUS
 62
     7
100
AcDbLine
 10
77.493238829
 20
315.7017348641
 30
0.0
 11
90.493238829
 21
315.7017348641
 31
0.0
  0
LINE
  5
4BD
330
1F
100
AcDbEntity
  8
0
  6
CONTINUOUS
 62
     7
100
AcDbLine
 10
90.243238829
 20
315.4517348641
 30
0.0
 11
77.743238829
 21
315.4517348641
 31
0.0
  0
LINE
  5
4BE
330
1F
100
AcDbEntity
  8
0
  6
CONTINUOUS
 62
     7
100
AcDbLine
 10
81.741209746
 20
289.295579118
 30
0.0
 11
77.493238829
 21
289.295579118
 31
0.0
  0
LINE
  5
4BF
330
1F
100
AcDbEntity
  8
0
  6
CONTINUOUS
 62
     7
100
AcDbLine
 10
90.493238829
 20
289.295579118
 30
0.0
 11
81.741209746
 21
289.295579118
 31
0.0
  0
LINE
  5
4C0
330
1F
100
AcDbEntity
  8
0
  6
CONTINUOUS
 62
     7
100
AcDbLine
 10
81.8278262492
 20
289.545579118
 30
0.0
 11
90.243238829
 21
289.545579118
 31
0.0
  0
LINE
  5
4C1
330
1F
100
AcDbEntity
  8
0
  6
CONTINUOUS
 62
     7
100
AcDbLine
 10
77.743238829
 20
289.545579118
 30
0.0
 11
81.8278262492
 21
289.545579118
 31
0.0
  0
LINE
  5
4C2
330
1F
100
AcDbEntity
  8
0
  6
CONTINUOUS
 62
     7
100
AcDbLine
 10
87.2332233968
 20
325.4517348641
 30
0.0
 11
80.7532542611
 21
325.4517348641
 31
0.0
  0
LINE
  5
4C3
330
1F
100
AcDbEntity
  8
0
  6
CONTINUOUS
 62
     7
100
AcDbLine
 10
83.993238829
 20
279.545579118
 30
0.0
 11
87.2332233968
 21
279.545579118
 31
0.0
  0
LINE
  5
4C4
330
1F
100
AcDbEntity
  8
0
  6
CONTINUOUS
 62
     7
100
AcDbLine
 10
80.7532542611
 20
279.545579118
 30
0.0
 11
83.993238829
 21
279.545579118
 31
0.0
  0
LINE
  5
4C5
330
1F
100
AcDbEntity
  8
0
  6
CONTINUOUS
 62
     7
100
AcDbLine
 10
91.943238829
 20
259.545579118
 30
0.0
 11
96.943238829
 21
259.545579118
 31
0.0
  0
LINE
  5
4C6
330
1F
100
AcDbEntity
  8
0
  6
CONTINUOUS
 62
     7
100
AcDbLine
 10
91.943238829
 20
259.545579118
 30
0.0
 11
91.943238829
 21
279.545579118
 31
0.0
  0
LINE
  5
4C7
330
1F
100
AcDbEntity
  8
0
  6
CONTINUOUS
 62
     7
100
AcDbLine
 10
91.943238829
 20
279.545579118
 30
0.0
 11
96.943238829
 21
279.545579118
 31
0.0
  0
LINE
  5
4C8
330
1F
100
AcDbEntity
  8
0
  6
CONTINUOUS
 62
     7
100
AcDbLine
 10
96.943238829
 20
279.545579118
 30
0.0
 11
96.943238829
 21
273.9116047013
 31
0.0
  0
SPLINE
  5
4C9
330
1F
100
AcDbEntity
  8
0
  6
CONTINUOUS
 62
     7
100
AcDbSpline
210
0.0
220
0.0
230
1.0
 70
     8
 71
     3
 72
    19
 73
    15
 74
     0
 42
0.00000001
 43
0.00000001
 40
0.0
 40
0.0
 40
0.0
 40
0.0
 40
0.0632672408983184
 40
0.126658294423752
 40
0.2519232603000459
 40
0.3758666526220504
 40
0.4379161708751731
 40
0.4996682302707789
 40
0.5613263102837727
 40
0.6234546600318718
 40
0.7477882506711583
 40
0.8729325070024272
 40
0.9363335027942734
 40
1.0
 40
1.0
 40
1.0
 40
1.0
 10
96.94323882896765
 20
268.1795535348024
 30
0.0
 10
96.93636210477455
 20
268.1908260610406
 30
0.0
 10
96.92259519878726
 20
268.2133931736079
 30
0.0
 10
96.78431792749944
 20
268.4466893633822
 30
0.0
 10
96.49539402065736
 20
268.9682179664616
 30
0.0
 10
96.17592056209182
 20
269.7405204861007
 30
0.0
 10
96.01442273028762
 20
270.4637110986029
 30
0.0
 10
95.9690132639307
 20
271.0421156891757
 30
0.0
 10
96.01342524294881
 20
271.6209785625257
 30
0.0
 10
96.17421393785202
 20
272.3460471176953
 30
0.0
 10
96.4940110489541
 20
273.1202077288372
 30
0.0
 10
96.78342190859055
 20
273.6429147366169
 30
0.0
 10
96.9223801704945
 20
273.877415856969
 30
0.0
 10
96.93627626440335
 20
273.9001925562463
 30
0.0
 10
96.94323882896765
 20
273.9116047012936
 30
0.0
  0
LINE
  5
4CA
330
1F
100
AcDbEntity
  8
0
  6
CONTINUOUS
 62
     7
100
AcDbLine
 10
96.943238829
 20
268.1795535348
 30
0.0
 11
96.943238829
 21
259.545579118
 31
0.0
  0
LINE
  5
4CB
330
1F
100
AcDbEntity
  8
0
  6
CONTINUOUS
 62
     7
100
AcDbLine
 10
63.943238829
 20
229.545579118
 30
0.0
 11
58.943238829
 21
229.545579118
 31
0.0
  0
LINE
  5
4CC
330
1F
100
AcDbEntity
  8
0
  6
CONTINUOUS
 62
     7
100
AcDbLine
 10
58.943238829
 20
229.545579118
 30
0.0
 11
58.943238829
 21
279.545579118
 31
0.0
  0
LINE
  5
4CD
330
1F
100
AcDbEntity
  8
0
  6
CONTINUOUS
 62
     7
100
AcDbLine
 10
63.943238829
 20
279.545579118
 30
0.0
 11
63.943238829
 21
229.545579118
 31
0.0
  0
LINE
  5
4CE
330
1F
100
AcDbEntity
  8
0
  6
CONTINUOUS
 62
     7
100
AcDbLine
 10
58.943238829
 20
279.545579118
 30
0.0
 11
63.943238829
 21
279.545579118
 31
0.0
  0
ARC
  5
4CF
330
1F
100
AcDbEntity
  8
0
  6
CONTINUOUS
 62
     7
100
AcDbCircle
 10
106.943238829
 20
259.545579118
 30
0.0
 40
15.00000000000003
100
AcDbArc
 50
180.0
 51
270.0
  0
LINE
  5
4D0
330
1F
100
AcDbEntity
  8
0
  6
CONTINUOUS
 62
     7
100
AcDbLine
 10
193.943238829
 20
244.545579118
 30
0.0
 11
106.943238829
 21
244.545579118
 31
0.0
  0
ARC
  5
4D1
330
1F
100
AcDbEntity
  8
0
  6
CONTINUOUS
 62
     7
100
AcDbCircle
 10
193.943238829
 20
239.545579118
 30
0.0
 40
5.000000000000028
100
AcDbArc
 50
0.0
 51
90.0
  0
LINE
  5
4D2
330
1F
100
AcDbEntity
  8
0
  6
CONTINUOUS
 62
     7
100
AcDbLine
 10
198.943238829
 20
229.545579118
 30
0.0
 11
198.943238829
 21
239.545579118
 31
0.0
  0
ARC
  5
4D3
330
1F
100
AcDbEntity
  8
0
  6
CONTINUOUS
 62
     7
100
AcDbCircle
 10
193.943238829
 20
229.545579118
 30
0.0
 40
5.000000000000028
100
AcDbArc
 50
270.0
 51
0.0
  0
LINE
  5
4D4
330
1F
100
AcDbEntity
  8
0
  6
CONTINUOUS
 62
     7
100
AcDbLine
 10
68.943238829
 20
224.545579118
 30
0.0
 11
193.943238829
 21
224.545579118
 31
0.0
  0
ARC
  5
4D5
330
1F
100
AcDbEntity
  8
0
  6
CONTINUOUS
 62
     7
100
AcDbCircle
 10
68.943238829
 20
229.545579118
 30
0.0
 40
4.999999999999993
100
AcDbArc
 50
180.0
 51
270.0
  0
LINE
  5
4D6
330
1F
100
AcDbEntity
  8
0
  6
CONTINUOUS
 62
     7
100
AcDbLine
 10
91.943238829
 20
279.545579118
 30
0.0
 11
87.2332233968
 21
279.545579118
 31
0.0
  0
LINE
  5
4D7
330
1F
100
AcDbEntity
  8
0
  6
CONTINUOUS
 62
     7
100
AcDbLine
 10
80.7532542611
 20
279.545579118
 30
0.0
 11
63.943238829
 21
279.545579118
 31
0.0
  0
ARC
  5
4D8
330
1F
100
AcDbEntity
  8
0
  6
CONTINUOUS
 62
     7
100
AcDbCircle
 10
106.943238829
 20
259.545579118
 30
0.0
 40
10.00000000000003
100
AcDbArc
 50
180.0
 51
270.0
  0
LINE
  5
4D9
330
1F
100
AcDbEntity
  8
0
  6
CONTINUOUS
 62
     7
100
AcDbLine
 10
106.943238829
 20
244.545579118
 30
0.0
 11
106.943238829
 21
249.545579118
 31
0.0
  0
LINE
  5
4DA
330
1F
100
AcDbEntity
  8
0
  6
CONTINUOUS
 62
     7
100
AcDbLine
 10
106.943238829
 20
249.545579118
 30
0.0
 11
193.943238829
 21
249.545579118
 31
0.0
  0
LINE
  5
4DB
330
1F
100
AcDbEntity
  8
0
  6
CONTINUOUS
 62
     7
100
AcDbLine
 10
193.943238829
 20
244.545579118
 30
0.0
 11
193.943238829
 21
249.545579118
 31
0.0
  0
ARC
  5
4DC
330
1F
100
AcDbEntity
  8
0
  6
CONTINUOUS
 62
     7
100
AcDbCircle
 10
193.943238829
 20
239.545579118
 30
0.0
 40
10.00000000000003
100
AcDbArc
 50
0.0
 51
90.0
  0
LINE
  5
4DD
330
1F
100
AcDbEntity
  8
0
  6
CONTINUOUS
 62
     7
100
AcDbLine
 10
198.943238829
 20
239.545579118
 30
0.0
 11
203.943238829
 21
239.545579118
 31
0.0
  0
LINE
  5
4DE
330
1F
100
AcDbEntity
  8
0
  6
CONTINUOUS
 62
     7
100
AcDbLine
 10
203.943238829
 20
239.545579118
 30
0.0
 11
203.943238829
 21
229.545579118
 31
0.0
  0
LINE
  5
4DF
330
1F
100
AcDbEntity
  8
0
  6
CONTINUOUS
 62
     7
100
AcDbLine
 10
198.943238829
 20
229.545579118
 30
0.0
 11
203.943238829
 21
229.545579118
 31
0.0
  0
LINE
  5
4E0
330
1F
100
AcDbEntity
  8
0
  6
CONTINUOUS
 62
     7
100
AcDbLine
 10
68.943238829
 20
224.545579118
 30
0.0
 11
68.943238829
 21
219.545579118
 31
0.0
  0
ARC
  5
4E1
330
1F
100
AcDbEntity
  8
0
  6
CONTINUOUS
 62
     7
100
AcDbCircle
 10
68.943238829
 20
229.545579118
 30
0.0
 40
10.0
100
AcDbArc
 50
180.0
 51
270.0
  0
ARC
  5
4E2
330
1F
100
AcDbEntity
  8
0
  6
CONTINUOUS
 62
     7
100
AcDbCircle
 10
193.943238829
 20
229.545579118
 30
0.0
 40
10.00000000000003
100
AcDbArc
 50
270.0
 51
0.0
  0
LINE
  5
4E3
330
1F
100
AcDbEntity
  8
0
  6
CONTINUOUS
 62
     7
100
AcDbLine
 10
193.943238829
 20
224.545579118
 30
0.0
 11
193.943238829
 21
219.545579118
 31
0.0
  0
LINE
  5
4E4
330
1F
100
AcDbEntity
  8
0
  6
CONTINUOUS
 62
     7
100
AcDbLine
 10
193.943238829
 20
219.545579118
 30
0.0
 11
68.943238829
 21
219.545579118
 31
0.0
  0
SPLINE
  5
4E5
330
1F
100
AcDbEntity
  8
0
  6
CONTINUOUS
 62
     7
100
AcDbSpline
210
0.0
220
0.0
230
1.0
 70
     8
 71
     3
 72
     9
 73
     5
 74
     0
 42
0.00000001
 43
0.00000001
 40
0.0
 40
0.0
 40
0.0
 40
0.0
 40
0.4820312076058887
 40
1.0
 40
1.0
 40
1.0
 40
1.0
 10
96.77522581057993
 20
273.4948310008293
 30
0.0
 10
96.7480655443643
 20
273.4555044117117
 30
0.0
 10
96.69172009247845
 20
273.3739192601756
 30
0.0
 10
96.5722363099982
 20
273.1660235529228
 30
0.0
 10
96.51034743947626
 20
273.0583400644931
 30
0.0
  0
SPLINE
  5
4E6
330
1F
100
AcDbEntity
  8
0
  6
CONTINUOUS
 62
     7
100
AcDbSpline
210
0.0
220
0.0
230
1.0
 70
     8
 71
     3
 72
     9
 73
     5
 74
     0
 42
0.00000001
 43
0.00000001
 40
0.0
 40
0.0
 40
0.0
 40
0.0
 40
0.5194634107604729
 40
1.0
 40
1.0
 40
1.0
 40
1.0
 10
96.51033248553989
 20
269.0328131218816
 30
0.0
 10
96.57255975091763
 20
268.9246005679032
 30
0.0
 10
96.69235118201502
 20
268.7162845407552
 30
0.0
 10
96.74861196497409
 20
268.6348343433193
 30
0.0
 10
96.77564732972519
 20
268.5956945432505
 30
0.0
  0
LINE
  5
4E7
330
1F
100
AcDbEntity
  8
0
  6
CONTINUOUS
 62
     7
100
AcDbLine
 10
96.943238829
 20
268.1795535348
 30
0.0
 11
96.8092632522
 21
268.545579118
 31
0.0
  0
LINE
  5
4E8
330
1F
100
AcDbEntity
  8
0
  6
CONTINUOUS
 62
     7
100
AcDbLine
 10
96.8092632522
 20
273.545579118
 30
0.0
 11
96.943238829
 21
273.9116047013
 31
0.0
  0
LINE
  5
4E9
330
1F
100
AcDbEntity
  8
0
  6
CONTINUOUS
 62
     7
100
AcDbLine
 10
96.8092632522
 20
268.545579118
 30
0.0
 11
96.7752258106
 21
268.5963272353
 31
0.0
  0
LINE
  5
4EA
330
1F
100
AcDbEntity
  8
0
  6
CONTINUOUS
 62
     7
100
AcDbLine
 10
96.7756473297
 20
273.4954636928
 30
0.0
 11
96.8092632522
 21
273.545579118
 31
0.0
  0
SPLINE
  5
4EB
330
1F
100
AcDbEntity
  8
0
  6
CONTINUOUS
 62
     7
100
AcDbSpline
210
0.0
220
0.0
230
1.0
 70
     8
 71
     3
 72
     9
 73
     5
 74
     0
 42
0.00000001
 43
0.00000001
 40
0.0
 40
0.0
 40
0.0
 40
0.0
 40
0.9999728499388525
 40
1.0
 40
1.0
 40
1.0
 40
1.0
 10
96.94323882896764
 20
273.9116047012936
 30
0.0
 10
96.94233798819494
 20
273.9108555658765
 30
0.0
 10
96.94143712296369
 20
273.9101064101197
 30
0.0
 10
96.90869558614685
 20
273.8541488265325
 30
0.0
 10
96.90869469721211
 20
273.8541473072806
 30
0.0
  0
LINE
  5
4EC
330
1F
100
AcDbEntity
  8
0
  6
CONTINUOUS
 62
     7
100
AcDbLine
 10
96.9082642392
 20
268.2377316957
 30
0.0
 11
96.943238829
 21
268.1795535348
 31
0.0
  0
ARC
  5
4ED
330
1F
100
AcDbEntity
  8
0
  6
CONTINUOUS
 62
     7
100
AcDbCircle
 10
68.943238829
 20
375.4517348641
 30
0.0
 40
10.00000000000006
100
AcDbArc
 50
90.0
 51
180.0
  0
LINE
  5
4EE
330
1F
100
AcDbEntity
  8
0
  6
CONTINUOUS
 62
     7
100
AcDbLine
 10
68.943238829
 20
385.4517348641
 30
0.0
 11
68.943238829
 21
380.4517348641
 31
0.0
  0
ARC
  5
4EF
330
1F
100
AcDbEntity
  8
0
  6
CONTINUOUS
 62
     7
100
AcDbCircle
 10
68.943238829
 20
375.4517348641
 30
0.0
 40
5.000000000000057
100
AcDbArc
 50
90.0
 51
180.0
  0
LINE
  5
4F0
330
1F
100
AcDbEntity
  8
0
  6
CONTINUOUS
 62
     7
100
AcDbLine
 10
58.943238829
 20
375.4517348641
 30
0.0
 11
63.943238829
 21
375.4517348641
 31
0.0
  0
LINE
  5
4F1
330
1F
100
AcDbEntity
  8
0
  6
CONTINUOUS
 62
     7
100
AcDbLine
 10
193.943238829
 20
385.4517348641
 30
0.0
 11
68.943238829
 21
385.4517348641
 31
0.0
  0
LINE
  5
4F2
330
1F
100
AcDbEntity
  8
0
  6
CONTINUOUS
 62
     7
100
AcDbLine
 10
193.943238829
 20
385.4517348641
 30
0.0
 11
193.943238829
 21
380.4517348641
 31
0.0
  0
LINE
  5
4F3
330
1F
100
AcDbEntity
  8
0
  6
CONTINUOUS
 62
     7
100
AcDbLine
 10
193.943238829
 20
380.4517348641
 30
0.0
 11
68.943238829
 21
380.4517348641
 31
0.0
  0
ARC
  5
4F4
330
1F
100
AcDbEntity
  8
0
  6
CONTINUOUS
 62
     7
100
AcDbCircle
 10
193.943238829
 20
375.4517348641
 30
0.0
 40
10.00000000000006
100
AcDbArc
 50
0.0
 51
90.0
  0
LINE
  5
4F5
330
1F
100
AcDbEntity
  8
0
  6
CONTINUOUS
 62
     7
100
AcDbLine
 10
203.943238829
 20
375.4517348641
 30
0.0
 11
198.943238829
 21
375.4517348641
 31
0.0
  0
ARC
  5
4F6
330
1F
100
AcDbEntity
  8
0
  6
CONTINUOUS
 62
     7
100
AcDbCircle
 10
193.943238829
 20
375.4517348641
 30
0.0
 40
5.000000000000057
100
AcDbArc
 50
0.0
 51
90.0
  0
LINE
  5
4F7
330
1F
100
AcDbEntity
  8
0
  6
CONTINUOUS
 62
     7
100
AcDbLine
 10
63.943238829
 20
375.4517348641
 30
0.0
 11
63.943238829
 21
325.4517348641
 31
0.0
  0
LINE
  5
4F8
330
1F
100
AcDbEntity
  8
0
  6
CONTINUOUS
 62
     7
100
AcDbLine
 10
198.943238829
 20
365.4517348641
 30
0.0
 11
198.943238829
 21
375.4517348641
 31
0.0
  0
ARC
  5
4F9
330
1F
100
AcDbEntity
  8
0
  6
CONTINUOUS
 62
     7
100
AcDbCircle
 10
193.943238829
 20
365.4517348641
 30
0.0
 40
5.000000000000028
100
AcDbArc
 50
270.0
 51
0.0
  0
LINE
  5
4FA
330
1F
100
AcDbEntity
  8
0
  6
CONTINUOUS
 62
     7
100
AcDbLine
 10
106.943238829
 20
360.4517348641
 30
0.0
 11
193.943238829
 21
360.4517348641
 31
0.0
  0
ARC
  5
4FB
330
1F
100
AcDbEntity
  8
0
  6
CONTINUOUS
 62
     7
100
AcDbCircle
 10
106.943238829
 20
345.4517348641
 30
0.0
 40
15.0
100
AcDbArc
 50
90.0
 51
180.0
  0
LINE
  5
4FC
330
1F
100
AcDbEntity
  8
0
  6
CONTINUOUS
 62
     7
100
AcDbLine
 10
91.943238829
 20
325.4517348641
 30
0.0
 11
91.943238829
 21
345.4517348641
 31
0.0
  0
LINE
  5
4FD
330
1F
100
AcDbEntity
  8
0
  6
CONTINUOUS
 62
     7
100
AcDbLine
 10
63.943238829
 20
325.4517348641
 30
0.0
 11
80.7532542611
 21
325.4517348641
 31
0.0
  0
LINE
  5
4FE
330
1F
100
AcDbEntity
  8
0
  6
CONTINUOUS
 62
     7
100
AcDbLine
 10
87.2332233968
 20
325.4517348641
 30
0.0
 11
91.943238829
 21
325.4517348641
 31
0.0
  0
LINE
  5
4FF
330
1F
100
AcDbEntity
  8
0
  6
CONTINUOUS
 62
     7
100
AcDbLine
 10
58.943238829
 20
375.4517348641
 30
0.0
 11
58.943238829
 21
325.4517348641
 31
0.0
  0
LINE
  5
500
330
1F
100
AcDbEntity
  8
0
  6
CONTINUOUS
 62
     7
100
AcDbLine
 10
63.943238829
 20
325.4517348641
 30
0.0
 11
58.943238829
 21
325.4517348641
 31
0.0
  0
LINE
  5
501
330
1F
100
AcDbEntity
  8
0
  6
CONTINUOUS
 62
     7
100
AcDbLine
 10
203.943238829
 20
365.4517348641
 30
0.0
 11
203.943238829
 21
375.4517348641
 31
0.0
  0
LINE
  5
502
330
1F
100
AcDbEntity
  8
0
  6
CONTINUOUS
 62
     7
100
AcDbLine
 10
203.943238829
 20
365.4517348641
 30
0.0
 11
198.943238829
 21
365.4517348641
 31
0.0
  0
ARC
  5
503
330
1F
100
AcDbEntity
  8
0
  6
CONTINUOUS
 62
     7
100
AcDbCircle
 10
193.943238829
 20
365.4517348641
 30
0.0
 40
10.00000000000003
100
AcDbArc
 50
270.0
 51
0.0
  0
LINE
  5
504
330
1F
100
AcDbEntity
  8
0
  6
CONTINUOUS
 62
     7
100
AcDbLine
 10
193.943238829
 20
355.4517348641
 30
0.0
 11
193.943238829
 21
360.4517348641
 31
0.0
  0
LINE
  5
505
330
1F
100
AcDbEntity
  8
0
  6
CONTINUOUS
 62
     7
100
AcDbLine
 10
106.943238829
 20
355.4517348641
 30
0.0
 11
193.943238829
 21
355.4517348641
 31
0.0
  0
LINE
  5
506
330
1F
100
AcDbEntity
  8
0
  6
CONTINUOUS
 62
     7
100
AcDbLine
 10
106.943238829
 20
355.4517348641
 30
0.0
 11
106.943238829
 21
360.4517348641
 31
0.0
  0
ARC
  5
507
330
1F
100
AcDbEntity
  8
0
  6
CONTINUOUS
 62
     7
100
AcDbCircle
 10
106.943238829
 20
345.4517348641
 30
0.0
 40
10.0
100
AcDbArc
 50
90.0
 51
180.0
  0
LINE
  5
508
330
1F
100
AcDbEntity
  8
0
  6
CONTINUOUS
 62
     7
100
AcDbLine
 10
96.943238829
 20
345.4517348641
 30
0.0
 11
91.943238829
 21
345.4517348641
 31
0.0
  0
LINE
  5
509
330
1F
100
AcDbEntity
  8
0
  6
CONTINUOUS
 62
     7
100
AcDbLine
 10
96.943238829
 20
325.4517348641
 30
0.0
 11
91.943238829
 21
325.4517348641
 31
0.0
  0
LINE
  5
50A
330
1F
100
AcDbEntity
  8
0
  6
CONTINUOUS
 62
     7
100
AcDbLine
 10
96.943238829
 20
336.8177604473
 30
0.0
 11
96.943238829
 21
345.4517348641
 31
0.0
  0
SPLINE
  5
50B
330
1F
100
AcDbEntity
  8
0
  6
CONTINUOUS
 62
     7
100
AcDbSpline
210
0.0
220
0.0
230
1.0
 70
     8
 71
     3
 72
    19
 73
    15
 74
     0
 42
0.00000001
 43
0.00000001
 40
0.0
 40
0.0
 40
0.0
 40
0.0
 40
0.0632672408983183
 40
0.1266582944237516
 40
0.2519232603000461
 40
0.3758666526220507
 40
0.4379161708751733
 40
0.499668230270779
 40
0.5613263102837726
 40
0.623454660031872
 40
0.7477882506711587
 40
0.8729325070024274
 40
0.9363335027942741
 40
0.9999999999999999
 40
0.9999999999999999
 40
0.9999999999999999
 40
0.9999999999999999
 10
96.94323882896764
 20
331.0857092808322
 30
0.0
 10
96.93636210477455
 20
331.0969818070704
 30
0.0
 10
96.92259519878726
 20
331.1195489196377
 30
0.0
 10
96.78431792749947
 20
331.352845109412
 30
0.0
 10
96.49539402065736
 20
331.8743737124914
 30
0.0
 10
96.17592056209182
 20
332.6466762321305
 30
0.0
 10
96.0144227302876
 20
333.3698668446327
 30
0.0
 10
95.96901326393073
 20
333.9482714352055
 30
0.0
 10
96.01342524294878
 20
334.5271343085555
 30
0.0
 10
96.17421393785203
 20
335.2522028637251
 30
0.0
 10
96.4940110489541
 20
336.0263634748669
 30
0.0
 10
96.78342190859057
 20
336.5490704826467
 30
0.0
 10
96.9223801704945
 20
336.7835716029987
 30
0.0
 10
96.93627626440335
 20
336.806348302276
 30
0.0
 10
96.94323882896764
 20
336.8177604473234
 30
0.0
  0
LINE
  5
50C
330
1F
100
AcDbEntity
  8
0
  6
CONTINUOUS
 62
     7
100
AcDbLine
 10
96.943238829
 20
325.4517348641
 30
0.0
 11
96.943238829
 21
331.0857092808
 31
0.0
  0
SPLINE
  5
50D
330
1F
100
AcDbEntity
  8
0
  6
CONTINUOUS
 62
     7
100
AcDbSpline
210
0.0
220
0.0
230
1.0
 70
     8
 71
     3
 72
     9
 73
     5
 74
     0
 42
0.00000001
 43
0.00000001
 40
0.0
 40
0.0
 40
0.0
 40
0.0
 40
0.4820312076059272
 40
1.0
 40
1.0
 40
1.0
 40
1.0
 10
96.77522581057993
 20
336.4009867468591
 30
0.0
 10
96.7480655443643
 20
336.3616601577415
 30
0.0
 10
96.69172009247845
 20
336.2800750062054
 30
0.0
 10
96.57223630999825
 20
336.0721792989526
 30
0.0
 10
96.51034743947629
 20
335.9644958105229
 30
0.0
  0
SPLINE
  5
50E
330
1F
100
AcDbEntity
  8
0
  6
CONTINUOUS
 62
     7
100
AcDbSpline
210
0.0
220
0.0
230
1.0
 70
     8
 71
     3
 72
     9
 73
     5
 74
     0
 42
0.00000001
 43
0.00000001
 40
0.0
 40
0.0
 40
0.0
 40
0.0
 40
0.5194634107605473
 40
1.0
 40
1.0
 40
1.0
 40
1.0
 10
96.51033248553983
 20
331.9389688679115
 30
0.0
 10
96.57255975091759
 20
331.8307563139331
 30
0.0
 10
96.69235118201502
 20
331.622440286785
 30
0.0
 10
96.74861196497409
 20
331.5409900893491
 30
0.0
 10
96.77564732972519
 20
331.5018502892803
 30
0.0
  0
LINE
  5
50F
330
1F
100
AcDbEntity
  8
0
  6
CONTINUOUS
 62
     7
100
AcDbLine
 10
96.8092632522
 20
331.4517348641
 30
0.0
 11
96.943238829
 21
331.0857092808
 31
0.0
  0
LINE
  5
510
330
1F
100
AcDbEntity
  8
0
  6
CONTINUOUS
 62
     7
100
AcDbLine
 10
96.943238829
 20
336.8177604473
 30
0.0
 11
96.8092632522
 21
336.4517348641
 31
0.0
  0
LINE
  5
511
330
1F
100
AcDbEntity
  8
0
  6
CONTINUOUS
 62
     7
100
AcDbLine
 10
96.8092632522
 20
331.4517348641
 30
0.0
 11
96.7752258106
 21
331.5024829813
 31
0.0
  0
LINE
  5
512
330
1F
100
AcDbEntity
  8
0
  6
CONTINUOUS
 62
     7
100
AcDbLine
 10
96.7756473297
 20
336.4016194389
 30
0.0
 11
96.8092632522
 21
336.4517348641
 31
0.0
  0
SPLINE
  5
513
330
1F
100
AcDbEntity
  8
0
  6
CONTINUOUS
 62
     7
100
AcDbSpline
210
0.0
220
0.0
230
1.0
 70
     8
 71
     3
 72
     9
 73
     5
 74
     0
 42
0.00000001
 43
0.00000001
 40
0.0
 40
0.0
 40
0.0
 40
0.0
 40
0.9999728499388716
 40
1.0
 40
1.0
 40
1.0
 40
1.0
 10
96.94323882896765
 20
336.8177604473234
 30
0.0
 10
96.94233798826518
 20
336.8170113118861
 30
0.0
 10
96.94143712310418
 20
336.8162621561091
 30
0.0
 10
96.90869558614683
 20
336.7603045725622
 30
0.0
 10
96.90869469721211
 20
336.7603030533105
 30
0.0
  0
LINE
  5
514
330
1F
100
AcDbEntity
  8
0
  6
CONTINUOUS
 62
     7
100
AcDbLine
 10
96.9082642392
 20
331.1438874417
 30
0.0
 11
96.943238829
 21
331.0857092808
 31
0.0
  0
LINE
  5
515
330
1F
100
AcDbEntity
  8
0
  6
CONTINUOUS
 62
     7
100
AcDbLine
 10
76.943238829
 20
324.7017348641
 30
0.0
 11
77.993238829
 21
324.7017348641
 31
0.0
  0
LINE
  5
516
330
1F
100
AcDbEntity
  8
0
  6
CONTINUOUS
 62
     7
100
AcDbLine
 10
89.993238829
 20
324.7017348641
 30
0.0
 11
91.043238829
 21
324.7017348641
 31
0.0
  0
LINE
  5
517
330
1F
100
AcDbEntity
  8
0
  6
CONTINUOUS
 62
     7
100
AcDbLine
 10
91.043238829
 20
280.295579118
 30
0.0
 11
89.993238829
 21
280.295579118
 31
0.0
  0
LINE
  5
518
330
1F
100
AcDbEntity
  8
0
  6
CONTINUOUS
 62
     7
100
AcDbLine
 10
77.993238829
 20
280.295579118
 30
0.0
 11
76.943238829
 21
280.295579118
 31
0.0
  0
LINE
  5
519
330
1F
100
AcDbEntity
  8
0
  6
CONTINUOUS
 62
     7
100
AcDbLine
 10
66.8108859065
 20
283.545579118
 30
0.0
 11
66.8108859065
 21
296.495579118
 31
0.0
  0
LINE
  5
51A
330
1F
100
AcDbEntity
  8
0
  6
CONTINUOUS
 62
     7
100
AcDbLine
 10
62.0200253213
 20
296.495579118
 30
0.0
 11
62.0200253213
 21
283.545579118
 31
0.0
  0
LINE
  5
51B
330
1F
100
AcDbEntity
  8
0
  6
CONTINUOUS
 62
     7
100
AcDbLine
 10
66.8267781897
 20
296.495579118
 30
0.0
 11
66.8267781897
 21
283.545579118
 31
0.0
  0
LINE
  5
51C
330
1F
100
AcDbEntity
  8
0
  6
CONTINUOUS
 62
     7
100
AcDbLine
 10
67.9630851793
 20
283.545579118
 30
0.0
 11
67.9630851793
 21
296.495579118
 31
0.0
  0
LINE
  5
51D
330
1F
100
AcDbEntity
  8
0
  6
CONTINUOUS
 62
     7
100
AcDbLine
 10
62.0195788797
 20
296.495579118
 30
0.0
 11
62.0200253213
 21
296.495579118
 31
0.0
  0
LINE
  5
51E
330
1F
100
AcDbEntity
  8
0
  6
CONTINUOUS
 62
     7
100
AcDbLine
 10
67.9630851793
 20
296.495579118
 30
0.0
 11
67.9668987782
 21
296.495579118
 31
0.0
  0
ENDSEC
  0
SECTION
  2
OBJECTS
  0
DICTIONARY
  5
C
330
0
100
AcDbDictionary
  3
ACAD_GROUP
350
D
  3
ACAD_MLINESTYLE
350
17
  3
ACAD_SCALELIST
350
47
  3
DWGPROPS
350
51F
  0
DICTIONARY
  5
D
102
{ACAD_REACTORS
330
C
102
}
330
C
100
AcDbDictionary
  0
DICTIONARY
  5
17
102
{ACAD_REACTORS
330
C
102
}
330
C
100
AcDbDictionary
  3
STANDARD
350
18
  0
DICTIONARY
  5
47
102
{ACAD_REACTORS
330
C
102
}
330
C
100
AcDbDictionary
  0
XRECORD
  5
51F
102
{ACAD_REACTORS
330
C
102
}
330
C
100
AcDbXrecord
  1
DWGPROPS COOKIE
  2

  3

  4

  6

  7

  8
Pedro.Queiros
  9

300
=
301
=
302
=
303
=
304
=
305
=
306
=
307
=
308
=
309
=
 40
0.0
 41
2459594.47952566
 42
2459594.479526482
  1

 90
        0
  0
MLINESTYLE
  5
18
102
{ACAD_REACTORS
330
17
102
}
330
17
100
AcDbMlineStyle
  2
Standard
 70
     0
  3

 62
   256
 51
90.0
 52
90.0
 71
     2
 49
0.5
 62
   256
  6
BYLAYER
 49
-0.5
 62
   256
  6
BYLAYER
  0
ENDSEC
  0
EOF
