  0
SECTION
  2
HEADER
  9
$ACADVER
  1
AC1015
  9
$ACADMAINTVER
 70
     6
  9
$DWGCODEPAGE
  3
ANSI_1252
  9
$INSBASE
 10
0.0
 20
0.0
 30
0.0
  9
$EXTMIN
 10
0.0
 20
0.0
 30
0.0
  9
$EXTMAX
 10
279.4
 20
215.9
 30
0.0
  9
$LIMMIN
 10
0.0
 20
0.0
  9
$LIMMAX
 10
279.4
 20
215.9
  9
$ORTHOMODE
 70
     0
  9
$REGENMODE
 70
     1
  9
$FILLMODE
 70
     1
  9
$QTEXTMODE
 70
     0
  9
$MIRRTEXT
 70
     1
  9
$LTSCALE
 40
1.0
  9
$ATTMODE
 70
     1
  9
$TEXTSIZE
 40
3.5277777778
  9
$TRACEWID
 40
1.0
  9
$TEXTSTYLE
  7
Standard
  9
$CLAYER
  8
0
  9
$CELTYPE
  6
ByLayer
  9
$CECOLOR
 62
   256
  9
$CELTSCALE
 40
1.0
  9
$DISPSILH
 70
     0
  9
$DIMSCALE
 40
1.0
  9
$DIMASZ
 40
3.302
  9
$DIMEXO
 40
1.0
  9
$DIMDLI
 40
3.75
  9
$DIMRND
 40
0.0
  9
$DIMDLE
 40
0.0
  9
$DIMEXE
 40
1.0
  9
$DIMTP
 40
0.0
  9
$DIMTM
 40
0.0
  9
$DIMTXT
 40
3.5
  9
$DIMCEN
 40
2.5
  9
$DIMTSZ
 40
0.0
  9
$DIMTOL
 70
     0
  9
$DIMLIM
 70
     0
  9
$DIMTIH
 70
     1
  9
$DIMTOH
 70
     1
  9
$DIMSE1
 70
     0
  9
$DIMSE2
 70
     0
  9
$DIMTAD
 70
     1
  9
$DIMZIN
 70
     1
  9
$DIMBLK
  1

  9
$DIMASO
 70
     1
  9
$DIMSHO
 70
     1
  9
$DIMPOST
  1

  9
$DIMAPOST
  1

  9
$DIMALT
 70
     0
  9
$DIMALTD
 70
     3
  9
$DIMALTF
 40
0.0393700787
  9
$DIMLFAC
 40
5.0
  9
$DIMTOFL
 70
     1
  9
$DIMTVP
 40
0.0
  9
$DIMTIX
 70
     0
  9
$DIMSOXD
 70
     0
  9
$DIMSAH
 70
     0
  9
$DIMBLK1
  1

  9
$DIMBLK2
  1

  9
$DIMSTYLE
  2
ISO-25
  9
$DIMCLRD
 70
     0
  9
$DIMCLRE
 70
     0
  9
$DIMCLRT
 70
     0
  9
$DIMTFAC
 40
1.0
  9
$DIMGAP
 40
1.524
  9
$DIMJUST
 70
     0
  9
$DIMSD1
 70
     0
  9
$DIMSD2
 70
     0
  9
$DIMTOLJ
 70
     0
  9
$DIMTZIN
 70
     1
  9
$DIMALTZ
 70
     0
  9
$DIMALTTZ
 70
     0
  9
$DIMUPT
 70
     0
  9
$DIMDEC
 70
     2
  9
$DIMTDEC
 70
     2
  9
$DIMALTU
 70
     2
  9
$DIMALTTD
 70
     3
  9
$DIMTXSTY
  7
Standard
  9
$DIMAUNIT
 70
     0
  9
$DIMADEC
 70
     2
  9
$DIMALTRND
 40
0.0
  9
$DIMAZIN
 70
     0
  9
$DIMDSEP
 70
    44
  9
$DIMATFIT
 70
     3
  9
$DIMFRAC
 70
     0
  9
$DIMLDRBLK
  1

  9
$DIMLUNIT
 70
     2
  9
$DIMLWD
 70
    -2
  9
$DIMLWE
 70
    -2
  9
$DIMTMOVE
 70
     0
  9
$LUNITS
 70
     2
  9
$LUPREC
 70
     2
  9
$SKETCHINC
 40
1.0
  9
$FILLETRAD
 40
10.0
  9
$AUNITS
 70
     0
  9
$AUPREC
 70
     2
  9
$MENU
  1
.
  9
$ELEVATION
 40
0.0
  9
$PELEVATION
 40
0.0
  9
$THICKNESS
 40
0.0
  9
$LIMCHECK
 70
     0
  9
$CHAMFERA
 40
0.0
  9
$CHAMFERB
 40
0.0
  9
$CHAMFERC
 40
0.0
  9
$CHAMFERD
 40
0.0
  9
$SKPOLY
 70
     0
  9
$TDCREATE
 40
2459472.479446528
  9
$TDUCREATE
 40
2459472.437779861
  9
$TDUPDATE
 40
2459472.479447558
  9
$TDUUPDATE
 40
2459472.437780891
  9
$TDINDWG
 40
0.0000000116
  9
$TDUSRTIMER
 40
0.0000000116
  9
$USRTIMER
 70
     1
  9
$ANGBASE
 50
0.0
  9
$ANGDIR
 70
     0
  9
$PDMODE
 70
     0
  9
$PDSIZE
 40
-1.0
  9
$PLINEWID
 40
0.0
  9
$SPLFRAME
 70
     0
  9
$SPLINETYPE
 70
     6
  9
$SPLINESEGS
 70
     8
  9
$HANDSEED
  5
5C0
  9
$SURFTAB1
 70
     6
  9
$SURFTAB2
 70
     6
  9
$SURFTYPE
 70
     6
  9
$SURFU
 70
     6
  9
$SURFV
 70
     6
  9
$UCSBASE
  2

  9
$UCSNAME
  2

  9
$UCSORG
 10
0.0
 20
0.0
 30
0.0
  9
$UCSXDIR
 10
1.0
 20
0.0
 30
0.0
  9
$UCSYDIR
 10
0.0
 20
1.0
 30
0.0
  9
$UCSORTHOREF
  2

  9
$UCSORTHOVIEW
 70
     0
  9
$UCSORGTOP
 10
0.0
 20
0.0
 30
0.0
  9
$UCSORGBOTTOM
 10
0.0
 20
0.0
 30
0.0
  9
$UCSORGLEFT
 10
0.0
 20
0.0
 30
0.0
  9
$UCSORGRIGHT
 10
0.0
 20
0.0
 30
0.0
  9
$UCSORGFRONT
 10
0.0
 20
0.0
 30
0.0
  9
$UCSORGBACK
 10
0.0
 20
0.0
 30
0.0
  9
$PUCSBASE
  2

  9
$PUCSNAME
  2

  9
$PUCSORG
 10
0.0
 20
0.0
 30
0.0
  9
$PUCSXDIR
 10
1.0
 20
0.0
 30
0.0
  9
$PUCSYDIR
 10
0.0
 20
1.0
 30
0.0
  9
$PUCSORTHOREF
  2

  9
$PUCSORTHOVIEW
 70
     0
  9
$PUCSORGTOP
 10
0.0
 20
0.0
 30
0.0
  9
$PUCSORGBOTTOM
 10
0.0
 20
0.0
 30
0.0
  9
$PUCSORGLEFT
 10
0.0
 20
0.0
 30
0.0
  9
$PUCSORGRIGHT
 10
0.0
 20
0.0
 30
0.0
  9
$PUCSORGFRONT
 10
0.0
 20
0.0
 30
0.0
  9
$PUCSORGBACK
 10
0.0
 20
0.0
 30
0.0
  9
$USERI1
 70
     0
  9
$USERI2
 70
     0
  9
$USERI3
 70
     0
  9
$USERI4
 70
     0
  9
$USERI5
 70
     0
  9
$USERR1
 40
0.0
  9
$USERR2
 40
0.0
  9
$USERR3
 40
0.0
  9
$USERR4
 40
0.0
  9
$USERR5
 40
0.0
  9
$WORLDVIEW
 70
     1
  9
$SHADEDGE
 70
     3
  9
$SHADEDIF
 70
    70
  9
$TILEMODE
 70
     1
  9
$MAXACTVP
 70
    64
  9
$PINSBASE
 10
0.0
 20
0.0
 30
0.0
  9
$PLIMCHECK
 70
     0
  9
$PEXTMIN
 10
1.0000000000E+20
 20
1.0000000000E+20
 30
1.0000000000E+20
  9
$PEXTMAX
 10
-1.0000000000E+20
 20
-1.0000000000E+20
 30
-1.0000000000E+20
  9
$PLIMMIN
 10
0.0
 20
0.0
  9
$PLIMMAX
 10
420.0
 20
297.0
  9
$UNITMODE
 70
     0
  9
$VISRETAIN
 70
     1
  9
$PLINEGEN
 70
     0
  9
$PSLTSCALE
 70
     1
  9
$TREEDEPTH
 70
  3020
  9
$CMLSTYLE
  2
Standard
  9
$CMLJUST
 70
     0
  9
$CMLSCALE
 40
20.0
  9
$PROXYGRAPHICS
 70
     1
  9
$MEASUREMENT
 70
     1
  9
$CELWEIGHT
370
    -1
  9
$ENDCAPS
280
     0
  9
$JOINSTYLE
280
     0
  9
$LWDISPLAY
290
     1
  9
$INSUNITS
 70
     4
  9
$HYPERLINKBASE
  1

  9
$STYLESHEET
  1

  9
$XEDIT
290
     1
  9
$CEPSNTYPE
380
     0
  9
$PSTYLEMODE
290
     1
  9
$FINGERPRINTGUID
  2
{8630157f-fa90-4e7f-9eb1-7f292e9fc803}
  9
$VERSIONGUID
  2
{FAEB1C32-E019-11D5-929B-00C0DF256EC4}
  9
$EXTNAMES
290
     1
  9
$PSVPSCALE
 40
0.0
  9
$OLESTARTUP
290
     0
  0
ENDSEC
  0
SECTION
  2
CLASSES
  0
CLASS
  1
ACDBDICTIONARYWDFLT
  2
AcDbDictionaryWithDefault
  3
ObjectDBX Classes
 90
        0
280
     0
281
     0
  0
CLASS
  1
VISUALSTYLE
  2
AcDbVisualStyle
  3
ObjectDBX Classes
 90
     4095
280
     0
281
     0
  0
CLASS
  1
MATERIAL
  2
AcDbMaterial
  3
ObjectDBX Classes
 90
     1153
280
     0
281
     0
  0
CLASS
  1
SCALE
  2
AcDbScale
  3
ObjectDBX Classes
 90
     1153
280
     0
281
     0
  0
CLASS
  1
TABLESTYLE
  2
AcDbTableStyle
  3
ObjectDBX Classes
 90
     4095
280
     0
281
     0
  0
CLASS
  1
MLEADERSTYLE
  2
AcDbMLeaderStyle
  3
ACDB_MLEADERSTYLE_CLASS
 90
     4095
280
     0
281
     0
  0
CLASS
  1
SUN
  2
AcDbSun
  3
SCENEOE
 90
     1153
280
     0
281
     0
  0
CLASS
  1
ACDBPLACEHOLDER
  2
AcDbPlaceHolder
  3
ObjectDBX Classes
 90
        0
280
     0
281
     0
  0
CLASS
  1
LAYOUT
  2
AcDbLayout
  3
ObjectDBX Classes
 90
        0
280
     0
281
     0
  0
ENDSEC
  0
SECTION
  2
TABLES
  0
TABLE
  2
VPORT
  5
8
330
0
100
AcDbSymbolTable
 70
     1
  0
VPORT
  5
29
330
8
100
AcDbSymbolTableRecord
100
AcDbViewportTableRecord
  2
*Active
 70
     0
 10
0.0
 20
0.0
 11
1.0
 21
1.0
 12
139.7
 22
107.95
 13
0.0
 23
0.0
 14
10.0
 24
10.0
 15
10.0
 25
10.0
 16
0.0
 26
0.0
 36
1.0
 17
0.0
 27
0.0
 37
0.0
 40
215.9
 41
1.2941176471
 42
50.0
 43
0.0
 44
0.0
 50
0.0
 51
0.0
 71
     0
 72
  2000
 73
     1
 74
     3
 75
     0
 76
     0
 77
     0
 78
     0
281
     0
 65
     1
110
0.0
120
0.0
130
0.0
111
1.0
121
0.0
131
0.0
112
0.0
122
1.0
132
0.0
 79
     0
146
0.0
  0
ENDTAB
  0
TABLE
  2
LTYPE
  5
5
330
0
100
AcDbSymbolTable
 70
     6
  0
LTYPE
  5
14
330
5
100
AcDbSymbolTableRecord
100
AcDbLinetypeTableRecord
  2
ByBlock
 70
     0
  3

 72
    65
 73
     0
 40
0.0
  0
LTYPE
  5
15
330
5
100
AcDbSymbolTableRecord
100
AcDbLinetypeTableRecord
  2
ByLayer
 70
     0
  3

 72
    65
 73
     0
 40
0.0
  0
LTYPE
  5
16
330
5
100
AcDbSymbolTableRecord
100
AcDbLinetypeTableRecord
  2
Continuous
 70
     0
  3
Solid line
 72
    65
 73
     0
 40
0.0
  0
LTYPE
  5
6E
330
5
100
AcDbSymbolTableRecord
100
AcDbLinetypeTableRecord
  2
HIDDEN
 70
     0
  3
Hidden __ __ __ __ __ __ __ __ __ __ __ __ __ __
 72
    65
 73
     2
 40
1.905
 49
1.27
 74
     0
 49
-0.635
 74
     0
  0
LTYPE
  5
6F
330
5
100
AcDbSymbolTableRecord
100
AcDbLinetypeTableRecord
  2
PHANTOM
 70
     0
  3
Phantom ______  __  __  ______  __  __  ______
 72
    65
 73
     6
 40
12.7
 49
6.35
 74
     0
 49
-1.27
 74
     0
 49
1.27
 74
     0
 49
-1.27
 74
     0
 49
1.27
 74
     0
 49
-1.27
 74
     0
  0
LTYPE
  5
70
330
5
100
AcDbSymbolTableRecord
100
AcDbLinetypeTableRecord
  2
CENTER
 70
     0
  3
Center ____ _ ____ _ ____ _ ____ _ ____ _ ____
 72
    65
 73
     4
 40
10.16
 49
6.35
 74
     0
 49
-1.27
 74
     0
 49
1.27
 74
     0
 49
-1.27
 74
     0
  0
LTYPE
  5
71
330
5
100
AcDbSymbolTableRecord
100
AcDbLinetypeTableRecord
  2
CENTERX2
 70
     0
  3
Center (2x) ________  __  ________  __  _____
 72
    65
 73
     4
 40
20.32
 49
12.7
 74
     0
 49
-2.54
 74
     0
 49
2.54
 74
     0
 49
-2.54
 74
     0
  0
LTYPE
  5
72
330
5
100
AcDbSymbolTableRecord
100
AcDbLinetypeTableRecord
  2
DOT2
 70
     0
  3
Dot (.5x) ........................................
 72
    65
 73
     2
 40
0.635
 49
0.0
 74
     0
 49
-0.635
 74
     0
  0
ENDTAB
  0
TABLE
  2
LAYER
  5
2
330
0
100
AcDbSymbolTable
 70
     1
  0
LAYER
  5
10
330
2
100
AcDbSymbolTableRecord
100
AcDbLayerTableRecord
  2
0
 70
     0
 62
     7
  6
Continuous
370
    -3
390
F
  0
ENDTAB
  0
TABLE
  2
STYLE
  5
3
330
0
100
AcDbSymbolTable
 70
     1
  0
STYLE
  5
11
330
3
100
AcDbSymbolTableRecord
100
AcDbTextStyleTableRecord
  2
Standard
 70
     0
 40
0.0
 41
1.0
 50
0.0
 71
     0
 42
3.5277777778
  3
txt
  4

  0
ENDTAB
  0
TABLE
  2
VIEW
  5
6
330
0
100
AcDbSymbolTable
 70
     0
  0
ENDTAB
  0
TABLE
  2
UCS
  5
7
330
0
100
AcDbSymbolTable
 70
     0
  0
ENDTAB
  0
TABLE
  2
APPID
  5
9
330
0
100
AcDbSymbolTable
 70
     1
  0
APPID
  5
12
330
9
100
AcDbSymbolTableRecord
100
AcDbRegAppTableRecord
  2
ACAD
 70
     0
  0
ENDTAB
  0
TABLE
  2
DIMSTYLE
  5
A
330
0
100
AcDbSymbolTable
 70
     1
100
AcDbDimStyleTable
  0
DIMSTYLE
105
27
330
A
100
AcDbSymbolTableRecord
100
AcDbDimStyleTableRecord
  2
ISO-25
 70
     0
 41
2.5
 42
0.625
 43
3.75
 44
1.25
 73
     0
 74
     0
 77
     1
 78
     8
140
2.5
141
2.5
143
0.0393700787
147
0.625
171
     3
172
     1
178
     0
271
     2
272
     2
274
     3
278
    44
283
     0
284
     8
340
11
  0
ENDTAB
  0
TABLE
  2
BLOCK_RECORD
  5
1
330
0
100
AcDbSymbolTable
 70
     1
  0
BLOCK_RECORD
  5
1F
330
1
100
AcDbSymbolTableRecord
100
AcDbBlockTableRecord
  2
*Model_Space
340
22
  0
BLOCK_RECORD
  5
1B
330
1
100
AcDbSymbolTableRecord
100
AcDbBlockTableRecord
  2
*Paper_Space
340
1E
  0
BLOCK_RECORD
  5
23
330
1
100
AcDbSymbolTableRecord
100
AcDbBlockTableRecord
  2
*Paper_Space0
340
26
  0
ENDTAB
  0
ENDSEC
  0
SECTION
  2
BLOCKS
  0
BLOCK
  5
20
330
1F
100
AcDbEntity
  8
0
100
AcDbBlockBegin
  2
*Model_Space
 70
     0
 10
0.0
 20
0.0
 30
0.0
  3
*Model_Space
  1

  0
ENDBLK
  5
21
330
1F
100
AcDbEntity
  8
0
100
AcDbBlockEnd
  0
BLOCK
  5
1C
330
1B
100
AcDbEntity
 67
     1
  8
0
100
AcDbBlockBegin
  2
*Paper_Space
 70
     0
 10
0.0
 20
0.0
 30
0.0
  3
*Paper_Space
  1

  0
ENDBLK
  5
1D
330
1B
100
AcDbEntity
 67
     1
  8
0
100
AcDbBlockEnd
  0
BLOCK
  5
24
330
23
100
AcDbEntity
  8
0
100
AcDbBlockBegin
  2
*Paper_Space0
 70
     0
 10
0.0
 20
0.0
 30
0.0
  3
*Paper_Space0
  1

  0
ENDBLK
  5
25
330
23
100
AcDbEntity
  8
0
100
AcDbBlockEnd
  0
ENDSEC
  0
SECTION
  2
ENTITIES
  0
ARC
  5
73
330
1F
100
AcDbEntity
  8
0
  6
Continuous
 62
     7
370
    25
100
AcDbCircle
 10
178.049521377
 20
103.5268223209
 30
0.0
 40
5.0
100
AcDbArc
 50
180.0
 51
270.0
  0
ARC
  5
74
330
1F
100
AcDbEntity
  8
0
  6
Continuous
 62
     7
370
    25
100
AcDbCircle
 10
178.049521377
 20
133.5268223209
 30
0.0
 40
5.0
100
AcDbArc
 50
90.0
 51
180.0
  0
ARC
  5
75
330
1F
100
AcDbEntity
  8
0
  6
Continuous
 62
     7
370
    25
100
AcDbCircle
 10
206.049521377
 20
133.5268223209
 30
0.0
 40
5.0
100
AcDbArc
 50
0.0
 51
90.0
  0
LINE
  5
76
330
1F
100
AcDbEntity
  8
0
  6
Continuous
 62
     7
370
    25
100
AcDbLine
 10
211.049521377
 20
133.5268223209
 30
0.0
 11
211.049521377
 21
119.2821591199
 31
0.0
  0
LINE
  5
77
330
1F
100
AcDbEntity
  8
0
  6
Continuous
 62
     7
370
    25
100
AcDbLine
 10
211.049521377
 20
117.8714855219
 30
0.0
 11
211.049521377
 21
103.5268223209
 31
0.0
  0
ARC
  5
78
330
1F
100
AcDbEntity
  8
0
  6
Continuous
 62
     7
370
    25
100
AcDbCircle
 10
206.049521377
 20
103.5268223209
 30
0.0
 40
5.0
100
AcDbArc
 50
270.0
 51
0.0
  0
LINE
  5
79
330
1F
100
AcDbEntity
  8
0
  6
Continuous
 62
     7
370
    25
100
AcDbLine
 10
206.049521377
 20
98.5268223209
 30
0.0
 11
178.049521377
 21
98.5268223209
 31
0.0
  0
LINE
  5
7A
330
1F
100
AcDbEntity
  8
0
  6
Continuous
 62
     7
370
    25
100
AcDbLine
 10
173.049521377
 20
103.5268223209
 30
0.0
 11
173.049521377
 21
113.5768223209
 31
0.0
  0
LINE
  5
7B
330
1F
100
AcDbEntity
  8
0
  6
Continuous
 62
     7
370
    25
100
AcDbLine
 10
173.049521377
 20
123.5768223209
 30
0.0
 11
173.049521377
 21
133.5268223209
 31
0.0
  0
LINE
  5
7C
330
1F
100
AcDbEntity
  8
0
  6
Continuous
 62
     7
370
    25
100
AcDbLine
 10
178.049521377
 20
138.5268223209
 30
0.0
 11
206.049521377
 21
138.5268223209
 31
0.0
  0
LINE
  5
7D
330
1F
100
AcDbEntity
  8
0
  6
Continuous
 62
     7
370
    25
100
AcDbLine
 10
191.7897851472
 20
123.5778223209
 30
0.0
 11
191.7897851472
 21
123.5768223209
 31
0.0
  0
LINE
  5
7E
330
1F
100
AcDbEntity
  8
0
  6
Continuous
 62
     7
370
    25
100
AcDbLine
 10
196.2897851472
 20
123.5778223209
 30
0.0
 11
196.2897851472
 21
123.5768223209
 31
0.0
  0
LINE
  5
7F
330
1F
100
AcDbEntity
  8
0
  6
Continuous
 62
     7
370
    25
100
AcDbLine
 10
187.2897851472
 20
123.5778223209
 30
0.0
 11
187.2897851472
 21
123.5768223209
 31
0.0
  0
ARC
  5
80
330
1F
100
AcDbEntity
  8
0
  6
Continuous
 62
     7
370
    25
100
AcDbCircle
 10
186.049521377
 20
118.5268223209
 30
0.0
 40
6.000000000000012
100
AcDbArc
 50
57.3165362423
 51
122.6834637577
  0
ARC
  5
81
330
1F
100
AcDbEntity
  8
0
  6
Continuous
 62
     7
370
    25
100
AcDbCircle
 10
186.049521377
 20
118.5268223209
 30
0.0
 40
6.00000000000002
100
AcDbArc
 50
235.5884913302
 51
304.4115086698
  0
LINE
  5
82
330
1F
100
AcDbEntity
  8
0
  6
Continuous
 62
     7
370
    25
100
AcDbLine
 10
76.099521377
 20
113.5768223209
 30
0.0
 11
76.099521377
 21
118.5768223209
 31
0.0
  0
LINE
  5
83
330
1F
100
AcDbEntity
  8
0
  6
Continuous
 62
     7
370
    25
100
AcDbLine
 10
76.099521377
 20
118.5768223209
 30
0.0
 11
201.099521377
 21
118.5768223209
 31
0.0
  0
LINE
  5
84
330
1F
100
AcDbEntity
  8
0
  6
Continuous
 62
     7
370
    25
100
AcDbLine
 10
201.099521377
 20
113.5768223209
 30
0.0
 11
201.099521377
 21
118.5768223209
 31
0.0
  0
LINE
  5
85
330
1F
100
AcDbEntity
  8
0
  6
Continuous
 62
     7
370
    25
100
AcDbLine
 10
201.099521377
 20
113.5768223209
 30
0.0
 11
76.099521377
 21
113.5768223209
 31
0.0
  0
LINE
  5
86
330
1F
100
AcDbEntity
  8
0
  6
Continuous
 62
     7
370
    25
100
AcDbLine
 10
76.099521377
 20
118.5768223209
 30
0.0
 11
76.099521377
 21
123.5768223209
 31
0.0
  0
LINE
  5
87
330
1F
100
AcDbEntity
  8
0
  6
Continuous
 62
     7
370
    25
100
AcDbLine
 10
76.099521377
 20
123.5768223209
 30
0.0
 11
201.099521377
 21
123.5768223209
 31
0.0
  0
LINE
  5
88
330
1F
100
AcDbEntity
  8
0
  6
Continuous
 62
     7
370
    25
100
AcDbLine
 10
201.099521377
 20
118.5768223209
 30
0.0
 11
201.099521377
 21
123.5768223209
 31
0.0
  0
ARC
  5
89
330
1F
100
AcDbEntity
  8
0
  6
Continuous
 62
     7
370
    25
100
AcDbCircle
 10
71.099521377
 20
118.5768223209
 30
0.0
 40
5.0
100
AcDbArc
 50
180.0
 51
270.0
  0
LINE
  5
8A
330
1F
100
AcDbEntity
  8
0
  6
Continuous
 62
     7
370
    25
100
AcDbLine
 10
66.099521377
 20
118.5768223209
 30
0.0
 11
76.099521377
 21
118.5768223209
 31
0.0
  0
LINE
  5
8B
330
1F
100
AcDbEntity
  8
0
  6
Continuous
 62
     7
370
    25
100
AcDbLine
 10
76.099521377
 20
113.5768223209
 30
0.0
 11
71.099521377
 21
113.5768223209
 31
0.0
  0
ARC
  5
8C
330
1F
100
AcDbEntity
  8
0
  6
Continuous
 62
     7
370
    25
100
AcDbCircle
 10
71.099521377
 20
118.5768223209
 30
0.0
 40
5.0
100
AcDbArc
 50
90.0
 51
180.0
  0
LINE
  5
8D
330
1F
100
AcDbEntity
  8
0
  6
Continuous
 62
     7
370
    25
100
AcDbLine
 10
71.099521377
 20
123.5768223209
 30
0.0
 11
76.099521377
 21
123.5768223209
 31
0.0
  0
LINE
  5
8E
330
1F
100
AcDbEntity
  8
0
  6
Continuous
 62
     7
370
    25
100
AcDbLine
 10
201.099521377
 20
118.5768223209
 30
0.0
 11
211.099521377
 21
118.5768223209
 31
0.0
  0
ARC
  5
8F
330
1F
100
AcDbEntity
  8
0
  6
Continuous
 62
     7
370
    25
100
AcDbCircle
 10
206.099521377
 20
118.5768223209
 30
0.0
 40
5.0
100
AcDbArc
 50
270.0
 51
0.0
  0
LINE
  5
90
330
1F
100
AcDbEntity
  8
0
  6
Continuous
 62
     7
370
    25
100
AcDbLine
 10
206.099521377
 20
113.5768223209
 30
0.0
 11
201.099521377
 21
113.5768223209
 31
0.0
  0
LINE
  5
91
330
1F
100
AcDbEntity
  8
0
  6
Continuous
 62
     7
370
    25
100
AcDbLine
 10
201.099521377
 20
123.5768223209
 30
0.0
 11
206.099521377
 21
123.5768223209
 31
0.0
  0
ARC
  5
92
330
1F
100
AcDbEntity
  8
0
  6
Continuous
 62
     7
370
    25
100
AcDbCircle
 10
206.099521377
 20
118.5768223209
 30
0.0
 40
5.0
100
AcDbArc
 50
0.0
 51
90.0
  0
ARC
  5
93
330
1F
100
AcDbEntity
  8
0
  6
Continuous
 62
     7
370
    25
100
AcDbCircle
 10
207.9731813263
 20
-44.2631810219
 30
0.0
 40
0.0500000000000114
100
AcDbArc
 50
270.0
 51
360.0
  0
LINE
  5
94
330
1F
100
AcDbEntity
  8
0
  6
Continuous
 62
     7
370
    25
100
AcDbLine
 10
208.0231813263
 20
-44.2631810219
 30
0.0
 11
208.0231813263
 21
-31.3131810219
 31
0.0
  0
LINE
  5
95
330
1F
100
AcDbEntity
  8
0
  6
Continuous
 62
     7
370
    25
100
AcDbLine
 10
202.0758614278
 20
-31.3131810219
 30
0.0
 11
202.0758614278
 21
-44.2631810219
 31
0.0
  0
ARC
  5
96
330
1F
100
AcDbEntity
  8
0
  6
Continuous
 62
     7
370
    25
100
AcDbCircle
 10
202.1258614278
 20
-44.2631810219
 30
0.0
 40
0.0500000000000114
100
AcDbArc
 50
180.0
 51
270.0
  0
LINE
  5
97
330
1F
100
AcDbEntity
  8
0
  6
Continuous
 62
     7
370
    25
100
AcDbLine
 10
203.049521377
 20
-45.2390316294
 30
0.0
 11
203.439521377
 21
-45.5121125693
 31
0.0
  0
LINE
  5
98
330
1F
100
AcDbEntity
  8
0
  6
Continuous
 62
     7
370
    25
100
AcDbLine
 10
206.659521377
 20
-45.5121125693
 30
0.0
 11
207.049521377
 21
-45.2390316294
 31
0.0
  0
LINE
  5
99
330
1F
100
AcDbEntity
  8
0
  6
Continuous
 62
     7
370
    25
100
AcDbLine
 10
207.049521377
 20
-45.2390316294
 30
0.0
 11
207.049521377
 21
-45.214070091
 31
0.0
  0
LINE
  5
9A
330
1F
100
AcDbEntity
  8
0
  6
Continuous
 62
     7
370
    25
100
AcDbLine
 10
203.049521377
 20
-45.214070091
 30
0.0
 11
203.049521377
 21
-45.2390316294
 31
0.0
  0
LINE
  5
9B
330
1F
100
AcDbEntity
  8
0
  6
Continuous
 62
     7
370
    25
100
AcDbLine
 10
207.049521377
 20
-45.9270751076
 30
0.0
 11
207.049521377
 21
-45.7851935092
 31
0.0
  0
LINE
  5
9C
330
1F
100
AcDbEntity
  8
0
  6
Continuous
 62
     7
370
    25
100
AcDbLine
 10
203.049521377
 20
-45.7851935092
 30
0.0
 11
203.049521377
 21
-45.9270751076
 31
0.0
  0
LINE
  5
9D
330
1F
100
AcDbEntity
  8
0
  6
Continuous
 62
     7
370
    25
100
AcDbLine
 10
203.049521377
 20
-45.9270751076
 30
0.0
 11
203.439521377
 21
-46.2001560475
 31
0.0
  0
LINE
  5
9E
330
1F
100
AcDbEntity
  8
0
  6
Continuous
 62
     7
370
    25
100
AcDbLine
 10
206.659521377
 20
-46.2001560475
 30
0.0
 11
207.049521377
 21
-45.9270751076
 31
0.0
  0
LINE
  5
9F
330
1F
100
AcDbEntity
  8
0
  6
Continuous
 62
     7
370
    25
100
AcDbLine
 10
207.049521377
 20
-46.4732369874
 30
0.0
 11
206.659521377
 21
-46.2001560475
 31
0.0
  0
LINE
  5
A0
330
1F
100
AcDbEntity
  8
0
  6
Continuous
 62
     7
370
    25
100
AcDbLine
 10
203.439521377
 20
-46.2001560475
 30
0.0
 11
203.049521377
 21
-46.4732369874
 31
0.0
  0
LINE
  5
A1
330
1F
100
AcDbEntity
  8
0
  6
Continuous
 62
     7
370
    25
100
AcDbLine
 10
207.049521377
 20
-45.7851935092
 30
0.0
 11
206.659521377
 21
-45.5121125693
 31
0.0
  0
LINE
  5
A2
330
1F
100
AcDbEntity
  8
0
  6
Continuous
 62
     7
370
    25
100
AcDbLine
 10
203.439521377
 20
-45.5121125693
 30
0.0
 11
203.049521377
 21
-45.7851935092
 31
0.0
  0
LINE
  5
A3
330
1F
100
AcDbEntity
  8
0
  6
Continuous
 62
     7
370
    25
100
AcDbLine
 10
203.049521377
 20
-46.6151185859
 30
0.0
 11
203.439521377
 21
-46.8881995258
 31
0.0
  0
LINE
  5
A4
330
1F
100
AcDbEntity
  8
0
  6
Continuous
 62
     7
370
    25
100
AcDbLine
 10
206.659521377
 20
-46.8881995258
 30
0.0
 11
207.049521377
 21
-46.6151185859
 31
0.0
  0
LINE
  5
A5
330
1F
100
AcDbEntity
  8
0
  6
Continuous
 62
     7
370
    25
100
AcDbLine
 10
207.049521377
 20
-46.6151185859
 30
0.0
 11
207.049521377
 21
-46.4732369874
 31
0.0
  0
LINE
  5
A6
330
1F
100
AcDbEntity
  8
0
  6
Continuous
 62
     7
370
    25
100
AcDbLine
 10
203.049521377
 20
-46.4732369874
 30
0.0
 11
203.049521377
 21
-46.6151185859
 31
0.0
  0
LINE
  5
A7
330
1F
100
AcDbEntity
  8
0
  6
Continuous
 62
     7
370
    25
100
AcDbLine
 10
207.049521377
 20
-47.1612804657
 30
0.0
 11
206.659521377
 21
-46.8881995258
 31
0.0
  0
LINE
  5
A8
330
1F
100
AcDbEntity
  8
0
  6
Continuous
 62
     7
370
    25
100
AcDbLine
 10
203.439521377
 20
-46.8881995258
 30
0.0
 11
203.049521377
 21
-47.1612804657
 31
0.0
  0
LINE
  5
A9
330
1F
100
AcDbEntity
  8
0
  6
Continuous
 62
     7
370
    25
100
AcDbLine
 10
207.049521377
 20
-47.3031620641
 30
0.0
 11
207.049521377
 21
-47.1612804657
 31
0.0
  0
LINE
  5
AA
330
1F
100
AcDbEntity
  8
0
  6
Continuous
 62
     7
370
    25
100
AcDbLine
 10
203.049521377
 20
-47.1612804657
 30
0.0
 11
203.049521377
 21
-47.3031620641
 31
0.0
  0
LINE
  5
AB
330
1F
100
AcDbEntity
  8
0
  6
Continuous
 62
     7
370
    25
100
AcDbLine
 10
203.049521377
 20
-47.3031620641
 30
0.0
 11
203.439521377
 21
-47.576243004
 31
0.0
  0
LINE
  5
AC
330
1F
100
AcDbEntity
  8
0
  6
Continuous
 62
     7
370
    25
100
AcDbLine
 10
206.659521377
 20
-47.576243004
 30
0.0
 11
207.049521377
 21
-47.3031620641
 31
0.0
  0
LINE
  5
AD
330
1F
100
AcDbEntity
  8
0
  6
Continuous
 62
     7
370
    25
100
AcDbLine
 10
207.049521377
 20
-47.8493239439
 30
0.0
 11
206.659521377
 21
-47.576243004
 31
0.0
  0
LINE
  5
AE
330
1F
100
AcDbEntity
  8
0
  6
Continuous
 62
     7
370
    25
100
AcDbLine
 10
203.439521377
 20
-47.576243004
 30
0.0
 11
203.049521377
 21
-47.8493239439
 31
0.0
  0
LINE
  5
AF
330
1F
100
AcDbEntity
  8
0
  6
Continuous
 62
     7
370
    25
100
AcDbLine
 10
207.049521377
 20
-48.5373674222
 30
0.0
 11
206.659521377
 21
-48.2642864823
 31
0.0
  0
LINE
  5
B0
330
1F
100
AcDbEntity
  8
0
  6
Continuous
 62
     7
370
    25
100
AcDbLine
 10
203.439521377
 20
-48.2642864823
 30
0.0
 11
203.049521377
 21
-48.5373674222
 31
0.0
  0
LINE
  5
B1
330
1F
100
AcDbEntity
  8
0
  6
Continuous
 62
     7
370
    25
100
AcDbLine
 10
207.049521377
 20
-47.9912055424
 30
0.0
 11
207.049521377
 21
-47.8493239439
 31
0.0
  0
LINE
  5
B2
330
1F
100
AcDbEntity
  8
0
  6
Continuous
 62
     7
370
    25
100
AcDbLine
 10
203.049521377
 20
-47.8493239439
 30
0.0
 11
203.049521377
 21
-47.9912055424
 31
0.0
  0
LINE
  5
B3
330
1F
100
AcDbEntity
  8
0
  6
Continuous
 62
     7
370
    25
100
AcDbLine
 10
203.049521377
 20
-47.9912055424
 30
0.0
 11
203.439521377
 21
-48.2642864823
 31
0.0
  0
LINE
  5
B4
330
1F
100
AcDbEntity
  8
0
  6
Continuous
 62
     7
370
    25
100
AcDbLine
 10
206.659521377
 20
-48.2642864823
 30
0.0
 11
207.049521377
 21
-47.9912055424
 31
0.0
  0
LINE
  5
B5
330
1F
100
AcDbEntity
  8
0
  6
Continuous
 62
     7
370
    25
100
AcDbLine
 10
203.049521377
 20
-48.6792490207
 30
0.0
 11
203.439521377
 21
-48.9523299606
 31
0.0
  0
LINE
  5
B6
330
1F
100
AcDbEntity
  8
0
  6
Continuous
 62
     7
370
    25
100
AcDbLine
 10
206.659521377
 20
-48.9523299606
 30
0.0
 11
207.049521377
 21
-48.6792490207
 31
0.0
  0
LINE
  5
B7
330
1F
100
AcDbEntity
  8
0
  6
Continuous
 62
     7
370
    25
100
AcDbLine
 10
207.049521377
 20
-48.6792490207
 30
0.0
 11
207.049521377
 21
-48.5373674222
 31
0.0
  0
LINE
  5
B8
330
1F
100
AcDbEntity
  8
0
  6
Continuous
 62
     7
370
    25
100
AcDbLine
 10
203.049521377
 20
-48.5373674222
 30
0.0
 11
203.049521377
 21
-48.6792490207
 31
0.0
  0
LINE
  5
B9
330
1F
100
AcDbEntity
  8
0
  6
Continuous
 62
     7
370
    25
100
AcDbLine
 10
207.049521377
 20
-49.2254109005
 30
0.0
 11
206.659521377
 21
-48.9523299606
 31
0.0
  0
LINE
  5
BA
330
1F
100
AcDbEntity
  8
0
  6
Continuous
 62
     7
370
    25
100
AcDbLine
 10
203.439521377
 20
-48.9523299606
 30
0.0
 11
203.049521377
 21
-49.2254109005
 31
0.0
  0
LINE
  5
BB
330
1F
100
AcDbEntity
  8
0
  6
Continuous
 62
     7
370
    25
100
AcDbLine
 10
207.049521377
 20
-49.3672924989
 30
0.0
 11
207.049521377
 21
-49.2254109005
 31
0.0
  0
LINE
  5
BC
330
1F
100
AcDbEntity
  8
0
  6
Continuous
 62
     7
370
    25
100
AcDbLine
 10
203.049521377
 20
-49.2254109005
 30
0.0
 11
203.049521377
 21
-49.3672924989
 31
0.0
  0
LINE
  5
BD
330
1F
100
AcDbEntity
  8
0
  6
Continuous
 62
     7
370
    25
100
AcDbLine
 10
207.049521377
 20
-49.9134543787
 30
0.0
 11
206.659521377
 21
-49.6403734388
 31
0.0
  0
LINE
  5
BE
330
1F
100
AcDbEntity
  8
0
  6
Continuous
 62
     7
370
    25
100
AcDbLine
 10
203.439521377
 20
-49.6403734388
 30
0.0
 11
203.049521377
 21
-49.9134543787
 31
0.0
  0
LINE
  5
BF
330
1F
100
AcDbEntity
  8
0
  6
Continuous
 62
     7
370
    25
100
AcDbLine
 10
203.049521377
 20
-49.3672924989
 30
0.0
 11
203.439521377
 21
-49.6403734388
 31
0.0
  0
LINE
  5
C0
330
1F
100
AcDbEntity
  8
0
  6
Continuous
 62
     7
370
    25
100
AcDbLine
 10
206.659521377
 20
-49.6403734388
 30
0.0
 11
207.049521377
 21
-49.3672924989
 31
0.0
  0
LINE
  5
C1
330
1F
100
AcDbEntity
  8
0
  6
Continuous
 62
     7
370
    25
100
AcDbLine
 10
207.049521377
 20
-50.0553359772
 30
0.0
 11
207.049521377
 21
-49.9134543787
 31
0.0
  0
LINE
  5
C2
330
1F
100
AcDbEntity
  8
0
  6
Continuous
 62
     7
370
    25
100
AcDbLine
 10
203.049521377
 20
-49.9134543787
 30
0.0
 11
203.049521377
 21
-50.0553359772
 31
0.0
  0
LINE
  5
C3
330
1F
100
AcDbEntity
  8
0
  6
Continuous
 62
     7
370
    25
100
AcDbLine
 10
203.049521377
 20
-50.0553359772
 30
0.0
 11
203.439521377
 21
-50.3284169171
 31
0.0
  0
LINE
  5
C4
330
1F
100
AcDbEntity
  8
0
  6
Continuous
 62
     7
370
    25
100
AcDbLine
 10
206.659521377
 20
-50.3284169171
 30
0.0
 11
207.049521377
 21
-50.0553359772
 31
0.0
  0
LINE
  5
C5
330
1F
100
AcDbEntity
  8
0
  6
Continuous
 62
     7
370
    25
100
AcDbLine
 10
203.049521377
 20
-50.7433794554
 30
0.0
 11
203.439521377
 21
-51.0164603953
 31
0.0
  0
LINE
  5
C6
330
1F
100
AcDbEntity
  8
0
  6
Continuous
 62
     7
370
    25
100
AcDbLine
 10
206.659521377
 20
-51.0164603953
 30
0.0
 11
207.049521377
 21
-50.7433794554
 31
0.0
  0
LINE
  5
C7
330
1F
100
AcDbEntity
  8
0
  6
Continuous
 62
     7
370
    25
100
AcDbLine
 10
207.049521377
 20
-50.7433794554
 30
0.0
 11
207.049521377
 21
-50.601497857
 31
0.0
  0
LINE
  5
C8
330
1F
100
AcDbEntity
  8
0
  6
Continuous
 62
     7
370
    25
100
AcDbLine
 10
203.049521377
 20
-50.601497857
 30
0.0
 11
203.049521377
 21
-50.7433794554
 31
0.0
  0
LINE
  5
C9
330
1F
100
AcDbEntity
  8
0
  6
Continuous
 62
     7
370
    25
100
AcDbLine
 10
207.049521377
 20
-50.601497857
 30
0.0
 11
206.659521377
 21
-50.3284169171
 31
0.0
  0
LINE
  5
CA
330
1F
100
AcDbEntity
  8
0
  6
Continuous
 62
     7
370
    25
100
AcDbLine
 10
203.439521377
 20
-50.3284169171
 30
0.0
 11
203.049521377
 21
-50.601497857
 31
0.0
  0
LINE
  5
CB
330
1F
100
AcDbEntity
  8
0
  6
Continuous
 62
     7
370
    25
100
AcDbLine
 10
207.049521377
 20
-51.4314229337
 30
0.0
 11
207.049521377
 21
-51.2895413352
 31
0.0
  0
LINE
  5
CC
330
1F
100
AcDbEntity
  8
0
  6
Continuous
 62
     7
370
    25
100
AcDbLine
 10
203.049521377
 20
-51.2895413352
 30
0.0
 11
203.049521377
 21
-51.4314229337
 31
0.0
  0
LINE
  5
CD
330
1F
100
AcDbEntity
  8
0
  6
Continuous
 62
     7
370
    25
100
AcDbLine
 10
207.049521377
 20
-51.2895413352
 30
0.0
 11
206.659521377
 21
-51.0164603953
 31
0.0
  0
LINE
  5
CE
330
1F
100
AcDbEntity
  8
0
  6
Continuous
 62
     7
370
    25
100
AcDbLine
 10
203.439521377
 20
-51.0164603953
 30
0.0
 11
203.049521377
 21
-51.2895413352
 31
0.0
  0
LINE
  5
CF
330
1F
100
AcDbEntity
  8
0
  6
Continuous
 62
     7
370
    25
100
AcDbLine
 10
203.049521377
 20
-51.4314229337
 30
0.0
 11
203.439521377
 21
-51.7045038736
 31
0.0
  0
LINE
  5
D0
330
1F
100
AcDbEntity
  8
0
  6
Continuous
 62
     7
370
    25
100
AcDbLine
 10
206.659521377
 20
-51.7045038736
 30
0.0
 11
207.049521377
 21
-51.4314229337
 31
0.0
  0
LINE
  5
D1
330
1F
100
AcDbEntity
  8
0
  6
Continuous
 62
     7
370
    25
100
AcDbLine
 10
207.049521377
 20
-51.9775848135
 30
0.0
 11
206.659521377
 21
-51.7045038736
 31
0.0
  0
LINE
  5
D2
330
1F
100
AcDbEntity
  8
0
  6
Continuous
 62
     7
370
    25
100
AcDbLine
 10
203.439521377
 20
-51.7045038736
 30
0.0
 11
203.049521377
 21
-51.9775848135
 31
0.0
  0
LINE
  5
D3
330
1F
100
AcDbEntity
  8
0
  6
Continuous
 62
     7
370
    25
100
AcDbLine
 10
203.049521377
 20
-52.119466412
 30
0.0
 11
203.439521377
 21
-52.3925473519
 31
0.0
  0
LINE
  5
D4
330
1F
100
AcDbEntity
  8
0
  6
Continuous
 62
     7
370
    25
100
AcDbLine
 10
206.659521377
 20
-52.3925473519
 30
0.0
 11
207.049521377
 21
-52.119466412
 31
0.0
  0
LINE
  5
D5
330
1F
100
AcDbEntity
  8
0
  6
Continuous
 62
     7
370
    25
100
AcDbLine
 10
207.049521377
 20
-52.119466412
 30
0.0
 11
207.049521377
 21
-51.9775848135
 31
0.0
  0
LINE
  5
D6
330
1F
100
AcDbEntity
  8
0
  6
Continuous
 62
     7
370
    25
100
AcDbLine
 10
203.049521377
 20
-51.9775848135
 30
0.0
 11
203.049521377
 21
-52.119466412
 31
0.0
  0
LINE
  5
D7
330
1F
100
AcDbEntity
  8
0
  6
Continuous
 62
     7
370
    25
100
AcDbLine
 10
207.049521377
 20
-52.6656282918
 30
0.0
 11
206.659521377
 21
-52.3925473519
 31
0.0
  0
LINE
  5
D8
330
1F
100
AcDbEntity
  8
0
  6
Continuous
 62
     7
370
    25
100
AcDbLine
 10
203.439521377
 20
-52.3925473519
 30
0.0
 11
203.049521377
 21
-52.6656282918
 31
0.0
  0
LINE
  5
D9
330
1F
100
AcDbEntity
  8
0
  6
Continuous
 62
     7
370
    25
100
AcDbLine
 10
207.049521377
 20
-52.8075098902
 30
0.0
 11
207.049521377
 21
-52.6656282918
 31
0.0
  0
LINE
  5
DA
330
1F
100
AcDbEntity
  8
0
  6
Continuous
 62
     7
370
    25
100
AcDbLine
 10
203.049521377
 20
-52.6656282918
 30
0.0
 11
203.049521377
 21
-52.8075098902
 31
0.0
  0
LINE
  5
DB
330
1F
100
AcDbEntity
  8
0
  6
Continuous
 62
     7
370
    25
100
AcDbLine
 10
203.049521377
 20
-52.8075098902
 30
0.0
 11
203.439521377
 21
-53.0805908301
 31
0.0
  0
LINE
  5
DC
330
1F
100
AcDbEntity
  8
0
  6
Continuous
 62
     7
370
    25
100
AcDbLine
 10
206.659521377
 20
-53.0805908301
 30
0.0
 11
207.049521377
 21
-52.8075098902
 31
0.0
  0
LINE
  5
DD
330
1F
100
AcDbEntity
  8
0
  6
Continuous
 62
     7
370
    25
100
AcDbLine
 10
207.049521377
 20
-53.35367177
 30
0.0
 11
206.659521377
 21
-53.0805908301
 31
0.0
  0
LINE
  5
DE
330
1F
100
AcDbEntity
  8
0
  6
Continuous
 62
     7
370
    25
100
AcDbLine
 10
203.439521377
 20
-53.0805908301
 30
0.0
 11
203.049521377
 21
-53.35367177
 31
0.0
  0
LINE
  5
DF
330
1F
100
AcDbEntity
  8
0
  6
Continuous
 62
     7
370
    25
100
AcDbLine
 10
207.049521377
 20
-54.1835968467
 30
0.0
 11
207.049521377
 21
-54.0417152483
 31
0.0
  0
LINE
  5
E0
330
1F
100
AcDbEntity
  8
0
  6
Continuous
 62
     7
370
    25
100
AcDbLine
 10
203.049521377
 20
-54.0417152483
 30
0.0
 11
203.049521377
 21
-54.1835968467
 31
0.0
  0
LINE
  5
E1
330
1F
100
AcDbEntity
  8
0
  6
Continuous
 62
     7
370
    25
100
AcDbLine
 10
207.049521377
 20
-53.4955533685
 30
0.0
 11
207.049521377
 21
-53.35367177
 31
0.0
  0
LINE
  5
E2
330
1F
100
AcDbEntity
  8
0
  6
Continuous
 62
     7
370
    25
100
AcDbLine
 10
203.049521377
 20
-53.35367177
 30
0.0
 11
203.049521377
 21
-53.4955533685
 31
0.0
  0
LINE
  5
E3
330
1F
100
AcDbEntity
  8
0
  6
Continuous
 62
     7
370
    25
100
AcDbLine
 10
203.049521377
 20
-53.4955533685
 30
0.0
 11
203.439521377
 21
-53.7686343084
 31
0.0
  0
LINE
  5
E4
330
1F
100
AcDbEntity
  8
0
  6
Continuous
 62
     7
370
    25
100
AcDbLine
 10
206.659521377
 20
-53.7686343084
 30
0.0
 11
207.049521377
 21
-53.4955533685
 31
0.0
  0
LINE
  5
E5
330
1F
100
AcDbEntity
  8
0
  6
Continuous
 62
     7
370
    25
100
AcDbLine
 10
203.049521377
 20
-54.1835968467
 30
0.0
 11
203.439521377
 21
-54.4566777867
 31
0.0
  0
LINE
  5
E6
330
1F
100
AcDbEntity
  8
0
  6
Continuous
 62
     7
370
    25
100
AcDbLine
 10
206.659521377
 20
-54.4566777867
 30
0.0
 11
207.049521377
 21
-54.1835968467
 31
0.0
  0
LINE
  5
E7
330
1F
100
AcDbEntity
  8
0
  6
Continuous
 62
     7
370
    25
100
AcDbLine
 10
207.049521377
 20
-54.0417152483
 30
0.0
 11
206.659521377
 21
-53.7686343084
 31
0.0
  0
LINE
  5
E8
330
1F
100
AcDbEntity
  8
0
  6
Continuous
 62
     7
370
    25
100
AcDbLine
 10
203.439521377
 20
-53.7686343084
 30
0.0
 11
203.049521377
 21
-54.0417152483
 31
0.0
  0
LINE
  5
E9
330
1F
100
AcDbEntity
  8
0
  6
Continuous
 62
     7
370
    25
100
AcDbLine
 10
207.049521377
 20
-54.871640325
 30
0.0
 11
207.049521377
 21
-54.7297587266
 31
0.0
  0
LINE
  5
EA
330
1F
100
AcDbEntity
  8
0
  6
Continuous
 62
     7
370
    25
100
AcDbLine
 10
203.049521377
 20
-54.7297587266
 30
0.0
 11
203.049521377
 21
-54.871640325
 31
0.0
  0
LINE
  5
EB
330
1F
100
AcDbEntity
  8
0
  6
Continuous
 62
     7
370
    25
100
AcDbLine
 10
203.049521377
 20
-54.871640325
 30
0.0
 11
203.439521377
 21
-55.1447212649
 31
0.0
  0
LINE
  5
EC
330
1F
100
AcDbEntity
  8
0
  6
Continuous
 62
     7
370
    25
100
AcDbLine
 10
206.659521377
 20
-55.1447212649
 30
0.0
 11
207.049521377
 21
-54.871640325
 31
0.0
  0
LINE
  5
ED
330
1F
100
AcDbEntity
  8
0
  6
Continuous
 62
     7
370
    25
100
AcDbLine
 10
207.049521377
 20
-54.7297587266
 30
0.0
 11
206.659521377
 21
-54.4566777867
 31
0.0
  0
LINE
  5
EE
330
1F
100
AcDbEntity
  8
0
  6
Continuous
 62
     7
370
    25
100
AcDbLine
 10
203.439521377
 20
-54.4566777867
 30
0.0
 11
203.049521377
 21
-54.7297587266
 31
0.0
  0
LINE
  5
EF
330
1F
100
AcDbEntity
  8
0
  6
Continuous
 62
     7
370
    25
100
AcDbLine
 10
207.049521377
 20
-55.5596838033
 30
0.0
 11
207.049521377
 21
-55.4178022048
 31
0.0
  0
LINE
  5
F0
330
1F
100
AcDbEntity
  8
0
  6
Continuous
 62
     7
370
    25
100
AcDbLine
 10
203.049521377
 20
-55.4178022048
 30
0.0
 11
203.049521377
 21
-55.5596838033
 31
0.0
  0
LINE
  5
F1
330
1F
100
AcDbEntity
  8
0
  6
Continuous
 62
     7
370
    25
100
AcDbLine
 10
207.049521377
 20
-55.4178022048
 30
0.0
 11
206.659521377
 21
-55.1447212649
 31
0.0
  0
LINE
  5
F2
330
1F
100
AcDbEntity
  8
0
  6
Continuous
 62
     7
370
    25
100
AcDbLine
 10
203.439521377
 20
-55.1447212649
 30
0.0
 11
203.049521377
 21
-55.4178022048
 31
0.0
  0
LINE
  5
F3
330
1F
100
AcDbEntity
  8
0
  6
Continuous
 62
     7
370
    25
100
AcDbLine
 10
203.049521377
 20
-55.5596838033
 30
0.0
 11
203.439521377
 21
-55.8327647432
 31
0.0
  0
LINE
  5
F4
330
1F
100
AcDbEntity
  8
0
  6
Continuous
 62
     7
370
    25
100
AcDbLine
 10
206.659521377
 20
-55.8327647432
 30
0.0
 11
207.049521377
 21
-55.5596838033
 31
0.0
  0
LINE
  5
F5
330
1F
100
AcDbEntity
  8
0
  6
Continuous
 62
     7
370
    25
100
AcDbLine
 10
207.049521377
 20
-56.2477272815
 30
0.0
 11
207.049521377
 21
-56.1058456831
 31
0.0
  0
LINE
  5
F6
330
1F
100
AcDbEntity
  8
0
  6
Continuous
 62
     7
370
    25
100
AcDbLine
 10
203.049521377
 20
-56.1058456831
 30
0.0
 11
203.049521377
 21
-56.2477272815
 31
0.0
  0
LINE
  5
F7
330
1F
100
AcDbEntity
  8
0
  6
Continuous
 62
     7
370
    25
100
AcDbLine
 10
203.049521377
 20
-56.2477272815
 30
0.0
 11
203.439521377
 21
-56.5208082214
 31
0.0
  0
LINE
  5
F8
330
1F
100
AcDbEntity
  8
0
  6
Continuous
 62
     7
370
    25
100
AcDbLine
 10
206.659521377
 20
-56.5208082214
 30
0.0
 11
207.049521377
 21
-56.2477272815
 31
0.0
  0
LINE
  5
F9
330
1F
100
AcDbEntity
  8
0
  6
Continuous
 62
     7
370
    25
100
AcDbLine
 10
207.049521377
 20
-45.214070091
 30
0.0
 11
206.659521377
 21
-44.824070091
 31
0.0
  0
LINE
  5
FA
330
1F
100
AcDbEntity
  8
0
  6
Continuous
 62
     7
370
    25
100
AcDbLine
 10
203.439521377
 20
-44.824070091
 30
0.0
 11
203.049521377
 21
-45.214070091
 31
0.0
  0
LINE
  5
FB
330
1F
100
AcDbEntity
  8
0
  6
Continuous
 62
     7
370
    25
100
AcDbLine
 10
207.049521377
 20
-56.1058456831
 30
0.0
 11
206.659521377
 21
-55.8327647432
 31
0.0
  0
LINE
  5
FC
330
1F
100
AcDbEntity
  8
0
  6
Continuous
 62
     7
370
    25
100
AcDbLine
 10
203.439521377
 20
-55.8327647432
 30
0.0
 11
203.049521377
 21
-56.1058456831
 31
0.0
  0
LINE
  5
FD
330
1F
100
AcDbEntity
  8
0
  6
Continuous
 62
     7
370
    25
100
AcDbLine
 10
207.049521377
 20
-56.7938891613
 30
0.0
 11
206.659521377
 21
-56.5208082214
 31
0.0
  0
LINE
  5
FE
330
1F
100
AcDbEntity
  8
0
  6
Continuous
 62
     7
370
    25
100
AcDbLine
 10
203.439521377
 20
-56.5208082214
 30
0.0
 11
203.049521377
 21
-56.7938891613
 31
0.0
  0
LINE
  5
FF
330
1F
100
AcDbEntity
  8
0
  6
Continuous
 62
     7
370
    25
100
AcDbLine
 10
203.049521377
 20
-56.9357707598
 30
0.0
 11
203.439521377
 21
-57.2088516997
 31
0.0
  0
LINE
  5
100
330
1F
100
AcDbEntity
  8
0
  6
Continuous
 62
     7
370
    25
100
AcDbLine
 10
206.659521377
 20
-57.2088516997
 30
0.0
 11
207.049521377
 21
-56.9357707598
 31
0.0
  0
LINE
  5
101
330
1F
100
AcDbEntity
  8
0
  6
Continuous
 62
     7
370
    25
100
AcDbLine
 10
207.049521377
 20
-56.9357707598
 30
0.0
 11
207.049521377
 21
-56.7938891613
 31
0.0
  0
LINE
  5
102
330
1F
100
AcDbEntity
  8
0
  6
Continuous
 62
     7
370
    25
100
AcDbLine
 10
203.049521377
 20
-56.7938891613
 30
0.0
 11
203.049521377
 21
-56.9357707598
 31
0.0
  0
LINE
  5
103
330
1F
100
AcDbEntity
  8
0
  6
Continuous
 62
     7
370
    25
100
AcDbLine
 10
207.049521377
 20
-57.4819326396
 30
0.0
 11
206.659521377
 21
-57.2088516997
 31
0.0
  0
LINE
  5
104
330
1F
100
AcDbEntity
  8
0
  6
Continuous
 62
     7
370
    25
100
AcDbLine
 10
203.439521377
 20
-57.2088516997
 30
0.0
 11
203.049521377
 21
-57.4819326396
 31
0.0
  0
LINE
  5
105
330
1F
100
AcDbEntity
  8
0
  6
Continuous
 62
     7
370
    25
100
AcDbLine
 10
203.049521377
 20
-57.6238142381
 30
0.0
 11
203.439521377
 21
-57.896895178
 31
0.0
  0
LINE
  5
106
330
1F
100
AcDbEntity
  8
0
  6
Continuous
 62
     7
370
    25
100
AcDbLine
 10
206.659521377
 20
-57.896895178
 30
0.0
 11
207.049521377
 21
-57.6238142381
 31
0.0
  0
LINE
  5
107
330
1F
100
AcDbEntity
  8
0
  6
Continuous
 62
     7
370
    25
100
AcDbLine
 10
207.049521377
 20
-57.6238142381
 30
0.0
 11
207.049521377
 21
-57.4819326396
 31
0.0
  0
LINE
  5
108
330
1F
100
AcDbEntity
  8
0
  6
Continuous
 62
     7
370
    25
100
AcDbLine
 10
203.049521377
 20
-57.4819326396
 30
0.0
 11
203.049521377
 21
-57.6238142381
 31
0.0
  0
LINE
  5
109
330
1F
100
AcDbEntity
  8
0
  6
Continuous
 62
     7
370
    25
100
AcDbLine
 10
207.049521377
 20
-58.3118577163
 30
0.0
 11
207.049521377
 21
-58.1699761179
 31
0.0
  0
LINE
  5
10A
330
1F
100
AcDbEntity
  8
0
  6
Continuous
 62
     7
370
    25
100
AcDbLine
 10
203.049521377
 20
-58.1699761179
 30
0.0
 11
203.049521377
 21
-58.3118577163
 31
0.0
  0
LINE
  5
10B
330
1F
100
AcDbEntity
  8
0
  6
Continuous
 62
     7
370
    25
100
AcDbLine
 10
207.049521377
 20
-58.1699761179
 30
0.0
 11
206.659521377
 21
-57.896895178
 31
0.0
  0
LINE
  5
10C
330
1F
100
AcDbEntity
  8
0
  6
Continuous
 62
     7
370
    25
100
AcDbLine
 10
203.439521377
 20
-57.896895178
 30
0.0
 11
203.049521377
 21
-58.1699761179
 31
0.0
  0
LINE
  5
10D
330
1F
100
AcDbEntity
  8
0
  6
Continuous
 62
     7
370
    25
100
AcDbLine
 10
207.049521377
 20
-58.8580195961
 30
0.0
 11
206.659521377
 21
-58.5849386562
 31
0.0
  0
LINE
  5
10E
330
1F
100
AcDbEntity
  8
0
  6
Continuous
 62
     7
370
    25
100
AcDbLine
 10
203.439521377
 20
-58.5849386562
 30
0.0
 11
203.049521377
 21
-58.8580195961
 31
0.0
  0
LINE
  5
10F
330
1F
100
AcDbEntity
  8
0
  6
Continuous
 62
     7
370
    25
100
AcDbLine
 10
203.049521377
 20
-58.3118577163
 30
0.0
 11
203.439521377
 21
-58.5849386562
 31
0.0
  0
LINE
  5
110
330
1F
100
AcDbEntity
  8
0
  6
Continuous
 62
     7
370
    25
100
AcDbLine
 10
206.659521377
 20
-58.5849386562
 30
0.0
 11
207.049521377
 21
-58.3118577163
 31
0.0
  0
LINE
  5
111
330
1F
100
AcDbEntity
  8
0
  6
Continuous
 62
     7
370
    25
100
AcDbLine
 10
203.049521377
 20
-58.9999011946
 30
0.0
 11
203.439521377
 21
-59.2729821345
 31
0.0
  0
LINE
  5
112
330
1F
100
AcDbEntity
  8
0
  6
Continuous
 62
     7
370
    25
100
AcDbLine
 10
206.659521377
 20
-59.2729821345
 30
0.0
 11
207.049521377
 21
-58.9999011946
 31
0.0
  0
LINE
  5
113
330
1F
100
AcDbEntity
  8
0
  6
Continuous
 62
     7
370
    25
100
AcDbLine
 10
207.049521377
 20
-58.9999011946
 30
0.0
 11
207.049521377
 21
-58.8580195961
 31
0.0
  0
LINE
  5
114
330
1F
100
AcDbEntity
  8
0
  6
Continuous
 62
     7
370
    25
100
AcDbLine
 10
203.049521377
 20
-58.8580195961
 30
0.0
 11
203.049521377
 21
-58.9999011946
 31
0.0
  0
LINE
  5
115
330
1F
100
AcDbEntity
  8
0
  6
Continuous
 62
     7
370
    25
100
AcDbLine
 10
203.049521377
 20
-59.6879446728
 30
0.0
 11
203.439521377
 21
-59.9610256127
 31
0.0
  0
LINE
  5
116
330
1F
100
AcDbEntity
  8
0
  6
Continuous
 62
     7
370
    25
100
AcDbLine
 10
206.659521377
 20
-59.9610256127
 30
0.0
 11
207.049521377
 21
-59.6879446728
 31
0.0
  0
LINE
  5
117
330
1F
100
AcDbEntity
  8
0
  6
Continuous
 62
     7
370
    25
100
AcDbLine
 10
207.049521377
 20
-59.5460630744
 30
0.0
 11
206.659521377
 21
-59.2729821345
 31
0.0
  0
LINE
  5
118
330
1F
100
AcDbEntity
  8
0
  6
Continuous
 62
     7
370
    25
100
AcDbLine
 10
203.439521377
 20
-59.2729821345
 30
0.0
 11
203.049521377
 21
-59.5460630744
 31
0.0
  0
LINE
  5
119
330
1F
100
AcDbEntity
  8
0
  6
Continuous
 62
     7
370
    25
100
AcDbLine
 10
207.049521377
 20
-59.6879446728
 30
0.0
 11
207.049521377
 21
-59.5460630744
 31
0.0
  0
LINE
  5
11A
330
1F
100
AcDbEntity
  8
0
  6
Continuous
 62
     7
370
    25
100
AcDbLine
 10
203.049521377
 20
-59.5460630744
 30
0.0
 11
203.049521377
 21
-59.6879446728
 31
0.0
  0
LINE
  5
11B
330
1F
100
AcDbEntity
  8
0
  6
Continuous
 62
     7
370
    25
100
AcDbLine
 10
207.049521377
 20
-60.3759881511
 30
0.0
 11
207.049521377
 21
-60.2341065526
 31
0.0
  0
LINE
  5
11C
330
1F
100
AcDbEntity
  8
0
  6
Continuous
 62
     7
370
    25
100
AcDbLine
 10
203.049521377
 20
-60.2341065526
 30
0.0
 11
203.049521377
 21
-60.3759881511
 31
0.0
  0
LINE
  5
11D
330
1F
100
AcDbEntity
  8
0
  6
Continuous
 62
     7
370
    25
100
AcDbLine
 10
207.049521377
 20
-60.2341065526
 30
0.0
 11
206.659521377
 21
-59.9610256127
 31
0.0
  0
LINE
  5
11E
330
1F
100
AcDbEntity
  8
0
  6
Continuous
 62
     7
370
    25
100
AcDbLine
 10
203.439521377
 20
-59.9610256127
 30
0.0
 11
203.049521377
 21
-60.2341065526
 31
0.0
  0
LINE
  5
11F
330
1F
100
AcDbEntity
  8
0
  6
Continuous
 62
     7
370
    25
100
AcDbLine
 10
207.049521377
 20
-60.9221500309
 30
0.0
 11
206.659521377
 21
-60.649069091
 31
0.0
  0
LINE
  5
120
330
1F
100
AcDbEntity
  8
0
  6
Continuous
 62
     7
370
    25
100
AcDbLine
 10
203.439521377
 20
-60.649069091
 30
0.0
 11
203.049521377
 21
-60.9221500309
 31
0.0
  0
LINE
  5
121
330
1F
100
AcDbEntity
  8
0
  6
Continuous
 62
     7
370
    25
100
AcDbLine
 10
203.049521377
 20
-60.3759881511
 30
0.0
 11
203.439521377
 21
-60.649069091
 31
0.0
  0
LINE
  5
122
330
1F
100
AcDbEntity
  8
0
  6
Continuous
 62
     7
370
    25
100
AcDbLine
 10
206.659521377
 20
-60.649069091
 30
0.0
 11
207.049521377
 21
-60.3759881511
 31
0.0
  0
LINE
  5
123
330
1F
100
AcDbEntity
  8
0
  6
Continuous
 62
     7
370
    25
100
AcDbLine
 10
207.049521377
 20
-61.0640316294
 30
0.0
 11
207.049521377
 21
-60.9221500309
 31
0.0
  0
LINE
  5
124
330
1F
100
AcDbEntity
  8
0
  6
Continuous
 62
     7
370
    25
100
AcDbLine
 10
203.049521377
 20
-60.9221500309
 30
0.0
 11
203.049521377
 21
-61.0640316294
 31
0.0
  0
LINE
  5
125
330
1F
100
AcDbEntity
  8
0
  6
Continuous
 62
     7
370
    25
100
AcDbLine
 10
203.049521377
 20
-61.0640316294
 30
0.0
 11
203.439521377
 21
-61.3371125693
 31
0.0
  0
LINE
  5
126
330
1F
100
AcDbEntity
  8
0
  6
Continuous
 62
     7
370
    25
100
AcDbLine
 10
206.659521377
 20
-61.3371125693
 30
0.0
 11
207.049521377
 21
-61.0640316294
 31
0.0
  0
LINE
  5
127
330
1F
100
AcDbEntity
  8
0
  6
Continuous
 62
     7
370
    25
100
AcDbLine
 10
207.049521377
 20
-61.6101935092
 30
0.0
 11
206.659521377
 21
-61.3371125693
 31
0.0
  0
LINE
  5
128
330
1F
100
AcDbEntity
  8
0
  6
Continuous
 62
     7
370
    25
100
AcDbLine
 10
203.439521377
 20
-61.3371125693
 30
0.0
 11
203.049521377
 21
-61.6101935092
 31
0.0
  0
LINE
  5
129
330
1F
100
AcDbEntity
  8
0
  6
Continuous
 62
     7
370
    25
100
AcDbLine
 10
207.049521377
 20
-61.7520751076
 30
0.0
 11
207.049521377
 21
-61.6101935092
 31
0.0
  0
LINE
  5
12A
330
1F
100
AcDbEntity
  8
0
  6
Continuous
 62
     7
370
    25
100
AcDbLine
 10
203.049521377
 20
-61.6101935092
 30
0.0
 11
203.049521377
 21
-61.7520751076
 31
0.0
  0
LINE
  5
12B
330
1F
100
AcDbEntity
  8
0
  6
Continuous
 62
     7
370
    25
100
AcDbLine
 10
207.049521377
 20
-62.2982369874
 30
0.0
 11
206.659521377
 21
-62.0251560475
 31
0.0
  0
LINE
  5
12C
330
1F
100
AcDbEntity
  8
0
  6
Continuous
 62
     7
370
    25
100
AcDbLine
 10
203.439521377
 20
-62.0251560475
 30
0.0
 11
203.049521377
 21
-62.2982369874
 31
0.0
  0
LINE
  5
12D
330
1F
100
AcDbEntity
  8
0
  6
Continuous
 62
     7
370
    25
100
AcDbLine
 10
203.049521377
 20
-61.7520751076
 30
0.0
 11
203.439521377
 21
-62.0251560475
 31
0.0
  0
LINE
  5
12E
330
1F
100
AcDbEntity
  8
0
  6
Continuous
 62
     7
370
    25
100
AcDbLine
 10
206.659521377
 20
-62.0251560475
 30
0.0
 11
207.049521377
 21
-61.7520751076
 31
0.0
  0
LINE
  5
12F
330
1F
100
AcDbEntity
  8
0
  6
Continuous
 62
     7
370
    25
100
AcDbLine
 10
207.049521377
 20
-62.9862804657
 30
0.0
 11
206.659521377
 21
-62.7131995258
 31
0.0
  0
LINE
  5
130
330
1F
100
AcDbEntity
  8
0
  6
Continuous
 62
     7
370
    25
100
AcDbLine
 10
203.439521377
 20
-62.7131995258
 30
0.0
 11
203.049521377
 21
-62.9862804657
 31
0.0
  0
LINE
  5
131
330
1F
100
AcDbEntity
  8
0
  6
Continuous
 62
     7
370
    25
100
AcDbLine
 10
207.049521377
 20
-62.4401185859
 30
0.0
 11
207.049521377
 21
-62.2982369874
 31
0.0
  0
LINE
  5
132
330
1F
100
AcDbEntity
  8
0
  6
Continuous
 62
     7
370
    25
100
AcDbLine
 10
203.049521377
 20
-62.2982369874
 30
0.0
 11
203.049521377
 21
-62.4401185859
 31
0.0
  0
LINE
  5
133
330
1F
100
AcDbEntity
  8
0
  6
Continuous
 62
     7
370
    25
100
AcDbLine
 10
203.049521377
 20
-62.4401185859
 30
0.0
 11
203.439521377
 21
-62.7131995258
 31
0.0
  0
LINE
  5
134
330
1F
100
AcDbEntity
  8
0
  6
Continuous
 62
     7
370
    25
100
AcDbLine
 10
206.659521377
 20
-62.7131995258
 30
0.0
 11
207.049521377
 21
-62.4401185859
 31
0.0
  0
LINE
  5
135
330
1F
100
AcDbEntity
  8
0
  6
Continuous
 62
     7
370
    25
100
AcDbLine
 10
203.049521377
 20
-63.1281620641
 30
0.0
 11
203.439521377
 21
-63.401243004
 31
0.0
  0
LINE
  5
136
330
1F
100
AcDbEntity
  8
0
  6
Continuous
 62
     7
370
    25
100
AcDbLine
 10
206.659521377
 20
-63.401243004
 30
0.0
 11
207.049521377
 21
-63.1281620641
 31
0.0
  0
LINE
  5
137
330
1F
100
AcDbEntity
  8
0
  6
Continuous
 62
     7
370
    25
100
AcDbLine
 10
207.049521377
 20
-63.1281620641
 30
0.0
 11
207.049521377
 21
-62.9862804657
 31
0.0
  0
LINE
  5
138
330
1F
100
AcDbEntity
  8
0
  6
Continuous
 62
     7
370
    25
100
AcDbLine
 10
203.049521377
 20
-62.9862804657
 30
0.0
 11
203.049521377
 21
-63.1281620641
 31
0.0
  0
LINE
  5
139
330
1F
100
AcDbEntity
  8
0
  6
Continuous
 62
     7
370
    25
100
AcDbLine
 10
207.049521377
 20
-63.8162055424
 30
0.0
 11
207.049521377
 21
-63.6743239439
 31
0.0
  0
LINE
  5
13A
330
1F
100
AcDbEntity
  8
0
  6
Continuous
 62
     7
370
    25
100
AcDbLine
 10
203.049521377
 20
-63.6743239439
 30
0.0
 11
203.049521377
 21
-63.8162055424
 31
0.0
  0
LINE
  5
13B
330
1F
100
AcDbEntity
  8
0
  6
Continuous
 62
     7
370
    25
100
AcDbLine
 10
207.049521377
 20
-63.6743239439
 30
0.0
 11
206.659521377
 21
-63.401243004
 31
0.0
  0
LINE
  5
13C
330
1F
100
AcDbEntity
  8
0
  6
Continuous
 62
     7
370
    25
100
AcDbLine
 10
203.439521377
 20
-63.401243004
 30
0.0
 11
203.049521377
 21
-63.6743239439
 31
0.0
  0
LINE
  5
13D
330
1F
100
AcDbEntity
  8
0
  6
Continuous
 62
     7
370
    25
100
AcDbLine
 10
207.049521377
 20
-64.3623674222
 30
0.0
 11
206.659521377
 21
-64.0892864823
 31
0.0
  0
LINE
  5
13E
330
1F
100
AcDbEntity
  8
0
  6
Continuous
 62
     7
370
    25
100
AcDbLine
 10
203.439521377
 20
-64.0892864823
 30
0.0
 11
203.049521377
 21
-64.3623674222
 31
0.0
  0
LINE
  5
13F
330
1F
100
AcDbEntity
  8
0
  6
Continuous
 62
     7
370
    25
100
AcDbLine
 10
203.049521377
 20
-63.8162055424
 30
0.0
 11
203.439521377
 21
-64.0892864823
 31
0.0
  0
LINE
  5
140
330
1F
100
AcDbEntity
  8
0
  6
Continuous
 62
     7
370
    25
100
AcDbLine
 10
206.659521377
 20
-64.0892864823
 30
0.0
 11
207.049521377
 21
-63.8162055424
 31
0.0
  0
LINE
  5
141
330
1F
100
AcDbEntity
  8
0
  6
Continuous
 62
     7
370
    25
100
AcDbLine
 10
203.049521377
 20
-64.5042490207
 30
0.0
 11
203.439521377
 21
-64.7773299606
 31
0.0
  0
LINE
  5
142
330
1F
100
AcDbEntity
  8
0
  6
Continuous
 62
     7
370
    25
100
AcDbLine
 10
206.659521377
 20
-64.7773299606
 30
0.0
 11
207.049521377
 21
-64.5042490207
 31
0.0
  0
LINE
  5
143
330
1F
100
AcDbEntity
  8
0
  6
Continuous
 62
     7
370
    25
100
AcDbLine
 10
207.049521377
 20
-64.5042490207
 30
0.0
 11
207.049521377
 21
-64.3623674222
 31
0.0
  0
LINE
  5
144
330
1F
100
AcDbEntity
  8
0
  6
Continuous
 62
     7
370
    25
100
AcDbLine
 10
203.049521377
 20
-64.3623674222
 30
0.0
 11
203.049521377
 21
-64.5042490207
 31
0.0
  0
LINE
  5
145
330
1F
100
AcDbEntity
  8
0
  6
Continuous
 62
     7
370
    25
100
AcDbLine
 10
207.049521377
 20
-65.0504109005
 30
0.0
 11
206.659521377
 21
-64.7773299606
 31
0.0
  0
LINE
  5
146
330
1F
100
AcDbEntity
  8
0
  6
Continuous
 62
     7
370
    25
100
AcDbLine
 10
203.439521377
 20
-64.7773299606
 30
0.0
 11
203.049521377
 21
-65.0504109005
 31
0.0
  0
LINE
  5
147
330
1F
100
AcDbEntity
  8
0
  6
Continuous
 62
     7
370
    25
100
AcDbLine
 10
207.049521377
 20
-65.1922924989
 30
0.0
 11
207.049521377
 21
-65.0504109005
 31
0.0
  0
LINE
  5
148
330
1F
100
AcDbEntity
  8
0
  6
Continuous
 62
     7
370
    25
100
AcDbLine
 10
203.049521377
 20
-65.0504109005
 30
0.0
 11
203.049521377
 21
-65.1922924989
 31
0.0
  0
LINE
  5
149
330
1F
100
AcDbEntity
  8
0
  6
Continuous
 62
     7
370
    25
100
AcDbLine
 10
203.049521377
 20
-65.1922924989
 30
0.0
 11
203.439521377
 21
-65.4653734388
 31
0.0
  0
LINE
  5
14A
330
1F
100
AcDbEntity
  8
0
  6
Continuous
 62
     7
370
    25
100
AcDbLine
 10
206.659521377
 20
-65.4653734388
 30
0.0
 11
207.049521377
 21
-65.1922924989
 31
0.0
  0
LINE
  5
14B
330
1F
100
AcDbEntity
  8
0
  6
Continuous
 62
     7
370
    25
100
AcDbLine
 10
207.049521377
 20
-65.7384543787
 30
0.0
 11
206.659521377
 21
-65.4653734388
 31
0.0
  0
LINE
  5
14C
330
1F
100
AcDbEntity
  8
0
  6
Continuous
 62
     7
370
    25
100
AcDbLine
 10
203.439521377
 20
-65.4653734388
 30
0.0
 11
203.049521377
 21
-65.7384543787
 31
0.0
  0
LINE
  5
14D
330
1F
100
AcDbEntity
  8
0
  6
Continuous
 62
     7
370
    25
100
AcDbLine
 10
207.049521377
 20
-65.8803359772
 30
0.0
 11
207.049521377
 21
-65.7384543787
 31
0.0
  0
LINE
  5
14E
330
1F
100
AcDbEntity
  8
0
  6
Continuous
 62
     7
370
    25
100
AcDbLine
 10
203.049521377
 20
-65.7384543787
 30
0.0
 11
203.049521377
 21
-65.8803359772
 31
0.0
  0
LINE
  5
14F
330
1F
100
AcDbEntity
  8
0
  6
Continuous
 62
     7
370
    25
100
AcDbLine
 10
203.049521377
 20
-65.8803359772
 30
0.0
 11
203.439521377
 21
-66.1534169171
 31
0.0
  0
LINE
  5
150
330
1F
100
AcDbEntity
  8
0
  6
Continuous
 62
     7
370
    25
100
AcDbLine
 10
206.659521377
 20
-66.1534169171
 30
0.0
 11
207.049521377
 21
-65.8803359772
 31
0.0
  0
LINE
  5
151
330
1F
100
AcDbEntity
  8
0
  6
Continuous
 62
     7
370
    25
100
AcDbLine
 10
207.049521377
 20
-66.426497857
 30
0.0
 11
206.659521377
 21
-66.1534169171
 31
0.0
  0
LINE
  5
152
330
1F
100
AcDbEntity
  8
0
  6
Continuous
 62
     7
370
    25
100
AcDbLine
 10
203.439521377
 20
-66.1534169171
 30
0.0
 11
203.049521377
 21
-66.426497857
 31
0.0
  0
LINE
  5
153
330
1F
100
AcDbEntity
  8
0
  6
Continuous
 62
     7
370
    25
100
AcDbLine
 10
203.049521377
 20
-66.5683794554
 30
0.0
 11
203.439521377
 21
-66.8414603953
 31
0.0
  0
LINE
  5
154
330
1F
100
AcDbEntity
  8
0
  6
Continuous
 62
     7
370
    25
100
AcDbLine
 10
206.659521377
 20
-66.8414603953
 30
0.0
 11
207.049521377
 21
-66.5683794554
 31
0.0
  0
LINE
  5
155
330
1F
100
AcDbEntity
  8
0
  6
Continuous
 62
     7
370
    25
100
AcDbLine
 10
207.049521377
 20
-66.5683794554
 30
0.0
 11
207.049521377
 21
-66.426497857
 31
0.0
  0
LINE
  5
156
330
1F
100
AcDbEntity
  8
0
  6
Continuous
 62
     7
370
    25
100
AcDbLine
 10
203.049521377
 20
-66.426497857
 30
0.0
 11
203.049521377
 21
-66.5683794554
 31
0.0
  0
LINE
  5
157
330
1F
100
AcDbEntity
  8
0
  6
Continuous
 62
     7
370
    25
100
AcDbLine
 10
207.049521377
 20
-67.1145413352
 30
0.0
 11
206.659521377
 21
-66.8414603953
 31
0.0
  0
LINE
  5
158
330
1F
100
AcDbEntity
  8
0
  6
Continuous
 62
     7
370
    25
100
AcDbLine
 10
203.439521377
 20
-66.8414603953
 30
0.0
 11
203.049521377
 21
-67.1145413352
 31
0.0
  0
LINE
  5
159
330
1F
100
AcDbEntity
  8
0
  6
Continuous
 62
     7
370
    25
100
AcDbLine
 10
207.049521377
 20
-67.2564229337
 30
0.0
 11
207.049521377
 21
-67.1145413352
 31
0.0
  0
LINE
  5
15A
330
1F
100
AcDbEntity
  8
0
  6
Continuous
 62
     7
370
    25
100
AcDbLine
 10
203.049521377
 20
-67.1145413352
 30
0.0
 11
203.049521377
 21
-67.2564229337
 31
0.0
  0
LINE
  5
15B
330
1F
100
AcDbEntity
  8
0
  6
Continuous
 62
     7
370
    25
100
AcDbLine
 10
207.049521377
 20
-67.8025848135
 30
0.0
 11
206.659521377
 21
-67.5295038736
 31
0.0
  0
LINE
  5
15C
330
1F
100
AcDbEntity
  8
0
  6
Continuous
 62
     7
370
    25
100
AcDbLine
 10
203.439521377
 20
-67.5295038736
 30
0.0
 11
203.049521377
 21
-67.8025848135
 31
0.0
  0
LINE
  5
15D
330
1F
100
AcDbEntity
  8
0
  6
Continuous
 62
     7
370
    25
100
AcDbLine
 10
203.049521377
 20
-67.2564229337
 30
0.0
 11
203.439521377
 21
-67.5295038736
 31
0.0
  0
LINE
  5
15E
330
1F
100
AcDbEntity
  8
0
  6
Continuous
 62
     7
370
    25
100
AcDbLine
 10
206.659521377
 20
-67.5295038736
 30
0.0
 11
207.049521377
 21
-67.2564229337
 31
0.0
  0
LINE
  5
15F
330
1F
100
AcDbEntity
  8
0
  6
Continuous
 62
     7
370
    25
100
AcDbLine
 10
203.049521377
 20
-67.944466412
 30
0.0
 11
203.439521377
 21
-68.2175473519
 31
0.0
  0
LINE
  5
160
330
1F
100
AcDbEntity
  8
0
  6
Continuous
 62
     7
370
    25
100
AcDbLine
 10
206.659521377
 20
-68.2175473519
 30
0.0
 11
207.049521377
 21
-67.944466412
 31
0.0
  0
LINE
  5
161
330
1F
100
AcDbEntity
  8
0
  6
Continuous
 62
     7
370
    25
100
AcDbLine
 10
207.049521377
 20
-67.944466412
 30
0.0
 11
207.049521377
 21
-67.8025848135
 31
0.0
  0
LINE
  5
162
330
1F
100
AcDbEntity
  8
0
  6
Continuous
 62
     7
370
    25
100
AcDbLine
 10
203.049521377
 20
-67.8025848135
 30
0.0
 11
203.049521377
 21
-67.944466412
 31
0.0
  0
LINE
  5
163
330
1F
100
AcDbEntity
  8
0
  6
Continuous
 62
     7
370
    25
100
AcDbLine
 10
207.049521377
 20
-68.4906282918
 30
0.0
 11
206.659521377
 21
-68.2175473519
 31
0.0
  0
LINE
  5
164
330
1F
100
AcDbEntity
  8
0
  6
Continuous
 62
     7
370
    25
100
AcDbLine
 10
203.439521377
 20
-68.2175473519
 30
0.0
 11
203.049521377
 21
-68.4906282918
 31
0.0
  0
LINE
  5
165
330
1F
100
AcDbEntity
  8
0
  6
Continuous
 62
     7
370
    25
100
AcDbLine
 10
207.049521377
 20
-68.6325098902
 30
0.0
 11
207.049521377
 21
-68.4906282918
 31
0.0
  0
LINE
  5
166
330
1F
100
AcDbEntity
  8
0
  6
Continuous
 62
     7
370
    25
100
AcDbLine
 10
203.049521377
 20
-68.4906282918
 30
0.0
 11
203.049521377
 21
-68.6325098902
 31
0.0
  0
LINE
  5
167
330
1F
100
AcDbEntity
  8
0
  6
Continuous
 62
     7
370
    25
100
AcDbLine
 10
203.049521377
 20
-68.6325098902
 30
0.0
 11
203.439521377
 21
-68.9055908301
 31
0.0
  0
LINE
  5
168
330
1F
100
AcDbEntity
  8
0
  6
Continuous
 62
     7
370
    25
100
AcDbLine
 10
206.659521377
 20
-68.9055908301
 30
0.0
 11
207.049521377
 21
-68.6325098902
 31
0.0
  0
LINE
  5
169
330
1F
100
AcDbEntity
  8
0
  6
Continuous
 62
     7
370
    25
100
AcDbLine
 10
207.049521377
 20
-69.3205533685
 30
0.0
 11
207.049521377
 21
-69.17867177
 31
0.0
  0
LINE
  5
16A
330
1F
100
AcDbEntity
  8
0
  6
Continuous
 62
     7
370
    25
100
AcDbLine
 10
203.049521377
 20
-69.17867177
 30
0.0
 11
203.049521377
 21
-69.3205533685
 31
0.0
  0
LINE
  5
16B
330
1F
100
AcDbEntity
  8
0
  6
Continuous
 62
     7
370
    25
100
AcDbLine
 10
207.049521377
 20
-69.17867177
 30
0.0
 11
206.659521377
 21
-68.9055908301
 31
0.0
  0
LINE
  5
16C
330
1F
100
AcDbEntity
  8
0
  6
Continuous
 62
     7
370
    25
100
AcDbLine
 10
203.439521377
 20
-68.9055908301
 30
0.0
 11
203.049521377
 21
-69.17867177
 31
0.0
  0
LINE
  5
16D
330
1F
100
AcDbEntity
  8
0
  6
Continuous
 62
     7
370
    25
100
AcDbLine
 10
207.049521377
 20
-69.8667152483
 30
0.0
 11
206.659521377
 21
-69.5936343084
 31
0.0
  0
LINE
  5
16E
330
1F
100
AcDbEntity
  8
0
  6
Continuous
 62
     7
370
    25
100
AcDbLine
 10
203.439521377
 20
-69.5936343084
 30
0.0
 11
203.049521377
 21
-69.8667152483
 31
0.0
  0
LINE
  5
16F
330
1F
100
AcDbEntity
  8
0
  6
Continuous
 62
     7
370
    25
100
AcDbLine
 10
203.049521377
 20
-69.3205533685
 30
0.0
 11
203.439521377
 21
-69.5936343084
 31
0.0
  0
LINE
  5
170
330
1F
100
AcDbEntity
  8
0
  6
Continuous
 62
     7
370
    25
100
AcDbLine
 10
206.659521377
 20
-69.5936343084
 30
0.0
 11
207.049521377
 21
-69.3205533685
 31
0.0
  0
LINE
  5
171
330
1F
100
AcDbEntity
  8
0
  6
Continuous
 62
     7
370
    25
100
AcDbLine
 10
203.049521377
 20
-70.0085968467
 30
0.0
 11
203.439521377
 21
-70.2816777867
 31
0.0
  0
LINE
  5
172
330
1F
100
AcDbEntity
  8
0
  6
Continuous
 62
     7
370
    25
100
AcDbLine
 10
206.659521377
 20
-70.2816777867
 30
0.0
 11
207.049521377
 21
-70.0085968467
 31
0.0
  0
LINE
  5
173
330
1F
100
AcDbEntity
  8
0
  6
Continuous
 62
     7
370
    25
100
AcDbLine
 10
207.049521377
 20
-70.0085968467
 30
0.0
 11
207.049521377
 21
-69.8667152483
 31
0.0
  0
LINE
  5
174
330
1F
100
AcDbEntity
  8
0
  6
Continuous
 62
     7
370
    25
100
AcDbLine
 10
203.049521377
 20
-69.8667152483
 30
0.0
 11
203.049521377
 21
-70.0085968467
 31
0.0
  0
LINE
  5
175
330
1F
100
AcDbEntity
  8
0
  6
Continuous
 62
     7
370
    25
100
AcDbLine
 10
207.049521377
 20
-70.5547587266
 30
0.0
 11
206.659521377
 21
-70.2816777867
 31
0.0
  0
LINE
  5
176
330
1F
100
AcDbEntity
  8
0
  6
Continuous
 62
     7
370
    25
100
AcDbLine
 10
203.439521377
 20
-70.2816777867
 30
0.0
 11
203.049521377
 21
-70.5547587266
 31
0.0
  0
LINE
  5
177
330
1F
100
AcDbEntity
  8
0
  6
Continuous
 62
     7
370
    25
100
AcDbLine
 10
207.049521377
 20
-70.696640325
 30
0.0
 11
207.049521377
 21
-70.5547587266
 31
0.0
  0
LINE
  5
178
330
1F
100
AcDbEntity
  8
0
  6
Continuous
 62
     7
370
    25
100
AcDbLine
 10
203.049521377
 20
-70.5547587266
 30
0.0
 11
203.049521377
 21
-70.696640325
 31
0.0
  0
LINE
  5
179
330
1F
100
AcDbEntity
  8
0
  6
Continuous
 62
     7
370
    25
100
AcDbLine
 10
203.049521377
 20
-70.696640325
 30
0.0
 11
203.439521377
 21
-70.9697212649
 31
0.0
  0
LINE
  5
17A
330
1F
100
AcDbEntity
  8
0
  6
Continuous
 62
     7
370
    25
100
AcDbLine
 10
206.659521377
 20
-70.9697212649
 30
0.0
 11
207.049521377
 21
-70.696640325
 31
0.0
  0
LINE
  5
17B
330
1F
100
AcDbEntity
  8
0
  6
Continuous
 62
     7
370
    25
100
AcDbLine
 10
207.049521377
 20
-71.2428022048
 30
0.0
 11
206.659521377
 21
-70.9697212649
 31
0.0
  0
LINE
  5
17C
330
1F
100
AcDbEntity
  8
0
  6
Continuous
 62
     7
370
    25
100
AcDbLine
 10
203.439521377
 20
-70.9697212649
 30
0.0
 11
203.049521377
 21
-71.2428022048
 31
0.0
  0
LINE
  5
17D
330
1F
100
AcDbEntity
  8
0
  6
Continuous
 62
     7
370
    25
100
AcDbLine
 10
207.049521377
 20
-71.9308456831
 30
0.0
 11
206.659521377
 21
-71.6577647432
 31
0.0
  0
LINE
  5
17E
330
1F
100
AcDbEntity
  8
0
  6
Continuous
 62
     7
370
    25
100
AcDbLine
 10
203.439521377
 20
-71.6577647432
 30
0.0
 11
203.049521377
 21
-71.9308456831
 31
0.0
  0
LINE
  5
17F
330
1F
100
AcDbEntity
  8
0
  6
Continuous
 62
     7
370
    25
100
AcDbLine
 10
203.049521377
 20
-71.3846838033
 30
0.0
 11
203.439521377
 21
-71.6577647432
 31
0.0
  0
LINE
  5
180
330
1F
100
AcDbEntity
  8
0
  6
Continuous
 62
     7
370
    25
100
AcDbLine
 10
206.659521377
 20
-71.6577647432
 30
0.0
 11
207.049521377
 21
-71.3846838033
 31
0.0
  0
LINE
  5
181
330
1F
100
AcDbEntity
  8
0
  6
Continuous
 62
     7
370
    25
100
AcDbLine
 10
207.049521377
 20
-71.3846838033
 30
0.0
 11
207.049521377
 21
-71.2428022048
 31
0.0
  0
LINE
  5
182
330
1F
100
AcDbEntity
  8
0
  6
Continuous
 62
     7
370
    25
100
AcDbLine
 10
203.049521377
 20
-71.2428022048
 30
0.0
 11
203.049521377
 21
-71.3846838033
 31
0.0
  0
LINE
  5
183
330
1F
100
AcDbEntity
  8
0
  6
Continuous
 62
     7
370
    25
100
AcDbLine
 10
203.049521377
 20
-72.0727272815
 30
0.0
 11
203.439521377
 21
-72.3458082214
 31
0.0
  0
LINE
  5
184
330
1F
100
AcDbEntity
  8
0
  6
Continuous
 62
     7
370
    25
100
AcDbLine
 10
206.659521377
 20
-72.3458082214
 30
0.0
 11
207.049521377
 21
-72.0727272815
 31
0.0
  0
LINE
  5
185
330
1F
100
AcDbEntity
  8
0
  6
Continuous
 62
     7
370
    25
100
AcDbLine
 10
207.049521377
 20
-72.0727272815
 30
0.0
 11
207.049521377
 21
-71.9308456831
 31
0.0
  0
LINE
  5
186
330
1F
100
AcDbEntity
  8
0
  6
Continuous
 62
     7
370
    25
100
AcDbLine
 10
203.049521377
 20
-71.9308456831
 30
0.0
 11
203.049521377
 21
-72.0727272815
 31
0.0
  0
LINE
  5
187
330
1F
100
AcDbEntity
  8
0
  6
Continuous
 62
     7
370
    25
100
AcDbLine
 10
207.049521377
 20
-72.6188891613
 30
0.0
 11
206.659521377
 21
-72.3458082214
 31
0.0
  0
LINE
  5
188
330
1F
100
AcDbEntity
  8
0
  6
Continuous
 62
     7
370
    25
100
AcDbLine
 10
203.439521377
 20
-72.3458082214
 30
0.0
 11
203.049521377
 21
-72.6188891613
 31
0.0
  0
LINE
  5
189
330
1F
100
AcDbEntity
  8
0
  6
Continuous
 62
     7
370
    25
100
AcDbLine
 10
207.049521377
 20
-72.7607707598
 30
0.0
 11
207.049521377
 21
-72.6188891613
 31
0.0
  0
LINE
  5
18A
330
1F
100
AcDbEntity
  8
0
  6
Continuous
 62
     7
370
    25
100
AcDbLine
 10
203.049521377
 20
-72.6188891613
 30
0.0
 11
203.049521377
 21
-72.7607707598
 31
0.0
  0
LINE
  5
18B
330
1F
100
AcDbEntity
  8
0
  6
Continuous
 62
     7
370
    25
100
AcDbLine
 10
207.049521377
 20
-73.4488142381
 30
0.0
 11
207.049521377
 21
-73.3069326396
 31
0.0
  0
LINE
  5
18C
330
1F
100
AcDbEntity
  8
0
  6
Continuous
 62
     7
370
    25
100
AcDbLine
 10
203.049521377
 20
-73.3069326396
 30
0.0
 11
203.049521377
 21
-73.4488142381
 31
0.0
  0
LINE
  5
18D
330
1F
100
AcDbEntity
  8
0
  6
Continuous
 62
     7
370
    25
100
AcDbLine
 10
203.049521377
 20
-72.7607707598
 30
0.0
 11
203.439521377
 21
-73.0338516997
 31
0.0
  0
LINE
  5
18E
330
1F
100
AcDbEntity
  8
0
  6
Continuous
 62
     7
370
    25
100
AcDbLine
 10
206.659521377
 20
-73.0338516997
 30
0.0
 11
207.049521377
 21
-72.7607707598
 31
0.0
  0
LINE
  5
18F
330
1F
100
AcDbEntity
  8
0
  6
Continuous
 62
     7
370
    25
100
AcDbLine
 10
203.049521377
 20
-73.4488142381
 30
0.0
 11
203.439521377
 21
-73.721895178
 31
0.0
  0
LINE
  5
190
330
1F
100
AcDbEntity
  8
0
  6
Continuous
 62
     7
370
    25
100
AcDbLine
 10
206.659521377
 20
-73.721895178
 30
0.0
 11
207.049521377
 21
-73.4488142381
 31
0.0
  0
LINE
  5
191
330
1F
100
AcDbEntity
  8
0
  6
Continuous
 62
     7
370
    25
100
AcDbLine
 10
207.049521377
 20
-73.3069326396
 30
0.0
 11
206.659521377
 21
-73.0338516997
 31
0.0
  0
LINE
  5
192
330
1F
100
AcDbEntity
  8
0
  6
Continuous
 62
     7
370
    25
100
AcDbLine
 10
203.439521377
 20
-73.0338516997
 30
0.0
 11
203.049521377
 21
-73.3069326396
 31
0.0
  0
LINE
  5
193
330
1F
100
AcDbEntity
  8
0
  6
Continuous
 62
     7
370
    25
100
AcDbLine
 10
203.049521377
 20
-74.1368577163
 30
0.0
 11
203.439521377
 21
-74.4099386562
 31
0.0
  0
LINE
  5
194
330
1F
100
AcDbEntity
  8
0
  6
Continuous
 62
     7
370
    25
100
AcDbLine
 10
206.659521377
 20
-74.4099386562
 30
0.0
 11
207.049521377
 21
-74.1368577163
 31
0.0
  0
LINE
  5
195
330
1F
100
AcDbEntity
  8
0
  6
Continuous
 62
     7
370
    25
100
AcDbLine
 10
207.049521377
 20
-74.1368577163
 30
0.0
 11
207.049521377
 21
-73.9949761179
 31
0.0
  0
LINE
  5
196
330
1F
100
AcDbEntity
  8
0
  6
Continuous
 62
     7
370
    25
100
AcDbLine
 10
203.049521377
 20
-73.9949761179
 30
0.0
 11
203.049521377
 21
-74.1368577163
 31
0.0
  0
LINE
  5
197
330
1F
100
AcDbEntity
  8
0
  6
Continuous
 62
     7
370
    25
100
AcDbLine
 10
207.049521377
 20
-73.9949761179
 30
0.0
 11
206.659521377
 21
-73.721895178
 31
0.0
  0
LINE
  5
198
330
1F
100
AcDbEntity
  8
0
  6
Continuous
 62
     7
370
    25
100
AcDbLine
 10
203.439521377
 20
-73.721895178
 30
0.0
 11
203.049521377
 21
-73.9949761179
 31
0.0
  0
LINE
  5
199
330
1F
100
AcDbEntity
  8
0
  6
Continuous
 62
     7
370
    25
100
AcDbLine
 10
203.049521377
 20
-74.8249011946
 30
0.0
 11
203.439521377
 21
-75.0979821345
 31
0.0
  0
LINE
  5
19A
330
1F
100
AcDbEntity
  8
0
  6
Continuous
 62
     7
370
    25
100
AcDbLine
 10
206.659521377
 20
-75.0979821345
 30
0.0
 11
207.049521377
 21
-74.8249011946
 31
0.0
  0
LINE
  5
19B
330
1F
100
AcDbEntity
  8
0
  6
Continuous
 62
     7
370
    25
100
AcDbLine
 10
207.049521377
 20
-74.6830195961
 30
0.0
 11
206.659521377
 21
-74.4099386562
 31
0.0
  0
LINE
  5
19C
330
1F
100
AcDbEntity
  8
0
  6
Continuous
 62
     7
370
    25
100
AcDbLine
 10
203.439521377
 20
-74.4099386562
 30
0.0
 11
203.049521377
 21
-74.6830195961
 31
0.0
  0
LINE
  5
19D
330
1F
100
AcDbEntity
  8
0
  6
Continuous
 62
     7
370
    25
100
AcDbLine
 10
207.049521377
 20
-74.8249011946
 30
0.0
 11
207.049521377
 21
-74.6830195961
 31
0.0
  0
LINE
  5
19E
330
1F
100
AcDbEntity
  8
0
  6
Continuous
 62
     7
370
    25
100
AcDbLine
 10
203.049521377
 20
-74.6830195961
 30
0.0
 11
203.049521377
 21
-74.8249011946
 31
0.0
  0
LINE
  5
19F
330
1F
100
AcDbEntity
  8
0
  6
Continuous
 62
     7
370
    25
100
AcDbLine
 10
207.049521377
 20
-75.3710630744
 30
0.0
 11
206.659521377
 21
-75.0979821345
 31
0.0
  0
LINE
  5
1A0
330
1F
100
AcDbEntity
  8
0
  6
Continuous
 62
     7
370
    25
100
AcDbLine
 10
203.439521377
 20
-75.0979821345
 30
0.0
 11
203.049521377
 21
-75.3710630744
 31
0.0
  0
LINE
  5
1A1
330
1F
100
AcDbEntity
  8
0
  6
Continuous
 62
     7
370
    25
100
AcDbLine
 10
207.049521377
 20
-75.5129446728
 30
0.0
 11
207.049521377
 21
-75.3710630744
 31
0.0
  0
LINE
  5
1A2
330
1F
100
AcDbEntity
  8
0
  6
Continuous
 62
     7
370
    25
100
AcDbLine
 10
203.049521377
 20
-75.3710630744
 30
0.0
 11
203.049521377
 21
-75.5129446728
 31
0.0
  0
LINE
  5
1A3
330
1F
100
AcDbEntity
  8
0
  6
Continuous
 62
     7
370
    25
100
AcDbLine
 10
203.049521377
 20
-75.5129446728
 30
0.0
 11
203.439521377
 21
-75.7860256127
 31
0.0
  0
LINE
  5
1A4
330
1F
100
AcDbEntity
  8
0
  6
Continuous
 62
     7
370
    25
100
AcDbLine
 10
206.659521377
 20
-75.7860256127
 30
0.0
 11
207.049521377
 21
-75.5129446728
 31
0.0
  0
LINE
  5
1A5
330
1F
100
AcDbEntity
  8
0
  6
Continuous
 62
     7
370
    25
100
AcDbLine
 10
207.049521377
 20
-76.2009881511
 30
0.0
 11
207.049521377
 21
-76.0591065526
 31
0.0
  0
LINE
  5
1A6
330
1F
100
AcDbEntity
  8
0
  6
Continuous
 62
     7
370
    25
100
AcDbLine
 10
203.049521377
 20
-76.0591065526
 30
0.0
 11
203.049521377
 21
-76.2009881511
 31
0.0
  0
LINE
  5
1A7
330
1F
100
AcDbEntity
  8
0
  6
Continuous
 62
     7
370
    25
100
AcDbLine
 10
207.049521377
 20
-76.0591065526
 30
0.0
 11
206.659521377
 21
-75.7860256127
 31
0.0
  0
LINE
  5
1A8
330
1F
100
AcDbEntity
  8
0
  6
Continuous
 62
     7
370
    25
100
AcDbLine
 10
203.439521377
 20
-75.7860256127
 30
0.0
 11
203.049521377
 21
-76.0591065526
 31
0.0
  0
LINE
  5
1A9
330
1F
100
AcDbEntity
  8
0
  6
Continuous
 62
     7
370
    25
100
AcDbLine
 10
203.049521377
 20
-76.2009881511
 30
0.0
 11
203.439521377
 21
-76.474069091
 31
0.0
  0
LINE
  5
1AA
330
1F
100
AcDbEntity
  8
0
  6
Continuous
 62
     7
370
    25
100
AcDbLine
 10
206.659521377
 20
-76.474069091
 30
0.0
 11
207.049521377
 21
-76.2009881511
 31
0.0
  0
LINE
  5
1AB
330
1F
100
AcDbEntity
  8
0
  6
Continuous
 62
     7
370
    25
100
AcDbLine
 10
207.049521377
 20
-76.7471500309
 30
0.0
 11
206.659521377
 21
-76.474069091
 31
0.0
  0
LINE
  5
1AC
330
1F
100
AcDbEntity
  8
0
  6
Continuous
 62
     7
370
    25
100
AcDbLine
 10
203.439521377
 20
-76.474069091
 30
0.0
 11
203.049521377
 21
-76.7471500309
 31
0.0
  0
LINE
  5
1AD
330
1F
100
AcDbEntity
  8
0
  6
Continuous
 62
     7
370
    25
100
AcDbLine
 10
207.049521377
 20
-76.7471500309
 30
0.0
 11
207.049521377
 21
-76.7471500309
 31
0.0
  0
LINE
  5
1AE
330
1F
100
AcDbEntity
  8
0
  6
Continuous
 62
     7
370
    25
100
AcDbLine
 10
203.049521377
 20
-76.7471500309
 30
0.0
 11
203.049521377
 21
-76.7471500309
 31
0.0
  0
LINE
  5
1AF
330
1F
100
AcDbEntity
  8
0
  6
Continuous
 62
     7
370
    25
100
AcDbLine
 10
179.549521377
 20
-71.074070091
 30
0.0
 11
179.549521377
 21
-76.824070091
 31
0.0
  0
LINE
  5
1B0
330
1F
100
AcDbEntity
  8
0
  6
Continuous
 62
     7
370
    25
100
AcDbLine
 10
192.549521377
 20
-76.824070091
 30
0.0
 11
192.549521377
 21
-71.074070091
 31
0.0
  0
LINE
  5
1B1
330
1F
100
AcDbEntity
  8
0
  6
Continuous
 62
     7
370
    25
100
AcDbLine
 10
192.549521377
 20
-71.074070091
 30
0.0
 11
192.299521377
 21
-70.824070091
 31
0.0
  0
LINE
  5
1B2
330
1F
100
AcDbEntity
  8
0
  6
Continuous
 62
     7
370
    25
100
AcDbLine
 10
179.799521377
 20
-70.824070091
 30
0.0
 11
179.549521377
 21
-71.074070091
 31
0.0
  0
LINE
  5
1B3
330
1F
100
AcDbEntity
  8
0
  6
Continuous
 62
     7
370
    25
100
AcDbLine
 10
192.549521377
 20
-37.0631810219
 30
0.0
 11
192.549521377
 21
-31.3131810219
 31
0.0
  0
LINE
  5
1B4
330
1F
100
AcDbEntity
  8
0
  6
Continuous
 62
     7
370
    25
100
AcDbLine
 10
179.549521377
 20
-31.3131810219
 30
0.0
 11
179.549521377
 21
-37.0631810219
 31
0.0
  0
LINE
  5
1B5
330
1F
100
AcDbEntity
  8
0
  6
Continuous
 62
     7
370
    25
100
AcDbLine
 10
179.549521377
 20
-37.0631810219
 30
0.0
 11
179.799521377
 21
-37.3131810219
 31
0.0
  0
LINE
  5
1B6
330
1F
100
AcDbEntity
  8
0
  6
Continuous
 62
     7
370
    25
100
AcDbLine
 10
192.299521377
 20
-37.3131810219
 30
0.0
 11
192.549521377
 21
-37.0631810219
 31
0.0
  0
LINE
  5
1B7
330
1F
100
AcDbEntity
  8
0
  6
Continuous
 62
     7
370
    25
100
AcDbLine
 10
180.049521377
 20
-79.824070091
 30
0.0
 11
180.049521377
 21
-80.824070091
 31
0.0
  0
LINE
  5
1B8
330
1F
100
AcDbEntity
  8
0
  6
Continuous
 62
     7
370
    25
100
AcDbLine
 10
192.049521377
 20
-80.824070091
 30
0.0
 11
192.049521377
 21
-79.824070091
 31
0.0
  0
LINE
  5
1B9
330
1F
100
AcDbEntity
  8
0
  6
Continuous
 62
     7
370
    25
100
AcDbLine
 10
192.049521377
 20
-28.3131810219
 30
0.0
 11
192.049521377
 21
-27.3131810219
 31
0.0
  0
LINE
  5
1BA
330
1F
100
AcDbEntity
  8
0
  6
Continuous
 62
     7
370
    25
100
AcDbLine
 10
180.049521377
 20
-27.3131810219
 30
0.0
 11
180.049521377
 21
-28.3131810219
 31
0.0
  0
LINE
  5
1BB
330
1F
100
AcDbEntity
  8
0
  6
Continuous
 62
     7
370
    25
100
AcDbLine
 10
173.2675344219
 20
-21.262432865
 30
0.0
 11
173.1344960085
 21
-21.6210283743
 31
0.0
  0
LWPOLYLINE
  5
1BC
330
1F
100
AcDbEntity
  8
0
  6
Continuous
 62
     7
370
    25
100
AcDbPolyline
 90
        3
 70
   128
 43
0.0
 10
173.1340646785
 20
-16.0046113503
 10
173.2005892432
 20
-16.1839545601
 10
173.2671138194
 20
-16.3632978627
  0
LWPOLYLINE
  5
1BD
330
1F
100
AcDbEntity
  8
0
  6
Continuous
 62
     7
370
    25
100
AcDbPolyline
 90
        3
 70
   128
 43
0.0
 10
173.2671138194
 20
-21.2630641812
 10
173.2005892432
 20
-21.4424074838
 10
173.1340646785
 20
-21.6217506936
  0
LINE
  5
1BE
330
1F
100
AcDbEntity
  8
0
  6
Continuous
 62
     7
370
    25
100
AcDbLine
 10
173.2675344219
 20
-91.773321934
 30
0.0
 11
173.1344960085
 21
-92.1319174434
 31
0.0
  0
LWPOLYLINE
  5
1BF
330
1F
100
AcDbEntity
  8
0
  6
Continuous
 62
     7
370
    25
100
AcDbPolyline
 90
        3
 70
   128
 43
0.0
 10
173.1340646785
 20
-86.5155004194
 10
173.2005892432
 20
-86.6948436292
 10
173.2671138194
 20
-86.8741869318
  0
LWPOLYLINE
  5
1C0
330
1F
100
AcDbEntity
  8
0
  6
Continuous
 62
     7
370
    25
100
AcDbPolyline
 90
        3
 70
   128
 43
0.0
 10
173.2671138194
 20
-91.7739532502
 10
173.2005892432
 20
-91.9532965528
 10
173.1340646785
 20
-92.1326397626
  0
LINE
  5
1C1
330
1F
100
AcDbEntity
  8
0
  6
Continuous
 62
     7
370
    25
100
AcDbLine
 10
203.2318742994
 20
-44.2631810219
 30
0.0
 11
208.0227348847
 21
-44.2631810219
 31
0.0
  0
LINE
  5
1C2
330
1F
100
AcDbEntity
  8
0
  6
Continuous
 62
     7
370
    25
100
AcDbLine
 10
207.9731813263
 20
-44.3131810219
 30
0.0
 11
203.2621684174
 21
-44.3131810219
 31
0.0
  0
LWPOLYLINE
  5
1C3
330
1F
100
AcDbEntity
  8
0
  6
Continuous
 62
     7
370
    25
100
AcDbPolyline
 90
        9
 70
   128
 43
0.0
 10
203.2621684174
 20
-44.3131810219
 10
203.2562583282
 20
-44.312220286
 10
203.2505753604
 20
-44.3093749986
 10
203.2453379072
 20
-44.3047545026
 10
203.2407472412
 20
-44.298536361
 10
203.2369797789
 20
-44.2909595336
 10
203.2341803019
 20
-44.2823151936
 10
203.2324563924
 20
-44.272935538
 10
203.2318742994
 20
-44.2631810219
  0
ARC
  5
1C4
330
1F
100
AcDbEntity
  8
0
  6
Continuous
 62
     7
370
    25
100
AcDbCircle
 10
207.9729571
 20
-44.2634032462
 30
0.0
 40
0.0497782807974421
100
AcDbArc
 50
270.258089748
 51
0.255785293
  0
LINE
  5
1C5
330
1F
100
AcDbEntity
  8
0
  6
Continuous
 62
     7
370
    25
100
AcDbLine
 10
203.2318742994
 20
-44.2631810219
 30
0.0
 11
203.2159820163
 21
-44.2631810219
 31
0.0
  0
ARC
  5
1C6
330
1F
100
AcDbEntity
  8
0
  6
Continuous
 62
     7
370
    25
100
AcDbCircle
 10
203.2641539388
 20
-44.2650151037
 30
0.0
 40
0.0482068249640289
100
AcDbArc
 50
177.8195926842
 51
267.6394589905
  0
LINE
  5
1C7
330
1F
100
AcDbEntity
  8
0
  6
Continuous
 62
     7
370
    25
100
AcDbLine
 10
202.0796750267
 20
-44.2631810219
 30
0.0
 11
203.2159820163
 21
-44.2631810219
 31
0.0
  0
ARC
  5
1C8
330
1F
100
AcDbEntity
  8
0
  6
Continuous
 62
     7
370
    25
100
AcDbCircle
 10
202.1278469492
 20
-44.2650151037
 30
0.0
 40
0.0482068249640562
100
AcDbArc
 50
177.8195926842
 51
267.6394589905
  0
LINE
  5
1C9
330
1F
100
AcDbEntity
  8
0
  6
Continuous
 62
     7
370
    25
100
AcDbLine
 10
203.2621684174
 20
-44.3131810219
 30
0.0
 11
202.1258614278
 21
-44.3131810219
 31
0.0
  0
LINE
  5
1CA
330
1F
100
AcDbEntity
  8
0
  6
Continuous
 62
     7
370
    25
100
AcDbLine
 10
207.049521377
 20
-45.2390316294
 30
0.0
 11
203.049521377
 21
-45.2390316294
 31
0.0
  0
LINE
  5
1CB
330
1F
100
AcDbEntity
  8
0
  6
Continuous
 62
     7
370
    25
100
AcDbLine
 10
206.659521377
 20
-45.5121125693
 30
0.0
 11
203.439521377
 21
-45.5121125693
 31
0.0
  0
LINE
  5
1CC
330
1F
100
AcDbEntity
  8
0
  6
Continuous
 62
     7
370
    25
100
AcDbLine
 10
207.049521377
 20
-45.214070091
 30
0.0
 11
203.049521377
 21
-45.214070091
 31
0.0
  0
LINE
  5
1CD
330
1F
100
AcDbEntity
  8
0
  6
Continuous
 62
     7
370
    25
100
AcDbLine
 10
207.049521377
 20
-45.9270751076
 30
0.0
 11
203.049521377
 21
-45.9270751076
 31
0.0
  0
LINE
  5
1CE
330
1F
100
AcDbEntity
  8
0
  6
Continuous
 62
     7
370
    25
100
AcDbLine
 10
207.049521377
 20
-45.7851935092
 30
0.0
 11
203.049521377
 21
-45.7851935092
 31
0.0
  0
LINE
  5
1CF
330
1F
100
AcDbEntity
  8
0
  6
Continuous
 62
     7
370
    25
100
AcDbLine
 10
206.659521377
 20
-46.2001560475
 30
0.0
 11
203.439521377
 21
-46.2001560475
 31
0.0
  0
LINE
  5
1D0
330
1F
100
AcDbEntity
  8
0
  6
Continuous
 62
     7
370
    25
100
AcDbLine
 10
207.049521377
 20
-46.4732369874
 30
0.0
 11
203.049521377
 21
-46.4732369874
 31
0.0
  0
LINE
  5
1D1
330
1F
100
AcDbEntity
  8
0
  6
Continuous
 62
     7
370
    25
100
AcDbLine
 10
207.049521377
 20
-46.6151185859
 30
0.0
 11
203.049521377
 21
-46.6151185859
 31
0.0
  0
LINE
  5
1D2
330
1F
100
AcDbEntity
  8
0
  6
Continuous
 62
     7
370
    25
100
AcDbLine
 10
206.659521377
 20
-46.8881995258
 30
0.0
 11
203.439521377
 21
-46.8881995258
 31
0.0
  0
LINE
  5
1D3
330
1F
100
AcDbEntity
  8
0
  6
Continuous
 62
     7
370
    25
100
AcDbLine
 10
207.049521377
 20
-47.1612804657
 30
0.0
 11
203.049521377
 21
-47.1612804657
 31
0.0
  0
LINE
  5
1D4
330
1F
100
AcDbEntity
  8
0
  6
Continuous
 62
     7
370
    25
100
AcDbLine
 10
207.049521377
 20
-47.3031620641
 30
0.0
 11
203.049521377
 21
-47.3031620641
 31
0.0
  0
LINE
  5
1D5
330
1F
100
AcDbEntity
  8
0
  6
Continuous
 62
     7
370
    25
100
AcDbLine
 10
206.659521377
 20
-47.576243004
 30
0.0
 11
203.439521377
 21
-47.576243004
 31
0.0
  0
LINE
  5
1D6
330
1F
100
AcDbEntity
  8
0
  6
Continuous
 62
     7
370
    25
100
AcDbLine
 10
207.049521377
 20
-47.8493239439
 30
0.0
 11
203.049521377
 21
-47.8493239439
 31
0.0
  0
LINE
  5
1D7
330
1F
100
AcDbEntity
  8
0
  6
Continuous
 62
     7
370
    25
100
AcDbLine
 10
206.659521377
 20
-48.2642864823
 30
0.0
 11
203.439521377
 21
-48.2642864823
 31
0.0
  0
LINE
  5
1D8
330
1F
100
AcDbEntity
  8
0
  6
Continuous
 62
     7
370
    25
100
AcDbLine
 10
207.049521377
 20
-48.5373674222
 30
0.0
 11
203.049521377
 21
-48.5373674222
 31
0.0
  0
LINE
  5
1D9
330
1F
100
AcDbEntity
  8
0
  6
Continuous
 62
     7
370
    25
100
AcDbLine
 10
207.049521377
 20
-47.9912055424
 30
0.0
 11
203.049521377
 21
-47.9912055424
 31
0.0
  0
LINE
  5
1DA
330
1F
100
AcDbEntity
  8
0
  6
Continuous
 62
     7
370
    25
100
AcDbLine
 10
207.049521377
 20
-48.6792490207
 30
0.0
 11
203.049521377
 21
-48.6792490207
 31
0.0
  0
LINE
  5
1DB
330
1F
100
AcDbEntity
  8
0
  6
Continuous
 62
     7
370
    25
100
AcDbLine
 10
206.659521377
 20
-48.9523299606
 30
0.0
 11
203.439521377
 21
-48.9523299606
 31
0.0
  0
LINE
  5
1DC
330
1F
100
AcDbEntity
  8
0
  6
Continuous
 62
     7
370
    25
100
AcDbLine
 10
207.049521377
 20
-49.2254109005
 30
0.0
 11
203.049521377
 21
-49.2254109005
 31
0.0
  0
LINE
  5
1DD
330
1F
100
AcDbEntity
  8
0
  6
Continuous
 62
     7
370
    25
100
AcDbLine
 10
207.049521377
 20
-49.3672924989
 30
0.0
 11
203.049521377
 21
-49.3672924989
 31
0.0
  0
LINE
  5
1DE
330
1F
100
AcDbEntity
  8
0
  6
Continuous
 62
     7
370
    25
100
AcDbLine
 10
206.659521377
 20
-49.6403734388
 30
0.0
 11
203.439521377
 21
-49.6403734388
 31
0.0
  0
LINE
  5
1DF
330
1F
100
AcDbEntity
  8
0
  6
Continuous
 62
     7
370
    25
100
AcDbLine
 10
207.049521377
 20
-49.9134543787
 30
0.0
 11
203.049521377
 21
-49.9134543787
 31
0.0
  0
LINE
  5
1E0
330
1F
100
AcDbEntity
  8
0
  6
Continuous
 62
     7
370
    25
100
AcDbLine
 10
207.049521377
 20
-50.0553359772
 30
0.0
 11
203.049521377
 21
-50.0553359772
 31
0.0
  0
LINE
  5
1E1
330
1F
100
AcDbEntity
  8
0
  6
Continuous
 62
     7
370
    25
100
AcDbLine
 10
206.659521377
 20
-50.3284169171
 30
0.0
 11
203.439521377
 21
-50.3284169171
 31
0.0
  0
LINE
  5
1E2
330
1F
100
AcDbEntity
  8
0
  6
Continuous
 62
     7
370
    25
100
AcDbLine
 10
207.049521377
 20
-50.7433794554
 30
0.0
 11
203.049521377
 21
-50.7433794554
 31
0.0
  0
LINE
  5
1E3
330
1F
100
AcDbEntity
  8
0
  6
Continuous
 62
     7
370
    25
100
AcDbLine
 10
206.659521377
 20
-51.0164603953
 30
0.0
 11
203.439521377
 21
-51.0164603953
 31
0.0
  0
LINE
  5
1E4
330
1F
100
AcDbEntity
  8
0
  6
Continuous
 62
     7
370
    25
100
AcDbLine
 10
207.049521377
 20
-50.601497857
 30
0.0
 11
203.049521377
 21
-50.601497857
 31
0.0
  0
LINE
  5
1E5
330
1F
100
AcDbEntity
  8
0
  6
Continuous
 62
     7
370
    25
100
AcDbLine
 10
207.049521377
 20
-51.4314229337
 30
0.0
 11
203.049521377
 21
-51.4314229337
 31
0.0
  0
LINE
  5
1E6
330
1F
100
AcDbEntity
  8
0
  6
Continuous
 62
     7
370
    25
100
AcDbLine
 10
207.049521377
 20
-51.2895413352
 30
0.0
 11
203.049521377
 21
-51.2895413352
 31
0.0
  0
LINE
  5
1E7
330
1F
100
AcDbEntity
  8
0
  6
Continuous
 62
     7
370
    25
100
AcDbLine
 10
206.659521377
 20
-51.7045038736
 30
0.0
 11
203.439521377
 21
-51.7045038736
 31
0.0
  0
LINE
  5
1E8
330
1F
100
AcDbEntity
  8
0
  6
Continuous
 62
     7
370
    25
100
AcDbLine
 10
207.049521377
 20
-51.9775848135
 30
0.0
 11
203.049521377
 21
-51.9775848135
 31
0.0
  0
LINE
  5
1E9
330
1F
100
AcDbEntity
  8
0
  6
Continuous
 62
     7
370
    25
100
AcDbLine
 10
207.049521377
 20
-52.119466412
 30
0.0
 11
203.049521377
 21
-52.119466412
 31
0.0
  0
LINE
  5
1EA
330
1F
100
AcDbEntity
  8
0
  6
Continuous
 62
     7
370
    25
100
AcDbLine
 10
206.659521377
 20
-52.3925473519
 30
0.0
 11
203.439521377
 21
-52.3925473519
 31
0.0
  0
LINE
  5
1EB
330
1F
100
AcDbEntity
  8
0
  6
Continuous
 62
     7
370
    25
100
AcDbLine
 10
207.049521377
 20
-52.6656282918
 30
0.0
 11
203.049521377
 21
-52.6656282918
 31
0.0
  0
LINE
  5
1EC
330
1F
100
AcDbEntity
  8
0
  6
Continuous
 62
     7
370
    25
100
AcDbLine
 10
207.049521377
 20
-52.8075098902
 30
0.0
 11
203.049521377
 21
-52.8075098902
 31
0.0
  0
LINE
  5
1ED
330
1F
100
AcDbEntity
  8
0
  6
Continuous
 62
     7
370
    25
100
AcDbLine
 10
206.659521377
 20
-53.0805908301
 30
0.0
 11
203.439521377
 21
-53.0805908301
 31
0.0
  0
LINE
  5
1EE
330
1F
100
AcDbEntity
  8
0
  6
Continuous
 62
     7
370
    25
100
AcDbLine
 10
207.049521377
 20
-53.35367177
 30
0.0
 11
203.049521377
 21
-53.35367177
 31
0.0
  0
LINE
  5
1EF
330
1F
100
AcDbEntity
  8
0
  6
Continuous
 62
     7
370
    25
100
AcDbLine
 10
207.049521377
 20
-54.1835968467
 30
0.0
 11
203.049521377
 21
-54.1835968467
 31
0.0
  0
LINE
  5
1F0
330
1F
100
AcDbEntity
  8
0
  6
Continuous
 62
     7
370
    25
100
AcDbLine
 10
207.049521377
 20
-54.0417152483
 30
0.0
 11
203.049521377
 21
-54.0417152483
 31
0.0
  0
LINE
  5
1F1
330
1F
100
AcDbEntity
  8
0
  6
Continuous
 62
     7
370
    25
100
AcDbLine
 10
207.049521377
 20
-53.4955533685
 30
0.0
 11
203.049521377
 21
-53.4955533685
 31
0.0
  0
LINE
  5
1F2
330
1F
100
AcDbEntity
  8
0
  6
Continuous
 62
     7
370
    25
100
AcDbLine
 10
206.659521377
 20
-53.7686343084
 30
0.0
 11
203.439521377
 21
-53.7686343084
 31
0.0
  0
LINE
  5
1F3
330
1F
100
AcDbEntity
  8
0
  6
Continuous
 62
     7
370
    25
100
AcDbLine
 10
206.659521377
 20
-54.4566777867
 30
0.0
 11
203.439521377
 21
-54.4566777867
 31
0.0
  0
LINE
  5
1F4
330
1F
100
AcDbEntity
  8
0
  6
Continuous
 62
     7
370
    25
100
AcDbLine
 10
207.049521377
 20
-54.871640325
 30
0.0
 11
203.049521377
 21
-54.871640325
 31
0.0
  0
LINE
  5
1F5
330
1F
100
AcDbEntity
  8
0
  6
Continuous
 62
     7
370
    25
100
AcDbLine
 10
207.049521377
 20
-54.7297587266
 30
0.0
 11
203.049521377
 21
-54.7297587266
 31
0.0
  0
LINE
  5
1F6
330
1F
100
AcDbEntity
  8
0
  6
Continuous
 62
     7
370
    25
100
AcDbLine
 10
206.659521377
 20
-55.1447212649
 30
0.0
 11
203.439521377
 21
-55.1447212649
 31
0.0
  0
LINE
  5
1F7
330
1F
100
AcDbEntity
  8
0
  6
Continuous
 62
     7
370
    25
100
AcDbLine
 10
207.049521377
 20
-55.5596838033
 30
0.0
 11
203.049521377
 21
-55.5596838033
 31
0.0
  0
LINE
  5
1F8
330
1F
100
AcDbEntity
  8
0
  6
Continuous
 62
     7
370
    25
100
AcDbLine
 10
207.049521377
 20
-55.4178022048
 30
0.0
 11
203.049521377
 21
-55.4178022048
 31
0.0
  0
LINE
  5
1F9
330
1F
100
AcDbEntity
  8
0
  6
Continuous
 62
     7
370
    25
100
AcDbLine
 10
206.659521377
 20
-55.8327647432
 30
0.0
 11
203.439521377
 21
-55.8327647432
 31
0.0
  0
LINE
  5
1FA
330
1F
100
AcDbEntity
  8
0
  6
Continuous
 62
     7
370
    25
100
AcDbLine
 10
207.049521377
 20
-56.2477272815
 30
0.0
 11
203.049521377
 21
-56.2477272815
 31
0.0
  0
LINE
  5
1FB
330
1F
100
AcDbEntity
  8
0
  6
Continuous
 62
     7
370
    25
100
AcDbLine
 10
207.049521377
 20
-56.1058456831
 30
0.0
 11
203.049521377
 21
-56.1058456831
 31
0.0
  0
LINE
  5
1FC
330
1F
100
AcDbEntity
  8
0
  6
Continuous
 62
     7
370
    25
100
AcDbLine
 10
206.659521377
 20
-56.5208082214
 30
0.0
 11
203.439521377
 21
-56.5208082214
 31
0.0
  0
LINE
  5
1FD
330
1F
100
AcDbEntity
  8
0
  6
Continuous
 62
     7
370
    25
100
AcDbLine
 10
206.659521377
 20
-44.824070091
 30
0.0
 11
203.439521377
 21
-44.824070091
 31
0.0
  0
LINE
  5
1FE
330
1F
100
AcDbEntity
  8
0
  6
Continuous
 62
     7
370
    25
100
AcDbLine
 10
207.049521377
 20
-56.7938891613
 30
0.0
 11
203.049521377
 21
-56.7938891613
 31
0.0
  0
LINE
  5
1FF
330
1F
100
AcDbEntity
  8
0
  6
Continuous
 62
     7
370
    25
100
AcDbLine
 10
207.049521377
 20
-56.9357707598
 30
0.0
 11
203.049521377
 21
-56.9357707598
 31
0.0
  0
LINE
  5
200
330
1F
100
AcDbEntity
  8
0
  6
Continuous
 62
     7
370
    25
100
AcDbLine
 10
206.659521377
 20
-57.2088516997
 30
0.0
 11
203.439521377
 21
-57.2088516997
 31
0.0
  0
LINE
  5
201
330
1F
100
AcDbEntity
  8
0
  6
Continuous
 62
     7
370
    25
100
AcDbLine
 10
207.049521377
 20
-57.4819326396
 30
0.0
 11
203.049521377
 21
-57.4819326396
 31
0.0
  0
LINE
  5
202
330
1F
100
AcDbEntity
  8
0
  6
Continuous
 62
     7
370
    25
100
AcDbLine
 10
207.049521377
 20
-57.6238142381
 30
0.0
 11
203.049521377
 21
-57.6238142381
 31
0.0
  0
LINE
  5
203
330
1F
100
AcDbEntity
  8
0
  6
Continuous
 62
     7
370
    25
100
AcDbLine
 10
206.659521377
 20
-57.896895178
 30
0.0
 11
203.439521377
 21
-57.896895178
 31
0.0
  0
LINE
  5
204
330
1F
100
AcDbEntity
  8
0
  6
Continuous
 62
     7
370
    25
100
AcDbLine
 10
207.049521377
 20
-58.3118577163
 30
0.0
 11
203.049521377
 21
-58.3118577163
 31
0.0
  0
LINE
  5
205
330
1F
100
AcDbEntity
  8
0
  6
Continuous
 62
     7
370
    25
100
AcDbLine
 10
207.049521377
 20
-58.1699761179
 30
0.0
 11
203.049521377
 21
-58.1699761179
 31
0.0
  0
LINE
  5
206
330
1F
100
AcDbEntity
  8
0
  6
Continuous
 62
     7
370
    25
100
AcDbLine
 10
206.659521377
 20
-58.5849386562
 30
0.0
 11
203.439521377
 21
-58.5849386562
 31
0.0
  0
LINE
  5
207
330
1F
100
AcDbEntity
  8
0
  6
Continuous
 62
     7
370
    25
100
AcDbLine
 10
207.049521377
 20
-58.8580195961
 30
0.0
 11
203.049521377
 21
-58.8580195961
 31
0.0
  0
LINE
  5
208
330
1F
100
AcDbEntity
  8
0
  6
Continuous
 62
     7
370
    25
100
AcDbLine
 10
207.049521377
 20
-58.9999011946
 30
0.0
 11
203.049521377
 21
-58.9999011946
 31
0.0
  0
LINE
  5
209
330
1F
100
AcDbEntity
  8
0
  6
Continuous
 62
     7
370
    25
100
AcDbLine
 10
206.659521377
 20
-59.2729821345
 30
0.0
 11
203.439521377
 21
-59.2729821345
 31
0.0
  0
LINE
  5
20A
330
1F
100
AcDbEntity
  8
0
  6
Continuous
 62
     7
370
    25
100
AcDbLine
 10
207.049521377
 20
-59.6879446728
 30
0.0
 11
203.049521377
 21
-59.6879446728
 31
0.0
  0
LINE
  5
20B
330
1F
100
AcDbEntity
  8
0
  6
Continuous
 62
     7
370
    25
100
AcDbLine
 10
206.659521377
 20
-59.9610256127
 30
0.0
 11
203.439521377
 21
-59.9610256127
 31
0.0
  0
LINE
  5
20C
330
1F
100
AcDbEntity
  8
0
  6
Continuous
 62
     7
370
    25
100
AcDbLine
 10
207.049521377
 20
-59.5460630744
 30
0.0
 11
203.049521377
 21
-59.5460630744
 31
0.0
  0
LINE
  5
20D
330
1F
100
AcDbEntity
  8
0
  6
Continuous
 62
     7
370
    25
100
AcDbLine
 10
207.049521377
 20
-60.3759881511
 30
0.0
 11
203.049521377
 21
-60.3759881511
 31
0.0
  0
LINE
  5
20E
330
1F
100
AcDbEntity
  8
0
  6
Continuous
 62
     7
370
    25
100
AcDbLine
 10
207.049521377
 20
-60.2341065526
 30
0.0
 11
203.049521377
 21
-60.2341065526
 31
0.0
  0
LINE
  5
20F
330
1F
100
AcDbEntity
  8
0
  6
Continuous
 62
     7
370
    25
100
AcDbLine
 10
206.659521377
 20
-60.649069091
 30
0.0
 11
203.439521377
 21
-60.649069091
 31
0.0
  0
LINE
  5
210
330
1F
100
AcDbEntity
  8
0
  6
Continuous
 62
     7
370
    25
100
AcDbLine
 10
207.049521377
 20
-60.9221500309
 30
0.0
 11
203.049521377
 21
-60.9221500309
 31
0.0
  0
LINE
  5
211
330
1F
100
AcDbEntity
  8
0
  6
Continuous
 62
     7
370
    25
100
AcDbLine
 10
207.049521377
 20
-61.0640316294
 30
0.0
 11
203.049521377
 21
-61.0640316294
 31
0.0
  0
LINE
  5
212
330
1F
100
AcDbEntity
  8
0
  6
Continuous
 62
     7
370
    25
100
AcDbLine
 10
206.659521377
 20
-61.3371125693
 30
0.0
 11
203.439521377
 21
-61.3371125693
 31
0.0
  0
LINE
  5
213
330
1F
100
AcDbEntity
  8
0
  6
Continuous
 62
     7
370
    25
100
AcDbLine
 10
207.049521377
 20
-61.6101935092
 30
0.0
 11
203.049521377
 21
-61.6101935092
 31
0.0
  0
LINE
  5
214
330
1F
100
AcDbEntity
  8
0
  6
Continuous
 62
     7
370
    25
100
AcDbLine
 10
207.049521377
 20
-61.7520751076
 30
0.0
 11
203.049521377
 21
-61.7520751076
 31
0.0
  0
LINE
  5
215
330
1F
100
AcDbEntity
  8
0
  6
Continuous
 62
     7
370
    25
100
AcDbLine
 10
206.659521377
 20
-62.0251560475
 30
0.0
 11
203.439521377
 21
-62.0251560475
 31
0.0
  0
LINE
  5
216
330
1F
100
AcDbEntity
  8
0
  6
Continuous
 62
     7
370
    25
100
AcDbLine
 10
207.049521377
 20
-62.2982369874
 30
0.0
 11
203.049521377
 21
-62.2982369874
 31
0.0
  0
LINE
  5
217
330
1F
100
AcDbEntity
  8
0
  6
Continuous
 62
     7
370
    25
100
AcDbLine
 10
206.659521377
 20
-62.7131995258
 30
0.0
 11
203.439521377
 21
-62.7131995258
 31
0.0
  0
LINE
  5
218
330
1F
100
AcDbEntity
  8
0
  6
Continuous
 62
     7
370
    25
100
AcDbLine
 10
207.049521377
 20
-62.9862804657
 30
0.0
 11
203.049521377
 21
-62.9862804657
 31
0.0
  0
LINE
  5
219
330
1F
100
AcDbEntity
  8
0
  6
Continuous
 62
     7
370
    25
100
AcDbLine
 10
207.049521377
 20
-62.4401185859
 30
0.0
 11
203.049521377
 21
-62.4401185859
 31
0.0
  0
LINE
  5
21A
330
1F
100
AcDbEntity
  8
0
  6
Continuous
 62
     7
370
    25
100
AcDbLine
 10
207.049521377
 20
-63.1281620641
 30
0.0
 11
203.049521377
 21
-63.1281620641
 31
0.0
  0
LINE
  5
21B
330
1F
100
AcDbEntity
  8
0
  6
Continuous
 62
     7
370
    25
100
AcDbLine
 10
206.659521377
 20
-63.401243004
 30
0.0
 11
203.439521377
 21
-63.401243004
 31
0.0
  0
LINE
  5
21C
330
1F
100
AcDbEntity
  8
0
  6
Continuous
 62
     7
370
    25
100
AcDbLine
 10
207.049521377
 20
-63.8162055424
 30
0.0
 11
203.049521377
 21
-63.8162055424
 31
0.0
  0
LINE
  5
21D
330
1F
100
AcDbEntity
  8
0
  6
Continuous
 62
     7
370
    25
100
AcDbLine
 10
207.049521377
 20
-63.6743239439
 30
0.0
 11
203.049521377
 21
-63.6743239439
 31
0.0
  0
LINE
  5
21E
330
1F
100
AcDbEntity
  8
0
  6
Continuous
 62
     7
370
    25
100
AcDbLine
 10
206.659521377
 20
-64.0892864823
 30
0.0
 11
203.439521377
 21
-64.0892864823
 31
0.0
  0
LINE
  5
21F
330
1F
100
AcDbEntity
  8
0
  6
Continuous
 62
     7
370
    25
100
AcDbLine
 10
207.049521377
 20
-64.3623674222
 30
0.0
 11
203.049521377
 21
-64.3623674222
 31
0.0
  0
LINE
  5
220
330
1F
100
AcDbEntity
  8
0
  6
Continuous
 62
     7
370
    25
100
AcDbLine
 10
207.049521377
 20
-64.5042490207
 30
0.0
 11
203.049521377
 21
-64.5042490207
 31
0.0
  0
LINE
  5
221
330
1F
100
AcDbEntity
  8
0
  6
Continuous
 62
     7
370
    25
100
AcDbLine
 10
206.659521377
 20
-64.7773299606
 30
0.0
 11
203.439521377
 21
-64.7773299606
 31
0.0
  0
LINE
  5
222
330
1F
100
AcDbEntity
  8
0
  6
Continuous
 62
     7
370
    25
100
AcDbLine
 10
207.049521377
 20
-65.0504109005
 30
0.0
 11
203.049521377
 21
-65.0504109005
 31
0.0
  0
LINE
  5
223
330
1F
100
AcDbEntity
  8
0
  6
Continuous
 62
     7
370
    25
100
AcDbLine
 10
207.049521377
 20
-65.1922924989
 30
0.0
 11
203.049521377
 21
-65.1922924989
 31
0.0
  0
LINE
  5
224
330
1F
100
AcDbEntity
  8
0
  6
Continuous
 62
     7
370
    25
100
AcDbLine
 10
206.659521377
 20
-65.4653734388
 30
0.0
 11
203.439521377
 21
-65.4653734388
 31
0.0
  0
LINE
  5
225
330
1F
100
AcDbEntity
  8
0
  6
Continuous
 62
     7
370
    25
100
AcDbLine
 10
207.049521377
 20
-65.7384543787
 30
0.0
 11
203.049521377
 21
-65.7384543787
 31
0.0
  0
LINE
  5
226
330
1F
100
AcDbEntity
  8
0
  6
Continuous
 62
     7
370
    25
100
AcDbLine
 10
207.049521377
 20
-65.8803359772
 30
0.0
 11
203.049521377
 21
-65.8803359772
 31
0.0
  0
LINE
  5
227
330
1F
100
AcDbEntity
  8
0
  6
Continuous
 62
     7
370
    25
100
AcDbLine
 10
206.659521377
 20
-66.1534169171
 30
0.0
 11
203.439521377
 21
-66.1534169171
 31
0.0
  0
LINE
  5
228
330
1F
100
AcDbEntity
  8
0
  6
Continuous
 62
     7
370
    25
100
AcDbLine
 10
207.049521377
 20
-66.426497857
 30
0.0
 11
203.049521377
 21
-66.426497857
 31
0.0
  0
LINE
  5
229
330
1F
100
AcDbEntity
  8
0
  6
Continuous
 62
     7
370
    25
100
AcDbLine
 10
207.049521377
 20
-66.5683794554
 30
0.0
 11
203.049521377
 21
-66.5683794554
 31
0.0
  0
LINE
  5
22A
330
1F
100
AcDbEntity
  8
0
  6
Continuous
 62
     7
370
    25
100
AcDbLine
 10
206.659521377
 20
-66.8414603953
 30
0.0
 11
203.439521377
 21
-66.8414603953
 31
0.0
  0
LINE
  5
22B
330
1F
100
AcDbEntity
  8
0
  6
Continuous
 62
     7
370
    25
100
AcDbLine
 10
207.049521377
 20
-67.1145413352
 30
0.0
 11
203.049521377
 21
-67.1145413352
 31
0.0
  0
LINE
  5
22C
330
1F
100
AcDbEntity
  8
0
  6
Continuous
 62
     7
370
    25
100
AcDbLine
 10
207.049521377
 20
-67.2564229337
 30
0.0
 11
203.049521377
 21
-67.2564229337
 31
0.0
  0
LINE
  5
22D
330
1F
100
AcDbEntity
  8
0
  6
Continuous
 62
     7
370
    25
100
AcDbLine
 10
206.659521377
 20
-67.5295038736
 30
0.0
 11
203.439521377
 21
-67.5295038736
 31
0.0
  0
LINE
  5
22E
330
1F
100
AcDbEntity
  8
0
  6
Continuous
 62
     7
370
    25
100
AcDbLine
 10
207.049521377
 20
-67.8025848135
 30
0.0
 11
203.049521377
 21
-67.8025848135
 31
0.0
  0
LINE
  5
22F
330
1F
100
AcDbEntity
  8
0
  6
Continuous
 62
     7
370
    25
100
AcDbLine
 10
207.049521377
 20
-67.944466412
 30
0.0
 11
203.049521377
 21
-67.944466412
 31
0.0
  0
LINE
  5
230
330
1F
100
AcDbEntity
  8
0
  6
Continuous
 62
     7
370
    25
100
AcDbLine
 10
206.659521377
 20
-68.2175473519
 30
0.0
 11
203.439521377
 21
-68.2175473519
 31
0.0
  0
LINE
  5
231
330
1F
100
AcDbEntity
  8
0
  6
Continuous
 62
     7
370
    25
100
AcDbLine
 10
207.049521377
 20
-68.4906282918
 30
0.0
 11
203.049521377
 21
-68.4906282918
 31
0.0
  0
LINE
  5
232
330
1F
100
AcDbEntity
  8
0
  6
Continuous
 62
     7
370
    25
100
AcDbLine
 10
207.049521377
 20
-68.6325098902
 30
0.0
 11
203.049521377
 21
-68.6325098902
 31
0.0
  0
LINE
  5
233
330
1F
100
AcDbEntity
  8
0
  6
Continuous
 62
     7
370
    25
100
AcDbLine
 10
206.659521377
 20
-68.9055908301
 30
0.0
 11
203.439521377
 21
-68.9055908301
 31
0.0
  0
LINE
  5
234
330
1F
100
AcDbEntity
  8
0
  6
Continuous
 62
     7
370
    25
100
AcDbLine
 10
207.049521377
 20
-69.3205533685
 30
0.0
 11
203.049521377
 21
-69.3205533685
 31
0.0
  0
LINE
  5
235
330
1F
100
AcDbEntity
  8
0
  6
Continuous
 62
     7
370
    25
100
AcDbLine
 10
207.049521377
 20
-69.17867177
 30
0.0
 11
203.049521377
 21
-69.17867177
 31
0.0
  0
LINE
  5
236
330
1F
100
AcDbEntity
  8
0
  6
Continuous
 62
     7
370
    25
100
AcDbLine
 10
206.659521377
 20
-69.5936343084
 30
0.0
 11
203.439521377
 21
-69.5936343084
 31
0.0
  0
LINE
  5
237
330
1F
100
AcDbEntity
  8
0
  6
Continuous
 62
     7
370
    25
100
AcDbLine
 10
207.049521377
 20
-69.8667152483
 30
0.0
 11
203.049521377
 21
-69.8667152483
 31
0.0
  0
LINE
  5
238
330
1F
100
AcDbEntity
  8
0
  6
Continuous
 62
     7
370
    25
100
AcDbLine
 10
207.049521377
 20
-70.0085968467
 30
0.0
 11
203.049521377
 21
-70.0085968467
 31
0.0
  0
LINE
  5
239
330
1F
100
AcDbEntity
  8
0
  6
Continuous
 62
     7
370
    25
100
AcDbLine
 10
206.659521377
 20
-70.2816777867
 30
0.0
 11
203.439521377
 21
-70.2816777867
 31
0.0
  0
LINE
  5
23A
330
1F
100
AcDbEntity
  8
0
  6
Continuous
 62
     7
370
    25
100
AcDbLine
 10
207.049521377
 20
-70.5547587266
 30
0.0
 11
203.049521377
 21
-70.5547587266
 31
0.0
  0
LINE
  5
23B
330
1F
100
AcDbEntity
  8
0
  6
Continuous
 62
     7
370
    25
100
AcDbLine
 10
207.049521377
 20
-70.696640325
 30
0.0
 11
203.049521377
 21
-70.696640325
 31
0.0
  0
LINE
  5
23C
330
1F
100
AcDbEntity
  8
0
  6
Continuous
 62
     7
370
    25
100
AcDbLine
 10
206.659521377
 20
-70.9697212649
 30
0.0
 11
203.439521377
 21
-70.9697212649
 31
0.0
  0
LINE
  5
23D
330
1F
100
AcDbEntity
  8
0
  6
Continuous
 62
     7
370
    25
100
AcDbLine
 10
207.049521377
 20
-71.2428022048
 30
0.0
 11
203.049521377
 21
-71.2428022048
 31
0.0
  0
LINE
  5
23E
330
1F
100
AcDbEntity
  8
0
  6
Continuous
 62
     7
370
    25
100
AcDbLine
 10
206.659521377
 20
-71.6577647432
 30
0.0
 11
203.439521377
 21
-71.6577647432
 31
0.0
  0
LINE
  5
23F
330
1F
100
AcDbEntity
  8
0
  6
Continuous
 62
     7
370
    25
100
AcDbLine
 10
207.049521377
 20
-71.9308456831
 30
0.0
 11
203.049521377
 21
-71.9308456831
 31
0.0
  0
LINE
  5
240
330
1F
100
AcDbEntity
  8
0
  6
Continuous
 62
     7
370
    25
100
AcDbLine
 10
207.049521377
 20
-71.3846838033
 30
0.0
 11
203.049521377
 21
-71.3846838033
 31
0.0
  0
LINE
  5
241
330
1F
100
AcDbEntity
  8
0
  6
Continuous
 62
     7
370
    25
100
AcDbLine
 10
207.049521377
 20
-72.0727272815
 30
0.0
 11
203.049521377
 21
-72.0727272815
 31
0.0
  0
LINE
  5
242
330
1F
100
AcDbEntity
  8
0
  6
Continuous
 62
     7
370
    25
100
AcDbLine
 10
206.659521377
 20
-72.3458082214
 30
0.0
 11
203.439521377
 21
-72.3458082214
 31
0.0
  0
LINE
  5
243
330
1F
100
AcDbEntity
  8
0
  6
Continuous
 62
     7
370
    25
100
AcDbLine
 10
207.049521377
 20
-72.6188891613
 30
0.0
 11
203.049521377
 21
-72.6188891613
 31
0.0
  0
LINE
  5
244
330
1F
100
AcDbEntity
  8
0
  6
Continuous
 62
     7
370
    25
100
AcDbLine
 10
207.049521377
 20
-72.7607707598
 30
0.0
 11
203.049521377
 21
-72.7607707598
 31
0.0
  0
LINE
  5
245
330
1F
100
AcDbEntity
  8
0
  6
Continuous
 62
     7
370
    25
100
AcDbLine
 10
207.049521377
 20
-73.4488142381
 30
0.0
 11
203.049521377
 21
-73.4488142381
 31
0.0
  0
LINE
  5
246
330
1F
100
AcDbEntity
  8
0
  6
Continuous
 62
     7
370
    25
100
AcDbLine
 10
207.049521377
 20
-73.3069326396
 30
0.0
 11
203.049521377
 21
-73.3069326396
 31
0.0
  0
LINE
  5
247
330
1F
100
AcDbEntity
  8
0
  6
Continuous
 62
     7
370
    25
100
AcDbLine
 10
206.659521377
 20
-73.0338516997
 30
0.0
 11
203.439521377
 21
-73.0338516997
 31
0.0
  0
LINE
  5
248
330
1F
100
AcDbEntity
  8
0
  6
Continuous
 62
     7
370
    25
100
AcDbLine
 10
206.659521377
 20
-73.721895178
 30
0.0
 11
203.439521377
 21
-73.721895178
 31
0.0
  0
LINE
  5
249
330
1F
100
AcDbEntity
  8
0
  6
Continuous
 62
     7
370
    25
100
AcDbLine
 10
207.049521377
 20
-74.1368577163
 30
0.0
 11
203.049521377
 21
-74.1368577163
 31
0.0
  0
LINE
  5
24A
330
1F
100
AcDbEntity
  8
0
  6
Continuous
 62
     7
370
    25
100
AcDbLine
 10
206.659521377
 20
-74.4099386562
 30
0.0
 11
203.439521377
 21
-74.4099386562
 31
0.0
  0
LINE
  5
24B
330
1F
100
AcDbEntity
  8
0
  6
Continuous
 62
     7
370
    25
100
AcDbLine
 10
207.049521377
 20
-73.9949761179
 30
0.0
 11
203.049521377
 21
-73.9949761179
 31
0.0
  0
LINE
  5
24C
330
1F
100
AcDbEntity
  8
0
  6
Continuous
 62
     7
370
    25
100
AcDbLine
 10
207.049521377
 20
-74.8249011946
 30
0.0
 11
203.049521377
 21
-74.8249011946
 31
0.0
  0
LINE
  5
24D
330
1F
100
AcDbEntity
  8
0
  6
Continuous
 62
     7
370
    25
100
AcDbLine
 10
206.659521377
 20
-75.0979821345
 30
0.0
 11
203.439521377
 21
-75.0979821345
 31
0.0
  0
LINE
  5
24E
330
1F
100
AcDbEntity
  8
0
  6
Continuous
 62
     7
370
    25
100
AcDbLine
 10
207.049521377
 20
-74.6830195961
 30
0.0
 11
203.049521377
 21
-74.6830195961
 31
0.0
  0
LINE
  5
24F
330
1F
100
AcDbEntity
  8
0
  6
Continuous
 62
     7
370
    25
100
AcDbLine
 10
207.049521377
 20
-75.3710630744
 30
0.0
 11
203.049521377
 21
-75.3710630744
 31
0.0
  0
LINE
  5
250
330
1F
100
AcDbEntity
  8
0
  6
Continuous
 62
     7
370
    25
100
AcDbLine
 10
207.049521377
 20
-75.5129446728
 30
0.0
 11
203.049521377
 21
-75.5129446728
 31
0.0
  0
LINE
  5
251
330
1F
100
AcDbEntity
  8
0
  6
Continuous
 62
     7
370
    25
100
AcDbLine
 10
206.659521377
 20
-75.7860256127
 30
0.0
 11
203.439521377
 21
-75.7860256127
 31
0.0
  0
LINE
  5
252
330
1F
100
AcDbEntity
  8
0
  6
Continuous
 62
     7
370
    25
100
AcDbLine
 10
207.049521377
 20
-76.2009881511
 30
0.0
 11
203.049521377
 21
-76.2009881511
 31
0.0
  0
LINE
  5
253
330
1F
100
AcDbEntity
  8
0
  6
Continuous
 62
     7
370
    25
100
AcDbLine
 10
207.049521377
 20
-76.0591065526
 30
0.0
 11
203.049521377
 21
-76.0591065526
 31
0.0
  0
LINE
  5
254
330
1F
100
AcDbEntity
  8
0
  6
Continuous
 62
     7
370
    25
100
AcDbLine
 10
206.659521377
 20
-76.474069091
 30
0.0
 11
203.439521377
 21
-76.474069091
 31
0.0
  0
LINE
  5
255
330
1F
100
AcDbEntity
  8
0
  6
Continuous
 62
     7
370
    25
100
AcDbLine
 10
207.049521377
 20
-76.7471500309
 30
0.0
 11
203.049521377
 21
-76.7471500309
 31
0.0
  0
LINE
  5
256
330
1F
100
AcDbEntity
  8
0
  6
Continuous
 62
     7
370
    25
100
AcDbLine
 10
211.049521377
 20
-76.824070091
 30
0.0
 11
211.049521377
 21
-79.824070091
 31
0.0
  0
LINE
  5
257
330
1F
100
AcDbEntity
  8
0
  6
Continuous
 62
     7
370
    25
100
AcDbLine
 10
211.049521377
 20
-79.824070091
 30
0.0
 11
206.049521377
 21
-79.824070091
 31
0.0
  0
LINE
  5
258
330
1F
100
AcDbEntity
  8
0
  6
Continuous
 62
     7
370
    25
100
AcDbLine
 10
206.049521377
 20
-79.824070091
 30
0.0
 11
206.049521377
 21
-76.824070091
 31
0.0
  0
LINE
  5
259
330
1F
100
AcDbEntity
  8
0
  6
Continuous
 62
     7
370
    25
100
AcDbLine
 10
206.049521377
 20
-76.824070091
 30
0.0
 11
211.049521377
 21
-76.824070091
 31
0.0
  0
LINE
  5
25A
330
1F
100
AcDbEntity
  8
0
  6
Continuous
 62
     7
370
    25
100
AcDbLine
 10
178.049521377
 20
-79.824070091
 30
0.0
 11
206.049521377
 21
-79.824070091
 31
0.0
  0
LINE
  5
25B
330
1F
100
AcDbEntity
  8
0
  6
Continuous
 62
     7
370
    25
100
AcDbLine
 10
178.049521377
 20
-76.824070091
 30
0.0
 11
178.049521377
 21
-79.824070091
 31
0.0
  0
LINE
  5
25C
330
1F
100
AcDbEntity
  8
0
  6
Continuous
 62
     7
370
    25
100
AcDbLine
 10
178.049521377
 20
-76.824070091
 30
0.0
 11
206.049521377
 21
-76.824070091
 31
0.0
  0
LINE
  5
25D
330
1F
100
AcDbEntity
  8
0
  6
Continuous
 62
     7
370
    25
100
AcDbLine
 10
178.049521377
 20
-79.824070091
 30
0.0
 11
173.049521377
 21
-79.824070091
 31
0.0
  0
LINE
  5
25E
330
1F
100
AcDbEntity
  8
0
  6
Continuous
 62
     7
370
    25
100
AcDbLine
 10
173.049521377
 20
-79.824070091
 30
0.0
 11
173.049521377
 21
-76.824070091
 31
0.0
  0
LINE
  5
25F
330
1F
100
AcDbEntity
  8
0
  6
Continuous
 62
     7
370
    25
100
AcDbLine
 10
173.049521377
 20
-76.824070091
 30
0.0
 11
178.049521377
 21
-76.824070091
 31
0.0
  0
LINE
  5
260
330
1F
100
AcDbEntity
  8
0
  6
Continuous
 62
     7
370
    25
100
AcDbLine
 10
173.049521377
 20
-31.3131810219
 30
0.0
 11
173.049521377
 21
-28.3131810219
 31
0.0
  0
LINE
  5
261
330
1F
100
AcDbEntity
  8
0
  6
Continuous
 62
     7
370
    25
100
AcDbLine
 10
173.049521377
 20
-28.3131810219
 30
0.0
 11
178.049521377
 21
-28.3131810219
 31
0.0
  0
LINE
  5
262
330
1F
100
AcDbEntity
  8
0
  6
Continuous
 62
     7
370
    25
100
AcDbLine
 10
178.049521377
 20
-28.3131810219
 30
0.0
 11
178.049521377
 21
-31.3131810219
 31
0.0
  0
LINE
  5
263
330
1F
100
AcDbEntity
  8
0
  6
Continuous
 62
     7
370
    25
100
AcDbLine
 10
178.049521377
 20
-31.3131810219
 30
0.0
 11
173.049521377
 21
-31.3131810219
 31
0.0
  0
LINE
  5
264
330
1F
100
AcDbEntity
  8
0
  6
Continuous
 62
     7
370
    25
100
AcDbLine
 10
206.049521377
 20
-31.3131810219
 30
0.0
 11
206.049521377
 21
-28.3131810219
 31
0.0
  0
LINE
  5
265
330
1F
100
AcDbEntity
  8
0
  6
Continuous
 62
     7
370
    25
100
AcDbLine
 10
211.049521377
 20
-28.3131810219
 30
0.0
 11
211.049521377
 21
-31.3131810219
 31
0.0
  0
LINE
  5
266
330
1F
100
AcDbEntity
  8
0
  6
Continuous
 62
     7
370
    25
100
AcDbLine
 10
211.049521377
 20
-31.3131810219
 30
0.0
 11
206.049521377
 21
-31.3131810219
 31
0.0
  0
LINE
  5
267
330
1F
100
AcDbEntity
  8
0
  6
Continuous
 62
     7
370
    25
100
AcDbLine
 10
206.049521377
 20
-28.3131810219
 30
0.0
 11
211.049521377
 21
-28.3131810219
 31
0.0
  0
LINE
  5
268
330
1F
100
AcDbEntity
  8
0
  6
Continuous
 62
     7
370
    25
100
AcDbLine
 10
206.049521377
 20
-31.3131810219
 30
0.0
 11
178.049521377
 21
-31.3131810219
 31
0.0
  0
LINE
  5
269
330
1F
100
AcDbEntity
  8
0
  6
Continuous
 62
     7
370
    25
100
AcDbLine
 10
206.049521377
 20
-28.3131810219
 30
0.0
 11
178.049521377
 21
-28.3131810219
 31
0.0
  0
LWPOLYLINE
  5
26A
330
1F
100
AcDbEntity
  8
0
  6
Continuous
 62
     7
370
    25
100
AcDbPolyline
 90
        6
 70
   128
 43
0.0
 10
196.1172851472
 20
-18.4885810219
 10
196.0293488191
 20
-18.9642271157
 10
195.7771507722
 20
-19.4072810219
 10
194.8496351472
 20
-20.1576060219
 10
193.4740695222
 20
-20.6635435219
 10
191.7897851472
 20
-20.8490810219
  0
LWPOLYLINE
  5
26B
330
1F
100
AcDbEntity
  8
0
  6
Continuous
 62
     7
370
    25
100
AcDbPolyline
 90
        6
 70
   128
 43
0.0
 10
191.7897851472
 20
-16.1280810219
 10
193.4740695222
 20
-16.3136185219
 10
194.8496351472
 20
-16.8195560219
 10
195.7771507722
 20
-17.5698810219
 10
196.0293488191
 20
-18.0129349282
 10
196.1172851472
 20
-18.4885810219
  0
LWPOLYLINE
  5
26C
330
1F
100
AcDbEntity
  8
0
  6
Continuous
 62
     7
370
    25
100
AcDbPolyline
 90
        6
 70
   128
 43
0.0
 10
187.4622851472
 20
-18.4885810219
 10
187.5502214753
 20
-18.0129349282
 10
187.8024195222
 20
-17.5698810219
 10
188.7299351472
 20
-16.8195560219
 10
190.1055007722
 20
-16.3136185219
 10
191.7897851472
 20
-16.1280810219
  0
LWPOLYLINE
  5
26D
330
1F
100
AcDbEntity
  8
0
  6
Continuous
 62
     7
370
    25
100
AcDbPolyline
 90
        6
 70
   128
 43
0.0
 10
191.7897851472
 20
-20.8490810219
 10
190.1055007722
 20
-20.6635435219
 10
188.7299351472
 20
-20.1576060219
 10
187.8024195222
 20
-19.4072810219
 10
187.5502214753
 20
-18.9642271157
 10
187.4622851472
 20
-18.4885810219
  0
LWPOLYLINE
  5
26E
330
1F
100
AcDbEntity
  8
0
  6
Continuous
 62
     7
370
    25
100
AcDbPolyline
 90
        7
 70
   128
 43
0.0
 10
191.7897851472
 20
-21.0161810219
 10
190.0383429597
 20
-20.8175138344
 10
188.6079476472
 20
-20.2757685219
 10
188.05841503
 20
-19.901674186
 10
187.6434710847
 20
-19.4723294594
 10
187.3812247956
 20
-18.9979073891
 10
187.2897851472
 20
-18.4885810219
  0
LWPOLYLINE
  5
26F
330
1F
100
AcDbEntity
  8
0
  6
Continuous
 62
     7
370
    25
100
AcDbPolyline
 90
        7
 70
   128
 43
0.0
 10
196.2897851472
 20
-18.4885810219
 10
196.1983454987
 20
-18.9979073891
 10
195.9360992097
 20
-19.4723294594
 10
195.5211552644
 20
-19.901674186
 10
194.9716226472
 20
-20.2757685219
 10
193.5412273347
 20
-20.8175138344
 10
191.7897851472
 20
-21.0161810219
  0
LWPOLYLINE
  5
270
330
1F
100
AcDbEntity
  8
0
  6
Continuous
 62
     7
370
    25
100
AcDbPolyline
 90
        7
 70
   128
 43
0.0
 10
187.2897851472
 20
-18.4885810219
 10
187.3812247956
 20
-17.9792546548
 10
187.6434710847
 20
-17.5048325844
 10
188.05841503
 20
-17.0754878579
 10
188.6079476472
 20
-16.7013935219
 10
190.0383429597
 20
-16.1596482094
 10
191.7897851472
 20
-15.9609810219
  0
LWPOLYLINE
  5
271
330
1F
100
AcDbEntity
  8
0
  6
Continuous
 62
     7
370
    25
100
AcDbPolyline
 90
        7
 70
   128
 43
0.0
 10
191.7897851472
 20
-15.9609810219
 10
193.5412273347
 20
-16.1596482094
 10
194.9716226472
 20
-16.7013935219
 10
195.5211552644
 20
-17.0754878579
 10
195.9360992097
 20
-17.5048325844
 10
196.1983454987
 20
-17.9792546548
 10
196.2897851472
 20
-18.4885810219
  0
LWPOLYLINE
  5
272
330
1F
100
AcDbEntity
  8
0
  6
Continuous
 62
     7
370
    25
100
AcDbPolyline
 90
        6
 70
   128
 43
0.0
 10
187.4622851472
 20
-89.648670091
 10
187.5502214753
 20
-89.1730239972
 10
187.8024195222
 20
-88.729970091
 10
188.7299351472
 20
-87.979645091
 10
190.1055007722
 20
-87.473707591
 10
191.7897851472
 20
-87.288170091
  0
LWPOLYLINE
  5
273
330
1F
100
AcDbEntity
  8
0
  6
Continuous
 62
     7
370
    25
100
AcDbPolyline
 90
        6
 70
   128
 43
0.0
 10
191.7897851472
 20
-92.009170091
 10
190.1055007722
 20
-91.823632591
 10
188.7299351472
 20
-91.317695091
 10
187.8024195222
 20
-90.567370091
 10
187.5502214753
 20
-90.1243161847
 10
187.4622851472
 20
-89.648670091
  0
LWPOLYLINE
  5
274
330
1F
100
AcDbEntity
  8
0
  6
Continuous
 62
     7
370
    25
100
AcDbPolyline
 90
        6
 70
   128
 43
0.0
 10
196.1172851472
 20
-89.648670091
 10
196.0293488191
 20
-90.1243161847
 10
195.7771507722
 20
-90.567370091
 10
194.8496351472
 20
-91.317695091
 10
193.4740695222
 20
-91.823632591
 10
191.7897851472
 20
-92.009170091
  0
LWPOLYLINE
  5
275
330
1F
100
AcDbEntity
  8
0
  6
Continuous
 62
     7
370
    25
100
AcDbPolyline
 90
        7
 70
   128
 43
0.0
 10
196.2897851472
 20
-89.648670091
 10
196.1983454987
 20
-90.1579964582
 10
195.9360992097
 20
-90.6324185285
 10
195.5211552644
 20
-91.0617632551
 10
194.9716226472
 20
-91.435857591
 10
193.5412273347
 20
-91.9776029035
 10
191.7897851472
 20
-92.176270091
  0
LWPOLYLINE
  5
276
330
1F
100
AcDbEntity
  8
0
  6
Continuous
 62
     7
370
    25
100
AcDbPolyline
 90
        7
 70
   128
 43
0.0
 10
191.7897851472
 20
-92.176270091
 10
190.0383429597
 20
-91.9776029035
 10
188.6079476472
 20
-91.435857591
 10
188.05841503
 20
-91.0617632551
 10
187.6434710847
 20
-90.6324185285
 10
187.3812247956
 20
-90.1579964582
 10
187.2897851472
 20
-89.648670091
  0
LWPOLYLINE
  5
277
330
1F
100
AcDbEntity
  8
0
  6
Continuous
 62
     7
370
    25
100
AcDbPolyline
 90
        7
 70
   128
 43
0.0
 10
187.2897851472
 20
-89.648670091
 10
187.3812247956
 20
-89.1393437238
 10
187.6434710847
 20
-88.6649216535
 10
188.05841503
 20
-88.2355769269
 10
188.6079476472
 20
-87.861482591
 10
190.0383429597
 20
-87.3197372785
 10
191.7897851472
 20
-87.121070091
  0
LWPOLYLINE
  5
278
330
1F
100
AcDbEntity
  8
0
  6
Continuous
 62
     7
370
    25
100
AcDbPolyline
 90
        6
 70
   128
 43
0.0
 10
191.7897851472
 20
-87.288170091
 10
193.4740695222
 20
-87.473707591
 10
194.8496351472
 20
-87.979645091
 10
195.7771507722
 20
-88.729970091
 10
196.0293488191
 20
-89.1730239972
 10
196.1172851472
 20
-89.648670091
  0
LWPOLYLINE
  5
279
330
1F
100
AcDbEntity
  8
0
  6
Continuous
 62
     7
370
    25
100
AcDbPolyline
 90
        7
 70
   128
 43
0.0
 10
191.7897851472
 20
-87.121070091
 10
193.5412273347
 20
-87.3197372785
 10
194.9716226472
 20
-87.861482591
 10
195.5211552644
 20
-88.2355769269
 10
195.9360992097
 20
-88.6649216535
 10
196.1983454987
 20
-89.1393437238
 10
196.2897851472
 20
-89.648670091
  0
LINE
  5
27A
330
1F
100
AcDbEntity
  8
0
  6
Continuous
 62
     7
370
    25
100
AcDbLine
 10
188.0981851472
 20
-90.011470091
 30
0.0
 11
188.0981851472
 21
-89.740270091
 31
0.0
  0
LINE
  5
27B
330
1F
100
AcDbEntity
  8
0
  6
Continuous
 62
     7
370
    25
100
AcDbLine
 10
188.0981851472
 20
-89.740270091
 30
0.0
 11
188.7232851472
 21
-89.740270091
 31
0.0
  0
LINE
  5
27C
330
1F
100
AcDbEntity
  8
0
  6
Continuous
 62
     7
370
    25
100
AcDbLine
 10
188.7232851472
 20
-89.740270091
 30
0.0
 11
188.7232851472
 21
-90.052870091
 31
0.0
  0
LINE
  5
27D
330
1F
100
AcDbEntity
  8
0
  6
Continuous
 62
     7
370
    25
100
AcDbLine
 10
188.7232851472
 20
-90.052870091
 30
0.0
 11
189.8549851472
 21
-90.052870091
 31
0.0
  0
LINE
  5
27E
330
1F
100
AcDbEntity
  8
0
  6
Continuous
 62
     7
370
    25
100
AcDbLine
 10
189.8549851472
 20
-90.052870091
 30
0.0
 11
189.8549851472
 21
-89.233670091
 31
0.0
  0
LINE
  5
27F
330
1F
100
AcDbEntity
  8
0
  6
Continuous
 62
     7
370
    25
100
AcDbLine
 10
189.8549851472
 20
-89.233670091
 30
0.0
 11
189.1651851472
 21
-89.233670091
 31
0.0
  0
ARC
  5
280
330
1F
100
AcDbEntity
  8
0
  6
Continuous
 62
     7
370
    25
100
AcDbCircle
 10
190.0181304145
 20
-90.0112153583
 30
0.0
 40
0.4620555232531523
100
AcDbArc
 50
270.1059885689
 51
359.8940114311
  0
LINE
  5
281
330
1F
100
AcDbEntity
  8
0
  6
Continuous
 62
     7
370
    25
100
AcDbLine
 10
190.0189851472
 20
-90.473270091
 30
0.0
 11
188.5598851472
 21
-90.473270091
 31
0.0
  0
ARC
  5
282
330
1F
100
AcDbEntity
  8
0
  6
Continuous
 62
     7
370
    25
100
AcDbCircle
 10
188.560902221
 20
-90.0105532266
 30
0.0
 40
0.4627179821979138
100
AcDbArc
 50
180.1135302658
 51
269.8740613359
  0
LINE
  5
283
330
1F
100
AcDbEntity
  8
0
  6
Continuous
 62
     7
370
    25
100
AcDbLine
 10
190.4801851472
 20
-88.824070091
 30
0.0
 11
190.4801851472
 21
-90.012070091
 31
0.0
  0
LINE
  5
284
330
1F
100
AcDbEntity
  8
0
  6
Continuous
 62
     7
370
    25
100
AcDbLine
 10
189.1651851472
 20
-88.824070091
 30
0.0
 11
190.4801851472
 21
-88.824070091
 31
0.0
  0
LINE
  5
285
330
1F
100
AcDbEntity
  8
0
  6
Continuous
 62
     7
370
    25
100
AcDbLine
 10
189.1651851472
 20
-89.233670091
 30
0.0
 11
189.1651851472
 21
-88.824070091
 31
0.0
  0
LINE
  5
286
330
1F
100
AcDbEntity
  8
0
  6
Continuous
 62
     7
370
    25
100
AcDbLine
 10
195.4813851472
 20
-18.1257810219
 30
0.0
 11
195.4813851472
 21
-18.3969810219
 31
0.0
  0
LINE
  5
287
330
1F
100
AcDbEntity
  8
0
  6
Continuous
 62
     7
370
    25
100
AcDbLine
 10
195.4813851472
 20
-18.3969810219
 30
0.0
 11
194.8562851472
 21
-18.3969810219
 31
0.0
  0
LINE
  5
288
330
1F
100
AcDbEntity
  8
0
  6
Continuous
 62
     7
370
    25
100
AcDbLine
 10
194.8562851472
 20
-18.3969810219
 30
0.0
 11
194.8562851472
 21
-18.0843810219
 31
0.0
  0
LINE
  5
289
330
1F
100
AcDbEntity
  8
0
  6
Continuous
 62
     7
370
    25
100
AcDbLine
 10
194.8562851472
 20
-18.0843810219
 30
0.0
 11
193.7245851472
 21
-18.0843810219
 31
0.0
  0
LINE
  5
28A
330
1F
100
AcDbEntity
  8
0
  6
Continuous
 62
     7
370
    25
100
AcDbLine
 10
193.7245851472
 20
-18.0843810219
 30
0.0
 11
193.7245851472
 21
-18.9035810219
 31
0.0
  0
LINE
  5
28B
330
1F
100
AcDbEntity
  8
0
  6
Continuous
 62
     7
370
    25
100
AcDbLine
 10
193.7245851472
 20
-18.9035810219
 30
0.0
 11
194.4143851472
 21
-18.9035810219
 31
0.0
  0
LINE
  5
28C
330
1F
100
AcDbEntity
  8
0
  6
Continuous
 62
     7
370
    25
100
AcDbLine
 10
194.4143851472
 20
-18.9035810219
 30
0.0
 11
194.4143851472
 21
-19.3131810219
 31
0.0
  0
LINE
  5
28D
330
1F
100
AcDbEntity
  8
0
  6
Continuous
 62
     7
370
    25
100
AcDbLine
 10
194.4143851472
 20
-19.3131810219
 30
0.0
 11
193.0993851472
 21
-19.3131810219
 31
0.0
  0
LINE
  5
28E
330
1F
100
AcDbEntity
  8
0
  6
Continuous
 62
     7
370
    25
100
AcDbLine
 10
193.0993851472
 20
-19.3131810219
 30
0.0
 11
193.0993851472
 21
-18.1251810219
 31
0.0
  0
LINE
  5
28F
330
1F
100
AcDbEntity
  8
0
  6
Continuous
 62
     7
370
    25
100
AcDbLine
 10
193.5605851472
 20
-17.6639810219
 30
0.0
 11
195.0196851472
 21
-17.6639810219
 31
0.0
  0
ARC
  5
290
330
1F
100
AcDbEntity
  8
0
  6
Continuous
 62
     7
370
    25
100
AcDbCircle
 10
195.0186680734
 20
-18.1266978863
 30
0.0
 40
0.4627179821978743
100
AcDbArc
 50
0.1135302658
 51
89.8740613359
  0
ARC
  5
291
330
1F
100
AcDbEntity
  8
0
  6
Continuous
 62
     7
370
    25
100
AcDbCircle
 10
193.5614398799
 20
-18.1260357546
 30
0.0
 40
0.4620555232531274
100
AcDbArc
 50
90.1059885689
 51
179.8940114311
  0
LINE
  5
292
330
1F
100
AcDbEntity
  8
0
  6
Continuous
 62
     7
370
    25
100
AcDbLine
 10
193.0777851472
 20
-89.285870091
 30
0.0
 11
193.0777851472
 21
-90.473270091
 31
0.0
  0
LINE
  5
293
330
1F
100
AcDbEntity
  8
0
  6
Continuous
 62
     7
370
    25
100
AcDbLine
 10
193.0777851472
 20
-90.473270091
 30
0.0
 11
192.4524851472
 21
-90.473270091
 31
0.0
  0
LINE
  5
294
330
1F
100
AcDbEntity
  8
0
  6
Continuous
 62
     7
370
    25
100
AcDbLine
 10
192.4524851472
 20
-90.473270091
 30
0.0
 11
192.4524851472
 21
-89.233670091
 31
0.0
  0
LINE
  5
295
330
1F
100
AcDbEntity
  8
0
  6
Continuous
 62
     7
370
    25
100
AcDbLine
 10
192.4524851472
 20
-89.233670091
 30
0.0
 11
191.2670851472
 21
-89.233670091
 31
0.0
  0
LINE
  5
296
330
1F
100
AcDbEntity
  8
0
  6
Continuous
 62
     7
370
    25
100
AcDbLine
 10
191.2670851472
 20
-89.233670091
 30
0.0
 11
191.2670851472
 21
-90.473270091
 31
0.0
  0
LINE
  5
297
330
1F
100
AcDbEntity
  8
0
  6
Continuous
 62
     7
370
    25
100
AcDbLine
 10
191.2670851472
 20
-90.473270091
 30
0.0
 11
190.6525851472
 21
-90.473270091
 31
0.0
  0
LINE
  5
298
330
1F
100
AcDbEntity
  8
0
  6
Continuous
 62
     7
370
    25
100
AcDbLine
 10
190.6525851472
 20
-90.473270091
 30
0.0
 11
190.6525851472
 21
-88.824070091
 31
0.0
  0
LINE
  5
299
330
1F
100
AcDbEntity
  8
0
  6
Continuous
 62
     7
370
    25
100
AcDbLine
 10
190.6525851472
 20
-88.824070091
 30
0.0
 11
192.6160851472
 21
-88.824070091
 31
0.0
  0
ARC
  5
29A
330
1F
100
AcDbEntity
  8
0
  6
Continuous
 62
     7
370
    25
100
AcDbCircle
 10
192.6151200741
 20
-89.2867349659
 30
0.0
 40
0.4626658814684279
100
AcDbArc
 50
0.1071047489
 51
89.8804868527
  0
LINE
  5
29B
330
1F
100
AcDbEntity
  8
0
  6
Continuous
 62
     7
370
    25
100
AcDbLine
 10
190.5017851472
 20
-18.8513810219
 30
0.0
 11
190.5017851472
 21
-17.6639810219
 31
0.0
  0
LINE
  5
29C
330
1F
100
AcDbEntity
  8
0
  6
Continuous
 62
     7
370
    25
100
AcDbLine
 10
190.5017851472
 20
-17.6639810219
 30
0.0
 11
191.1270851472
 21
-17.6639810219
 31
0.0
  0
LINE
  5
29D
330
1F
100
AcDbEntity
  8
0
  6
Continuous
 62
     7
370
    25
100
AcDbLine
 10
191.1270851472
 20
-17.6639810219
 30
0.0
 11
191.1270851472
 21
-18.9035810219
 31
0.0
  0
LINE
  5
29E
330
1F
100
AcDbEntity
  8
0
  6
Continuous
 62
     7
370
    25
100
AcDbLine
 10
191.1270851472
 20
-18.9035810219
 30
0.0
 11
192.3124851472
 21
-18.9035810219
 31
0.0
  0
LINE
  5
29F
330
1F
100
AcDbEntity
  8
0
  6
Continuous
 62
     7
370
    25
100
AcDbLine
 10
192.3124851472
 20
-18.9035810219
 30
0.0
 11
192.3124851472
 21
-17.6639810219
 31
0.0
  0
LINE
  5
2A0
330
1F
100
AcDbEntity
  8
0
  6
Continuous
 62
     7
370
    25
100
AcDbLine
 10
192.3124851472
 20
-17.6639810219
 30
0.0
 11
192.9269851472
 21
-17.6639810219
 31
0.0
  0
LINE
  5
2A1
330
1F
100
AcDbEntity
  8
0
  6
Continuous
 62
     7
370
    25
100
AcDbLine
 10
192.9269851472
 20
-17.6639810219
 30
0.0
 11
192.9269851472
 21
-19.3131810219
 31
0.0
  0
LINE
  5
2A2
330
1F
100
AcDbEntity
  8
0
  6
Continuous
 62
     7
370
    25
100
AcDbLine
 10
192.9269851472
 20
-19.3131810219
 30
0.0
 11
190.9634851472
 21
-19.3131810219
 31
0.0
  0
ARC
  5
2A3
330
1F
100
AcDbEntity
  8
0
  6
Continuous
 62
     7
370
    25
100
AcDbCircle
 10
190.9644502203
 20
-18.850516147
 30
0.0
 40
0.4626658814684848
100
AcDbArc
 50
180.1071047489
 51
269.8804868527
  0
LINE
  5
2A4
330
1F
100
AcDbEntity
  8
0
  6
Continuous
 62
     7
370
    25
100
AcDbLine
 10
195.4813851472
 20
-89.233670091
 30
0.0
 11
195.4813851472
 21
-88.824070091
 31
0.0
  0
LINE
  5
2A5
330
1F
100
AcDbEntity
  8
0
  6
Continuous
 62
     7
370
    25
100
AcDbLine
 10
193.8537851472
 20
-89.233670091
 30
0.0
 11
195.4813851472
 21
-89.233670091
 31
0.0
  0
LINE
  5
2A6
330
1F
100
AcDbEntity
  8
0
  6
Continuous
 62
     7
370
    25
100
AcDbLine
 10
193.8537851472
 20
-90.473270091
 30
0.0
 11
193.8537851472
 21
-89.233670091
 31
0.0
  0
LINE
  5
2A7
330
1F
100
AcDbEntity
  8
0
  6
Continuous
 62
     7
370
    25
100
AcDbLine
 10
193.2286851472
 20
-90.473270091
 30
0.0
 11
193.8537851472
 21
-90.473270091
 31
0.0
  0
LINE
  5
2A8
330
1F
100
AcDbEntity
  8
0
  6
Continuous
 62
     7
370
    25
100
AcDbLine
 10
193.2286851472
 20
-89.285870091
 30
0.0
 11
193.2286851472
 21
-90.473270091
 31
0.0
  0
ARC
  5
2A9
330
1F
100
AcDbEntity
  8
0
  6
Continuous
 62
     7
370
    25
100
AcDbCircle
 10
193.691424587
 20
-89.2868095308
 30
0.0
 40
0.4627403934257502
100
AcDbArc
 50
90.1163200236
 51
179.8836799764
  0
LINE
  5
2AA
330
1F
100
AcDbEntity
  8
0
  6
Continuous
 62
     7
370
    25
100
AcDbLine
 10
195.4813851472
 20
-88.824070091
 30
0.0
 11
193.6904851472
 21
-88.824070091
 31
0.0
  0
LINE
  5
2AB
330
1F
100
AcDbEntity
  8
0
  6
Continuous
 62
     7
370
    25
100
AcDbLine
 10
188.0981851472
 20
-18.9035810219
 30
0.0
 11
188.0981851472
 21
-19.3131810219
 31
0.0
  0
LINE
  5
2AC
330
1F
100
AcDbEntity
  8
0
  6
Continuous
 62
     7
370
    25
100
AcDbLine
 10
189.7257851472
 20
-18.9035810219
 30
0.0
 11
188.0981851472
 21
-18.9035810219
 31
0.0
  0
LINE
  5
2AD
330
1F
100
AcDbEntity
  8
0
  6
Continuous
 62
     7
370
    25
100
AcDbLine
 10
189.7257851472
 20
-17.6639810219
 30
0.0
 11
189.7257851472
 21
-18.9035810219
 31
0.0
  0
LINE
  5
2AE
330
1F
100
AcDbEntity
  8
0
  6
Continuous
 62
     7
370
    25
100
AcDbLine
 10
190.3508851472
 20
-17.6639810219
 30
0.0
 11
189.7257851472
 21
-17.6639810219
 31
0.0
  0
LINE
  5
2AF
330
1F
100
AcDbEntity
  8
0
  6
Continuous
 62
     7
370
    25
100
AcDbLine
 10
190.3508851472
 20
-18.8513810219
 30
0.0
 11
190.3508851472
 21
-17.6639810219
 31
0.0
  0
ARC
  5
2B0
330
1F
100
AcDbEntity
  8
0
  6
Continuous
 62
     7
370
    25
100
AcDbCircle
 10
189.8881457074
 20
-18.8504415821
 30
0.0
 40
0.4627403934257502
100
AcDbArc
 50
270.1163200236
 51
359.8836799764
  0
LINE
  5
2B1
330
1F
100
AcDbEntity
  8
0
  6
Continuous
 62
     7
370
    25
100
AcDbLine
 10
188.0981851472
 20
-19.3131810219
 30
0.0
 11
189.8890851472
 21
-19.3131810219
 31
0.0
  0
LINE
  5
2B2
330
1F
100
AcDbEntity
  8
0
  6
Continuous
 62
     7
370
    25
100
AcDbLine
 10
188.4537851472
 20
-18.6664810219
 30
0.0
 11
189.4993851472
 21
-18.6664810219
 31
0.0
  0
LINE
  5
2B3
330
1F
100
AcDbEntity
  8
0
  6
Continuous
 62
     7
370
    25
100
AcDbLine
 10
188.4537851472
 20
-18.3215810219
 30
0.0
 11
188.4537851472
 21
-18.6664810219
 31
0.0
  0
LINE
  5
2B4
330
1F
100
AcDbEntity
  8
0
  6
Continuous
 62
     7
370
    25
100
AcDbLine
 10
189.4993851472
 20
-18.3215810219
 30
0.0
 11
188.4537851472
 21
-18.3215810219
 31
0.0
  0
LINE
  5
2B5
330
1F
100
AcDbEntity
  8
0
  6
Continuous
 62
     7
370
    25
100
AcDbLine
 10
189.4993851472
 20
-18.6664810219
 30
0.0
 11
189.4993851472
 21
-18.3215810219
 31
0.0
  0
LINE
  5
2B6
330
1F
100
AcDbEntity
  8
0
  6
Continuous
 62
     7
370
    25
100
AcDbLine
 10
194.0801851472
 20
-89.815670091
 30
0.0
 11
195.1257851472
 21
-89.815670091
 31
0.0
  0
LINE
  5
2B7
330
1F
100
AcDbEntity
  8
0
  6
Continuous
 62
     7
370
    25
100
AcDbLine
 10
194.0801851472
 20
-89.470770091
 30
0.0
 11
194.0801851472
 21
-89.815670091
 31
0.0
  0
LINE
  5
2B8
330
1F
100
AcDbEntity
  8
0
  6
Continuous
 62
     7
370
    25
100
AcDbLine
 10
195.1257851472
 20
-89.470770091
 30
0.0
 11
194.0801851472
 21
-89.470770091
 31
0.0
  0
LINE
  5
2B9
330
1F
100
AcDbEntity
  8
0
  6
Continuous
 62
     7
370
    25
100
AcDbLine
 10
195.1257851472
 20
-89.815670091
 30
0.0
 11
195.1257851472
 21
-89.470770091
 31
0.0
  0
LINE
  5
2BA
330
1F
100
AcDbEntity
  8
0
  6
Continuous
 62
     7
370
    25
100
AcDbLine
 10
190.099521377
 20
-40.1781916918
 30
0.0
 11
182.099521377
 21
-40.1781916918
 31
0.0
  0
ARC
  5
2BB
330
1F
100
AcDbEntity
  8
0
  6
Continuous
 62
     7
370
    25
100
AcDbCircle
 10
194.099521377
 20
-37.1781916918
 30
0.0
 40
5.000000000000028
100
AcDbArc
 50
181.5470517553
 51
216.8698976458
  0
ARC
  5
2BC
330
1F
100
AcDbEntity
  8
0
  6
Continuous
 62
     7
370
    25
100
AcDbCircle
 10
178.099521377
 20
-37.1781916918
 30
0.0
 40
5.000000000000026
100
AcDbArc
 50
323.1301023542
 51
358.4529482447
  0
LINE
  5
2BD
330
1F
100
AcDbEntity
  8
0
  6
Continuous
 62
     7
370
    25
100
AcDbLine
 10
190.099521377
 20
-68.1781916918
 30
0.0
 11
190.099521377
 21
-40.1781916918
 31
0.0
  0
LINE
  5
2BE
330
1F
100
AcDbEntity
  8
0
  6
Continuous
 62
     7
370
    25
100
AcDbLine
 10
190.099521377
 20
-68.1781916918
 30
0.0
 11
182.099521377
 21
-68.1781916918
 31
0.0
  0
LINE
  5
2BF
330
1F
100
AcDbEntity
  8
0
  6
Continuous
 62
     7
370
    25
100
AcDbLine
 10
182.099521377
 20
-68.1781916918
 30
0.0
 11
182.099521377
 21
-40.1781916918
 31
0.0
  0
ARC
  5
2C0
330
1F
100
AcDbEntity
  8
0
  6
Continuous
 62
     7
370
    25
100
AcDbCircle
 10
194.099521377
 20
-71.1781916918
 30
0.0
 40
5.000000000000014
100
AcDbArc
 50
143.1301023542
 51
175.711158665
  0
ARC
  5
2C1
330
1F
100
AcDbEntity
  8
0
  6
Continuous
 62
     7
370
    25
100
AcDbCircle
 10
178.099521377
 20
-71.1781916918
 30
0.0
 40
5.000000000000003
100
AcDbArc
 50
3.4210616095
 51
36.8698976458
  0
LINE
  5
2C2
330
1F
100
AcDbEntity
  8
0
  6
Continuous
 62
     7
370
    25
100
AcDbLine
 10
192.549521377
 20
-71.074070091
 30
0.0
 11
179.549521377
 21
-71.074070091
 31
0.0
  0
LINE
  5
2C3
330
1F
100
AcDbEntity
  8
0
  6
Continuous
 62
     7
370
    25
100
AcDbLine
 10
179.799521377
 20
-70.824070091
 30
0.0
 11
192.299521377
 21
-70.824070091
 31
0.0
  0
LINE
  5
2C4
330
1F
100
AcDbEntity
  8
0
  6
Continuous
 62
     7
370
    25
100
AcDbLine
 10
188.30155046
 20
-37.0631810219
 30
0.0
 11
192.549521377
 21
-37.0631810219
 31
0.0
  0
LINE
  5
2C5
330
1F
100
AcDbEntity
  8
0
  6
Continuous
 62
     7
370
    25
100
AcDbLine
 10
179.549521377
 20
-37.0631810219
 30
0.0
 11
188.30155046
 21
-37.0631810219
 31
0.0
  0
LINE
  5
2C6
330
1F
100
AcDbEntity
  8
0
  6
Continuous
 62
     7
370
    25
100
AcDbLine
 10
188.2149339568
 20
-37.3131810219
 30
0.0
 11
179.799521377
 21
-37.3131810219
 31
0.0
  0
LINE
  5
2C7
330
1F
100
AcDbEntity
  8
0
  6
Continuous
 62
     7
370
    25
100
AcDbLine
 10
192.299521377
 20
-37.3131810219
 30
0.0
 11
188.2149339568
 21
-37.3131810219
 31
0.0
  0
LINE
  5
2C8
330
1F
100
AcDbEntity
  8
0
  6
Continuous
 62
     7
370
    25
100
AcDbLine
 10
182.8095368091
 20
-80.824070091
 30
0.0
 11
189.2895059449
 21
-80.824070091
 31
0.0
  0
LINE
  5
2C9
330
1F
100
AcDbEntity
  8
0
  6
Continuous
 62
     7
370
    25
100
AcDbLine
 10
186.049521377
 20
-27.3131810219
 30
0.0
 11
182.8095368091
 21
-27.3131810219
 31
0.0
  0
LINE
  5
2CA
330
1F
100
AcDbEntity
  8
0
  6
Continuous
 62
     7
370
    25
100
AcDbLine
 10
189.2895059449
 20
-27.3131810219
 30
0.0
 11
186.049521377
 21
-27.3131810219
 31
0.0
  0
LINE
  5
2CB
330
1F
100
AcDbEntity
  8
0
  6
Continuous
 62
     7
370
    25
100
AcDbLine
 10
201.099521377
 20
27.6868189781
 30
0.0
 11
201.099521377
 21
32.6868189781
 31
0.0
  0
ARC
  5
2CC
330
1F
100
AcDbEntity
  8
0
  6
Continuous
 62
     7
370
    25
100
AcDbCircle
 10
201.099521377
 20
22.6868189781
 30
0.0
 40
10.0
100
AcDbArc
 50
0.0
 51
90.0
  0
LINE
  5
2CD
330
1F
100
AcDbEntity
  8
0
  6
Continuous
 62
     7
370
    25
100
AcDbLine
 10
206.099521377
 20
22.6868189781
 30
0.0
 11
211.099521377
 21
22.6868189781
 31
0.0
  0
ARC
  5
2CE
330
1F
100
AcDbEntity
  8
0
  6
Continuous
 62
     7
370
    25
100
AcDbCircle
 10
201.099521377
 20
22.6868189781
 30
0.0
 40
5.0
100
AcDbArc
 50
0.0
 51
90.0
  0
LINE
  5
2CF
330
1F
100
AcDbEntity
  8
0
  6
Continuous
 62
     7
370
    25
100
AcDbLine
 10
76.099521377
 20
27.6868189781
 30
0.0
 11
76.099521377
 21
32.6868189781
 31
0.0
  0
LINE
  5
2D0
330
1F
100
AcDbEntity
  8
0
  6
Continuous
 62
     7
370
    25
100
AcDbLine
 10
76.099521377
 20
32.6868189781
 30
0.0
 11
201.099521377
 21
32.6868189781
 31
0.0
  0
LINE
  5
2D1
330
1F
100
AcDbEntity
  8
0
  6
Continuous
 62
     7
370
    25
100
AcDbLine
 10
201.099521377
 20
27.6868189781
 30
0.0
 11
76.099521377
 21
27.6868189781
 31
0.0
  0
LINE
  5
2D2
330
1F
100
AcDbEntity
  8
0
  6
Continuous
 62
     7
370
    25
100
AcDbLine
 10
71.099521377
 20
22.6868189781
 30
0.0
 11
66.099521377
 21
22.6868189781
 31
0.0
  0
ARC
  5
2D3
330
1F
100
AcDbEntity
  8
0
  6
Continuous
 62
     7
370
    25
100
AcDbCircle
 10
76.099521377
 20
22.6868189781
 30
0.0
 40
10.0
100
AcDbArc
 50
90.0
 51
180.0
  0
ARC
  5
2D4
330
1F
100
AcDbEntity
  8
0
  6
Continuous
 62
     7
370
    25
100
AcDbCircle
 10
76.099521377
 20
22.6868189781
 30
0.0
 40
5.000000000000014
100
AcDbArc
 50
90.0
 51
180.0
  0
LINE
  5
2D5
330
1F
100
AcDbEntity
  8
0
  6
Continuous
 62
     7
370
    25
100
AcDbLine
 10
178.099521377
 20
-7.3131810219
 30
0.0
 11
178.099521377
 21
-27.3131810219
 31
0.0
  0
ARC
  5
2D6
330
1F
100
AcDbEntity
  8
0
  6
Continuous
 62
     7
370
    25
100
AcDbCircle
 10
163.099521377
 20
-7.3131810219
 30
0.0
 40
15.0
100
AcDbArc
 50
0.0
 51
90.0
  0
LINE
  5
2D7
330
1F
100
AcDbEntity
  8
0
  6
Continuous
 62
     7
370
    25
100
AcDbLine
 10
76.099521377
 20
7.6868189781
 30
0.0
 11
163.099521377
 21
7.6868189781
 31
0.0
  0
ARC
  5
2D8
330
1F
100
AcDbEntity
  8
0
  6
Continuous
 62
     7
370
    25
100
AcDbCircle
 10
76.099521377
 20
12.6868189781
 30
0.0
 40
5.0
100
AcDbArc
 50
180.0
 51
270.0
  0
LINE
  5
2D9
330
1F
100
AcDbEntity
  8
0
  6
Continuous
 62
     7
370
    25
100
AcDbLine
 10
71.099521377
 20
22.6868189781
 30
0.0
 11
71.099521377
 21
12.6868189781
 31
0.0
  0
LINE
  5
2DA
330
1F
100
AcDbEntity
  8
0
  6
Continuous
 62
     7
370
    25
100
AcDbLine
 10
206.099521377
 20
-27.3131810219
 30
0.0
 11
206.099521377
 21
22.6868189781
 31
0.0
  0
LINE
  5
2DB
330
1F
100
AcDbEntity
  8
0
  6
Continuous
 62
     7
370
    25
100
AcDbLine
 10
178.099521377
 20
-27.3131810219
 30
0.0
 11
182.8095368091
 21
-27.3131810219
 31
0.0
  0
LINE
  5
2DC
330
1F
100
AcDbEntity
  8
0
  6
Continuous
 62
     7
370
    25
100
AcDbLine
 10
189.2895059449
 20
-27.3131810219
 30
0.0
 11
206.099521377
 21
-27.3131810219
 31
0.0
  0
LINE
  5
2DD
330
1F
100
AcDbEntity
  8
0
  6
Continuous
 62
     7
370
    25
100
AcDbLine
 10
71.099521377
 20
12.6868189781
 30
0.0
 11
66.099521377
 21
12.6868189781
 31
0.0
  0
LINE
  5
2DE
330
1F
100
AcDbEntity
  8
0
  6
Continuous
 62
     7
370
    25
100
AcDbLine
 10
66.099521377
 20
12.6868189781
 30
0.0
 11
66.099521377
 21
22.6868189781
 31
0.0
  0
LINE
  5
2DF
330
1F
100
AcDbEntity
  8
0
  6
Continuous
 62
     7
370
    25
100
AcDbLine
 10
211.099521377
 20
22.6868189781
 30
0.0
 11
211.099521377
 21
-27.3131810219
 31
0.0
  0
LINE
  5
2E0
330
1F
100
AcDbEntity
  8
0
  6
Continuous
 62
     7
370
    25
100
AcDbLine
 10
211.099521377
 20
-27.3131810219
 30
0.0
 11
206.099521377
 21
-27.3131810219
 31
0.0
  0
LINE
  5
2E1
330
1F
100
AcDbEntity
  8
0
  6
Continuous
 62
     7
370
    25
100
AcDbLine
 10
76.099521377
 20
7.6868189781
 30
0.0
 11
76.099521377
 21
2.6868189781
 31
0.0
  0
ARC
  5
2E2
330
1F
100
AcDbEntity
  8
0
  6
Continuous
 62
     7
370
    25
100
AcDbCircle
 10
76.099521377
 20
12.6868189781
 30
0.0
 40
10.0
100
AcDbArc
 50
180.0
 51
270.0
  0
LINE
  5
2E3
330
1F
100
AcDbEntity
  8
0
  6
Continuous
 62
     7
370
    25
100
AcDbLine
 10
178.099521377
 20
-7.3131810219
 30
0.0
 11
173.099521377
 21
-7.3131810219
 31
0.0
  0
ARC
  5
2E4
330
1F
100
AcDbEntity
  8
0
  6
Continuous
 62
     7
370
    25
100
AcDbCircle
 10
163.099521377
 20
-7.3131810219
 30
0.0
 40
10.00000000000003
100
AcDbArc
 50
0.0
 51
90.0
  0
LINE
  5
2E5
330
1F
100
AcDbEntity
  8
0
  6
Continuous
 62
     7
370
    25
100
AcDbLine
 10
163.099521377
 20
7.6868189781
 30
0.0
 11
163.099521377
 21
2.6868189781
 31
0.0
  0
LINE
  5
2E6
330
1F
100
AcDbEntity
  8
0
  6
Continuous
 62
     7
370
    25
100
AcDbLine
 10
163.099521377
 20
2.6868189781
 30
0.0
 11
76.099521377
 21
2.6868189781
 31
0.0
  0
LINE
  5
2E7
330
1F
100
AcDbEntity
  8
0
  6
Continuous
 62
     7
370
    25
100
AcDbLine
 10
178.099521377
 20
-27.3131810219
 30
0.0
 11
173.099521377
 21
-27.3131810219
 31
0.0
  0
LINE
  5
2E8
330
1F
100
AcDbEntity
  8
0
  6
Continuous
 62
     7
370
    25
100
AcDbLine
 10
173.099521377
 20
-27.3131810219
 30
0.0
 11
173.099521377
 21
-21.6792066052
 31
0.0
  0
ARC
  5
2E9
330
1F
100
AcDbEntity
  8
0
  6
Continuous
 62
     7
370
    25
100
AcDbCircle
 10
168.9711008741
 20
-18.8131810219
 30
0.0
 40
5.025729647828402
100
AcDbArc
 50
325.2309061947
 51
34.7690938053
  0
LINE
  5
2EA
330
1F
100
AcDbEntity
  8
0
  6
Continuous
 62
     7
370
    25
100
AcDbLine
 10
173.099521377
 20
-15.9471554387
 30
0.0
 11
173.099521377
 21
-7.3131810219
 31
0.0
  0
LWPOLYLINE
  5
2EB
330
1F
100
AcDbEntity
  8
0
  6
Continuous
 62
     7
370
    25
100
AcDbPolyline
 90
        3
 70
   128
 43
0.0
 10
173.2675344219
 20
-21.262432865
 10
173.3636856431
 20
-21.1151043638
 10
173.5329703712
 20
-20.8249863526
  0
LWPOLYLINE
  5
2EC
330
1F
100
AcDbEntity
  8
0
  6
Continuous
 62
     7
370
    25
100
AcDbPolyline
 90
        3
 70
   128
 43
0.0
 10
173.5329855348
 20
-16.8013705103
 10
173.3628891764
 20
-16.5100111229
 10
173.2671138194
 20
-16.3632978627
  0
LINE
  5
2ED
330
1F
100
AcDbEntity
  8
0
  6
Continuous
 62
     7
370
    25
100
AcDbLine
 10
173.099521377
 20
-15.9471554387
 30
0.0
 11
173.2334969538
 21
-16.3131810219
 31
0.0
  0
LINE
  5
2EE
330
1F
100
AcDbEntity
  8
0
  6
Continuous
 62
     7
370
    25
100
AcDbLine
 10
173.2334969538
 20
-21.3131810219
 30
0.0
 11
173.099521377
 21
-21.6792066052
 31
0.0
  0
LINE
  5
2EF
330
1F
100
AcDbEntity
  8
0
  6
Continuous
 62
     7
370
    25
100
AcDbLine
 10
173.2334969538
 20
-16.3131810219
 30
0.0
 11
173.2671138194
 21
-16.3632978627
 31
0.0
  0
LINE
  5
2F0
330
1F
100
AcDbEntity
  8
0
  6
Continuous
 62
     7
370
    25
100
AcDbLine
 10
173.2671138194
 20
-21.2630641812
 30
0.0
 11
173.2334969538
 21
-21.3131810219
 31
0.0
  0
LWPOLYLINE
  5
2F1
330
1F
100
AcDbEntity
  8
0
  6
Continuous
 62
     7
370
    25
100
AcDbPolyline
 90
        3
 70
   128
 43
0.0
 10
173.099521377
 20
-21.6792066052
 10
173.134062842
 20
-21.6217537689
 10
173.1340646785
 20
-21.6217506936
  0
LINE
  5
2F2
330
1F
100
AcDbEntity
  8
0
  6
Continuous
 62
     7
370
    25
100
AcDbLine
 10
173.1340646785
 20
-16.0046113503
 30
0.0
 11
173.099521377
 21
-15.9471554387
 31
0.0
  0
LINE
  5
2F3
330
1F
100
AcDbEntity
  8
0
  6
Continuous
 62
     7
370
    25
100
AcDbLine
 10
173.099521377
 20
-80.824070091
 30
0.0
 11
178.099521377
 21
-80.824070091
 31
0.0
  0
LINE
  5
2F4
330
1F
100
AcDbEntity
  8
0
  6
Continuous
 62
     7
370
    25
100
AcDbLine
 10
178.099521377
 20
-80.824070091
 30
0.0
 11
178.099521377
 21
-100.824070091
 31
0.0
  0
LINE
  5
2F5
330
1F
100
AcDbEntity
  8
0
  6
Continuous
 62
     7
370
    25
100
AcDbLine
 10
173.099521377
 20
-100.824070091
 30
0.0
 11
178.099521377
 21
-100.824070091
 31
0.0
  0
LINE
  5
2F6
330
1F
100
AcDbEntity
  8
0
  6
Continuous
 62
     7
370
    25
100
AcDbLine
 10
173.099521377
 20
-92.1900956742
 30
0.0
 11
173.099521377
 21
-100.824070091
 31
0.0
  0
ARC
  5
2F7
330
1F
100
AcDbEntity
  8
0
  6
Continuous
 62
     7
370
    25
100
AcDbCircle
 10
168.9711008741
 20
-89.324070091
 30
0.0
 40
5.025729647828492
100
AcDbArc
 50
325.2309061947
 51
34.7690938053
  0
LINE
  5
2F8
330
1F
100
AcDbEntity
  8
0
  6
Continuous
 62
     7
370
    25
100
AcDbLine
 10
173.099521377
 20
-80.824070091
 30
0.0
 11
173.099521377
 21
-86.4580445078
 31
0.0
  0
LINE
  5
2F9
330
1F
100
AcDbEntity
  8
0
  6
Continuous
 62
     7
370
    25
100
AcDbLine
 10
211.099521377
 20
-130.824070091
 30
0.0
 11
211.099521377
 21
-80.824070091
 31
0.0
  0
LINE
  5
2FA
330
1F
100
AcDbEntity
  8
0
  6
Continuous
 62
     7
370
    25
100
AcDbLine
 10
211.099521377
 20
-130.824070091
 30
0.0
 11
206.099521377
 21
-130.824070091
 31
0.0
  0
LINE
  5
2FB
330
1F
100
AcDbEntity
  8
0
  6
Continuous
 62
     7
370
    25
100
AcDbLine
 10
206.099521377
 20
-130.824070091
 30
0.0
 11
206.099521377
 21
-80.824070091
 31
0.0
  0
LINE
  5
2FC
330
1F
100
AcDbEntity
  8
0
  6
Continuous
 62
     7
370
    25
100
AcDbLine
 10
206.099521377
 20
-80.824070091
 30
0.0
 11
211.099521377
 21
-80.824070091
 31
0.0
  0
ARC
  5
2FD
330
1F
100
AcDbEntity
  8
0
  6
Continuous
 62
     7
370
    25
100
AcDbCircle
 10
201.099521377
 20
-130.824070091
 30
0.0
 40
5.000000000000028
100
AcDbArc
 50
270.0
 51
0.0
  0
LINE
  5
2FE
330
1F
100
AcDbEntity
  8
0
  6
Continuous
 62
     7
370
    25
100
AcDbLine
 10
76.099521377
 20
-135.824070091
 30
0.0
 11
201.099521377
 21
-135.824070091
 31
0.0
  0
ARC
  5
2FF
330
1F
100
AcDbEntity
  8
0
  6
Continuous
 62
     7
370
    25
100
AcDbCircle
 10
76.099521377
 20
-130.824070091
 30
0.0
 40
5.000000000000028
100
AcDbArc
 50
180.0
 51
270.0
  0
LINE
  5
300
330
1F
100
AcDbEntity
  8
0
  6
Continuous
 62
     7
370
    25
100
AcDbLine
 10
71.099521377
 20
-120.824070091
 30
0.0
 11
71.099521377
 21
-130.824070091
 31
0.0
  0
ARC
  5
301
330
1F
100
AcDbEntity
  8
0
  6
Continuous
 62
     7
370
    25
100
AcDbCircle
 10
76.099521377
 20
-120.824070091
 30
0.0
 40
5.0
100
AcDbArc
 50
90.0
 51
180.0
  0
LINE
  5
302
330
1F
100
AcDbEntity
  8
0
  6
Continuous
 62
     7
370
    25
100
AcDbLine
 10
163.099521377
 20
-115.824070091
 30
0.0
 11
76.099521377
 21
-115.824070091
 31
0.0
  0
ARC
  5
303
330
1F
100
AcDbEntity
  8
0
  6
Continuous
 62
     7
370
    25
100
AcDbCircle
 10
163.099521377
 20
-100.824070091
 30
0.0
 40
14.99999999999999
100
AcDbArc
 50
270.0
 51
0.0
  0
LINE
  5
304
330
1F
100
AcDbEntity
  8
0
  6
Continuous
 62
     7
370
    25
100
AcDbLine
 10
206.099521377
 20
-80.824070091
 30
0.0
 11
189.2895059449
 21
-80.824070091
 31
0.0
  0
LINE
  5
305
330
1F
100
AcDbEntity
  8
0
  6
Continuous
 62
     7
370
    25
100
AcDbLine
 10
182.8095368091
 20
-80.824070091
 30
0.0
 11
178.099521377
 21
-80.824070091
 31
0.0
  0
ARC
  5
306
330
1F
100
AcDbEntity
  8
0
  6
Continuous
 62
     7
370
    25
100
AcDbCircle
 10
163.099521377
 20
-100.824070091
 30
0.0
 40
9.999999999999986
100
AcDbArc
 50
270.0
 51
0.0
  0
LINE
  5
307
330
1F
100
AcDbEntity
  8
0
  6
Continuous
 62
     7
370
    25
100
AcDbLine
 10
163.099521377
 20
-110.824070091
 30
0.0
 11
163.099521377
 21
-115.824070091
 31
0.0
  0
LINE
  5
308
330
1F
100
AcDbEntity
  8
0
  6
Continuous
 62
     7
370
    25
100
AcDbLine
 10
163.099521377
 20
-110.824070091
 30
0.0
 11
76.099521377
 21
-110.824070091
 31
0.0
  0
LINE
  5
309
330
1F
100
AcDbEntity
  8
0
  6
Continuous
 62
     7
370
    25
100
AcDbLine
 10
76.099521377
 20
-110.824070091
 30
0.0
 11
76.099521377
 21
-115.824070091
 31
0.0
  0
ARC
  5
30A
330
1F
100
AcDbEntity
  8
0
  6
Continuous
 62
     7
370
    25
100
AcDbCircle
 10
76.099521377
 20
-120.824070091
 30
0.0
 40
10.0
100
AcDbArc
 50
90.0
 51
180.0
  0
LINE
  5
30B
330
1F
100
AcDbEntity
  8
0
  6
Continuous
 62
     7
370
    25
100
AcDbLine
 10
66.099521377
 20
-120.824070091
 30
0.0
 11
71.099521377
 21
-120.824070091
 31
0.0
  0
LINE
  5
30C
330
1F
100
AcDbEntity
  8
0
  6
Continuous
 62
     7
370
    25
100
AcDbLine
 10
66.099521377
 20
-120.824070091
 30
0.0
 11
66.099521377
 21
-130.824070091
 31
0.0
  0
LINE
  5
30D
330
1F
100
AcDbEntity
  8
0
  6
Continuous
 62
     7
370
    25
100
AcDbLine
 10
66.099521377
 20
-130.824070091
 30
0.0
 11
71.099521377
 21
-130.824070091
 31
0.0
  0
ARC
  5
30E
330
1F
100
AcDbEntity
  8
0
  6
Continuous
 62
     7
370
    25
100
AcDbCircle
 10
76.099521377
 20
-130.824070091
 30
0.0
 40
10.00000000000003
100
AcDbArc
 50
180.0
 51
270.0
  0
LINE
  5
30F
330
1F
100
AcDbEntity
  8
0
  6
Continuous
 62
     7
370
    25
100
AcDbLine
 10
76.099521377
 20
-140.824070091
 30
0.0
 11
76.099521377
 21
-135.824070091
 31
0.0
  0
ARC
  5
310
330
1F
100
AcDbEntity
  8
0
  6
Continuous
 62
     7
370
    25
100
AcDbCircle
 10
201.099521377
 20
-130.824070091
 30
0.0
 40
10.00000000000006
100
AcDbArc
 50
270.0
 51
0.0
  0
LINE
  5
311
330
1F
100
AcDbEntity
  8
0
  6
Continuous
 62
     7
370
    25
100
AcDbLine
 10
201.099521377
 20
-140.824070091
 30
0.0
 11
201.099521377
 21
-135.824070091
 31
0.0
  0
LINE
  5
312
330
1F
100
AcDbEntity
  8
0
  6
Continuous
 62
     7
370
    25
100
AcDbLine
 10
76.099521377
 20
-140.824070091
 30
0.0
 11
201.099521377
 21
-140.824070091
 31
0.0
  0
LWPOLYLINE
  5
313
330
1F
100
AcDbEntity
  8
0
  6
Continuous
 62
     7
370
    25
100
AcDbPolyline
 90
        3
 70
   128
 43
0.0
 10
173.2675344219
 20
-91.773321934
 10
173.3636856431
 20
-91.6259934328
 10
173.5329703712
 20
-91.3358754216
  0
LWPOLYLINE
  5
314
330
1F
100
AcDbEntity
  8
0
  6
Continuous
 62
     7
370
    25
100
AcDbPolyline
 90
        3
 70
   128
 43
0.0
 10
173.5329855348
 20
-87.3122595794
 10
173.3628891764
 20
-87.0209001919
 10
173.2671138194
 20
-86.8741869318
  0
LINE
  5
315
330
1F
100
AcDbEntity
  8
0
  6
Continuous
 62
     7
370
    25
100
AcDbLine
 10
173.2334969538
 20
-86.824070091
 30
0.0
 11
173.099521377
 21
-86.4580445078
 31
0.0
  0
LINE
  5
316
330
1F
100
AcDbEntity
  8
0
  6
Continuous
 62
     7
370
    25
100
AcDbLine
 10
173.099521377
 20
-92.1900956742
 30
0.0
 11
173.2334969538
 21
-91.824070091
 31
0.0
  0
LINE
  5
317
330
1F
100
AcDbEntity
  8
0
  6
Continuous
 62
     7
370
    25
100
AcDbLine
 10
173.2334969538
 20
-86.824070091
 30
0.0
 11
173.2671138194
 21
-86.8741869318
 31
0.0
  0
LINE
  5
318
330
1F
100
AcDbEntity
  8
0
  6
Continuous
 62
     7
370
    25
100
AcDbLine
 10
173.2671138194
 20
-91.7739532502
 30
0.0
 11
173.2334969538
 21
-91.824070091
 31
0.0
  0
LWPOLYLINE
  5
319
330
1F
100
AcDbEntity
  8
0
  6
Continuous
 62
     7
370
    25
100
AcDbPolyline
 90
        3
 70
   128
 43
0.0
 10
173.099521377
 20
-92.1900956742
 10
173.134062842
 20
-92.1326428379
 10
173.1340646785
 20
-92.1326397626
  0
LINE
  5
31A
330
1F
100
AcDbEntity
  8
0
  6
Continuous
 62
     7
370
    25
100
AcDbLine
 10
173.1340646785
 20
-86.5155004194
 30
0.0
 11
173.099521377
 21
-86.4580445078
 31
0.0
  0
LINE
  5
31B
330
1F
100
AcDbEntity
  8
0
  6
Continuous
 62
     1
370
    25
100
AcDbLine
 10
203.2318742994
 20
-31.3131810219
 30
0.0
 11
203.2318742994
 21
-44.2631810219
 31
0.0
  0
LINE
  5
31C
330
1F
100
AcDbEntity
  8
0
  6
Continuous
 62
     1
370
    25
100
AcDbLine
 10
208.0227348847
 20
-44.2631810219
 30
0.0
 11
208.0231813263
 21
-31.3131810219
 31
0.0
  0
LINE
  5
31D
330
1F
100
AcDbEntity
  8
0
  6
Continuous
 62
     1
370
    25
100
AcDbLine
 10
203.2159820163
 20
-44.2631810219
 30
0.0
 11
203.2318742994
 21
-31.3131810219
 31
0.0
  0
LINE
  5
31E
330
1F
100
AcDbEntity
  8
0
  6
Continuous
 62
     1
370
    25
100
AcDbLine
 10
202.0758614278
 20
-31.3131810219
 30
0.0
 11
202.0796750267
 21
-44.2631810219
 31
0.0
  0
LINE
  5
31F
330
1F
100
AcDbEntity
  8
0
  6
Continuous
 62
     1
370
    25
100
AcDbLine
 10
208.0231813263
 20
-44.2631810219
 30
0.0
 11
208.0227348847
 21
-44.2631810219
 31
0.0
  0
LINE
  5
320
330
1F
100
AcDbEntity
  8
0
  6
Continuous
 62
     1
370
    25
100
AcDbLine
 10
202.0796750267
 20
-44.2631810219
 30
0.0
 11
202.0758614278
 21
-44.2631810219
 31
0.0
  0
LINE
  5
321
330
1F
100
AcDbEntity
  8
0
  6
Continuous
 62
     7
370
    25
100
AcDbLine
 10
321.0783805494
 20
115.5268223209
 30
0.0
 11
321.5883775583
 21
115.5268223209
 31
0.0
  0
LINE
  5
322
330
1F
100
AcDbEntity
  8
0
  6
Continuous
 62
     7
370
    25
100
AcDbLine
 10
354.7789191585
 20
125.0268223209
 30
0.0
 11
354.5289191585
 21
124.7768223209
 31
0.0
  0
LINE
  5
323
330
1F
100
AcDbEntity
  8
0
  6
Continuous
 62
     7
370
    25
100
AcDbLine
 10
354.5289191585
 20
112.2768223209
 30
0.0
 11
354.7789191585
 21
112.0268223209
 31
0.0
  0
LINE
  5
324
330
1F
100
AcDbEntity
  8
0
  6
Continuous
 62
     7
370
    25
100
AcDbLine
 10
354.7789191585
 20
112.0268223209
 30
0.0
 11
360.5289191585
 21
112.0268223209
 31
0.0
  0
LINE
  5
325
330
1F
100
AcDbEntity
  8
0
  6
Continuous
 62
     7
370
    25
100
AcDbLine
 10
360.5289191585
 20
125.0268223209
 30
0.0
 11
354.7789191585
 21
125.0268223209
 31
0.0
  0
LINE
  5
326
330
1F
100
AcDbEntity
  8
0
  6
Continuous
 62
     7
370
    25
100
AcDbLine
 10
320.7680300894
 20
125.0268223209
 30
0.0
 11
315.0180300894
 21
125.0268223209
 31
0.0
  0
LINE
  5
327
330
1F
100
AcDbEntity
  8
0
  6
Continuous
 62
     7
370
    25
100
AcDbLine
 10
315.0180300894
 20
112.0268223209
 30
0.0
 11
320.7680300894
 21
112.0268223209
 31
0.0
  0
LINE
  5
328
330
1F
100
AcDbEntity
  8
0
  6
Continuous
 62
     7
370
    25
100
AcDbLine
 10
320.7680300894
 20
112.0268223209
 30
0.0
 11
321.0180300894
 21
112.2768223209
 31
0.0
  0
LINE
  5
329
330
1F
100
AcDbEntity
  8
0
  6
Continuous
 62
     7
370
    25
100
AcDbLine
 10
321.0180300894
 20
124.7768223209
 30
0.0
 11
320.7680300894
 21
125.0268223209
 31
0.0
  0
LINE
  5
32A
330
1F
100
AcDbEntity
  8
0
  6
Continuous
 62
     7
370
    25
100
AcDbLine
 10
363.5289191585
 20
112.5268223209
 30
0.0
 11
364.5289191585
 21
112.5268223209
 31
0.0
  0
LINE
  5
32B
330
1F
100
AcDbEntity
  8
0
  6
Continuous
 62
     7
370
    25
100
AcDbLine
 10
364.5289191585
 20
124.5268223209
 30
0.0
 11
363.5289191585
 21
124.5268223209
 31
0.0
  0
LINE
  5
32C
330
1F
100
AcDbEntity
  8
0
  6
Continuous
 62
     7
370
    25
100
AcDbLine
 10
312.0180300894
 20
124.5268223209
 30
0.0
 11
311.0180300894
 21
124.5268223209
 31
0.0
  0
LINE
  5
32D
330
1F
100
AcDbEntity
  8
0
  6
Continuous
 62
     7
370
    25
100
AcDbLine
 10
311.0180300894
 20
112.5268223209
 30
0.0
 11
312.0180300894
 21
112.5268223209
 31
0.0
  0
CIRCLE
  5
32E
330
1F
100
AcDbEntity
  8
0
  6
Continuous
 62
     7
370
    25
100
AcDbCircle
 10
373.0289191585
 20
118.5768223209
 30
0.0
 40
2.445499999999997
  0
LINE
  5
32F
330
1F
100
AcDbEntity
  8
0
  6
Continuous
 62
     7
370
    25
100
AcDbLine
 10
374.4020951126
 20
117.5211766422
 30
0.0
 11
374.6297231107
 21
119.2382047417
 31
0.0
  0
LINE
  5
330
330
1F
100
AcDbEntity
  8
0
  6
Continuous
 62
     7
370
    25
100
AcDbLine
 10
373.2565471566
 20
120.2938504204
 30
0.0
 11
374.6297231107
 21
119.2382047417
 31
0.0
  0
LINE
  5
331
330
1F
100
AcDbEntity
  8
0
  6
Continuous
 62
     7
370
    25
100
AcDbLine
 10
371.6557432044
 20
119.6324679996
 30
0.0
 11
373.2565471566
 21
120.2938504204
 31
0.0
  0
LINE
  5
332
330
1F
100
AcDbEntity
  8
0
  6
Continuous
 62
     7
370
    25
100
AcDbLine
 10
371.6557432044
 20
119.6324679996
 30
0.0
 11
371.4281152063
 21
117.9154399001
 31
0.0
  0
LINE
  5
333
330
1F
100
AcDbEntity
  8
0
  6
Continuous
 62
     7
370
    25
100
AcDbLine
 10
372.8012911604
 20
116.8597942214
 30
0.0
 11
371.4281152063
 21
117.9154399001
 31
0.0
  0
LINE
  5
334
330
1F
100
AcDbEntity
  8
0
  6
Continuous
 62
     7
370
    25
100
AcDbLine
 10
372.8012911604
 20
116.8597942214
 30
0.0
 11
374.4020951126
 21
117.5211766422
 31
0.0
  0
ARC
  5
335
330
1F
100
AcDbEntity
  8
0
  6
Continuous
 62
     7
370
    25
100
AcDbCircle
 10
302.5180300894
 20
118.5768223209
 30
0.0
 40
2.44550000000002
100
AcDbArc
 50
341.1049310039
 51
149.971260138
  0
ARC
  5
336
330
1F
100
AcDbEntity
  8
0
  6
Continuous
 62
     7
370
    25
100
AcDbCircle
 10
302.5180300894
 20
118.5768223209
 30
0.0
 40
2.445500000000041
100
AcDbArc
 50
210.028739862
 51
329.971260138
  0
LINE
  5
337
330
1F
100
AcDbEntity
  8
0
  6
Continuous
 62
     7
370
    25
100
AcDbLine
 10
301.2129180032
 20
117.4381026705
 30
0.0
 11
300.8793139012
 21
119.1377227172
 31
0.0
  0
LINE
  5
338
330
1F
100
AcDbEntity
  8
0
  6
Continuous
 62
     7
370
    25
100
AcDbLine
 10
302.8516341914
 20
116.8772022742
 30
0.0
 11
301.2129180032
 21
117.4381026705
 31
0.0
  0
LINE
  5
339
330
1F
100
AcDbEntity
  8
0
  6
Continuous
 62
     7
370
    25
100
AcDbLine
 10
302.8516341914
 20
116.8772022742
 30
0.0
 11
304.1567462776
 21
118.0159219247
 31
0.0
  0
LINE
  5
33A
330
1F
100
AcDbEntity
  8
0
  6
Continuous
 62
     7
370
    25
100
AcDbLine
 10
303.8231421757
 20
119.7155419714
 30
0.0
 11
304.1567462776
 21
118.0159219247
 31
0.0
  0
LINE
  5
33B
330
1F
100
AcDbEntity
  8
0
  6
Continuous
 62
     7
370
    25
100
AcDbLine
 10
303.8231421757
 20
119.7155419714
 30
0.0
 11
302.1844259875
 21
120.2764423676
 31
0.0
  0
LINE
  5
33C
330
1F
100
AcDbEntity
  8
0
  6
Continuous
 62
     7
370
    25
100
AcDbLine
 10
302.1844259875
 20
120.2764423676
 30
0.0
 11
300.8793139012
 21
119.1377227172
 31
0.0
  0
LINE
  5
33D
330
1F
100
AcDbEntity
  8
0
  6
Continuous
 62
     7
370
    25
100
AcDbLine
 10
360.5289191585
 20
103.5268223209
 30
0.0
 11
363.5289191585
 21
103.5268223209
 31
0.0
  0
LINE
  5
33E
330
1F
100
AcDbEntity
  8
0
  6
Continuous
 62
     7
370
    25
100
AcDbLine
 10
363.5289191585
 20
103.5268223209
 30
0.0
 11
363.5289191585
 21
98.5268223209
 31
0.0
  0
LINE
  5
33F
330
1F
100
AcDbEntity
  8
0
  6
Continuous
 62
     7
370
    25
100
AcDbLine
 10
363.5289191585
 20
98.5268223209
 30
0.0
 11
360.5289191585
 21
98.5268223209
 31
0.0
  0
LINE
  5
340
330
1F
100
AcDbEntity
  8
0
  6
Continuous
 62
     7
370
    25
100
AcDbLine
 10
360.5289191585
 20
98.5268223209
 30
0.0
 11
360.5289191585
 21
103.5268223209
 31
0.0
  0
LINE
  5
341
330
1F
100
AcDbEntity
  8
0
  6
Continuous
 62
     7
370
    25
100
AcDbLine
 10
360.5289191585
 20
138.5268223209
 30
0.0
 11
363.5289191585
 21
138.5268223209
 31
0.0
  0
LINE
  5
342
330
1F
100
AcDbEntity
  8
0
  6
Continuous
 62
     7
370
    25
100
AcDbLine
 10
363.5289191585
 20
138.5268223209
 30
0.0
 11
363.5289191585
 21
133.5268223209
 31
0.0
  0
LINE
  5
343
330
1F
100
AcDbEntity
  8
0
  6
Continuous
 62
     7
370
    25
100
AcDbLine
 10
363.5289191585
 20
133.5268223209
 30
0.0
 11
360.5289191585
 21
133.5268223209
 31
0.0
  0
LINE
  5
344
330
1F
100
AcDbEntity
  8
0
  6
Continuous
 62
     7
370
    25
100
AcDbLine
 10
360.5289191585
 20
133.5268223209
 30
0.0
 11
360.5289191585
 21
138.5268223209
 31
0.0
  0
LINE
  5
345
330
1F
100
AcDbEntity
  8
0
  6
Continuous
 62
     7
370
    25
100
AcDbLine
 10
363.5289191585
 20
103.5268223209
 30
0.0
 11
363.5289191585
 21
133.5268223209
 31
0.0
  0
LINE
  5
346
330
1F
100
AcDbEntity
  8
0
  6
Continuous
 62
     7
370
    25
100
AcDbLine
 10
360.5289191585
 20
103.5268223209
 30
0.0
 11
360.5289191585
 21
133.5268223209
 31
0.0
  0
LINE
  5
347
330
1F
100
AcDbEntity
  8
0
  6
Continuous
 62
     7
370
    25
100
AcDbLine
 10
315.0180300894
 20
133.5268223209
 30
0.0
 11
312.0180300894
 21
133.5268223209
 31
0.0
  0
LINE
  5
348
330
1F
100
AcDbEntity
  8
0
  6
Continuous
 62
     7
370
    25
100
AcDbLine
 10
312.0180300894
 20
133.5268223209
 30
0.0
 11
312.0180300894
 21
138.5268223209
 31
0.0
  0
LINE
  5
349
330
1F
100
AcDbEntity
  8
0
  6
Continuous
 62
     7
370
    25
100
AcDbLine
 10
312.0180300894
 20
138.5268223209
 30
0.0
 11
315.0180300894
 21
138.5268223209
 31
0.0
  0
LINE
  5
34A
330
1F
100
AcDbEntity
  8
0
  6
Continuous
 62
     7
370
    25
100
AcDbLine
 10
315.0180300894
 20
138.5268223209
 30
0.0
 11
315.0180300894
 21
133.5268223209
 31
0.0
  0
LINE
  5
34B
330
1F
100
AcDbEntity
  8
0
  6
Continuous
 62
     7
370
    25
100
AcDbLine
 10
315.0180300894
 20
98.5268223209
 30
0.0
 11
312.0180300894
 21
98.5268223209
 31
0.0
  0
LINE
  5
34C
330
1F
100
AcDbEntity
  8
0
  6
Continuous
 62
     7
370
    25
100
AcDbLine
 10
312.0180300894
 20
103.5268223209
 30
0.0
 11
315.0180300894
 21
103.5268223209
 31
0.0
  0
LINE
  5
34D
330
1F
100
AcDbEntity
  8
0
  6
Continuous
 62
     7
370
    25
100
AcDbLine
 10
315.0180300894
 20
103.5268223209
 30
0.0
 11
315.0180300894
 21
98.5268223209
 31
0.0
  0
LINE
  5
34E
330
1F
100
AcDbEntity
  8
0
  6
Continuous
 62
     7
370
    25
100
AcDbLine
 10
312.0180300894
 20
98.5268223209
 30
0.0
 11
312.0180300894
 21
103.5268223209
 31
0.0
  0
LINE
  5
34F
330
1F
100
AcDbEntity
  8
0
  6
Continuous
 62
     7
370
    25
100
AcDbLine
 10
315.0180300894
 20
133.5268223209
 30
0.0
 11
315.0180300894
 21
103.5268223209
 31
0.0
  0
LINE
  5
350
330
1F
100
AcDbEntity
  8
0
  6
Continuous
 62
     7
370
    25
100
AcDbLine
 10
312.0180300894
 20
133.5268223209
 30
0.0
 11
312.0180300894
 21
103.5268223209
 31
0.0
  0
LINE
  5
351
330
1F
100
AcDbEntity
  8
0
  6
Continuous
 62
     7
370
    25
100
AcDbLine
 10
302.1934300894
 20
123.5778223209
 30
0.0
 11
302.1934300894
 21
123.5768223209
 31
0.0
  0
LINE
  5
352
330
1F
100
AcDbEntity
  8
0
  6
Continuous
 62
     7
370
    25
100
AcDbLine
 10
304.7210300894
 20
123.5778223209
 30
0.0
 11
304.7210300894
 21
123.5768223209
 31
0.0
  0
LINE
  5
353
330
1F
100
AcDbEntity
  8
0
  6
Continuous
 62
     7
370
    25
100
AcDbLine
 10
299.6658300894
 20
123.5778223209
 30
0.0
 11
299.6658300894
 21
123.5768223209
 31
0.0
  0
LINE
  5
354
330
1F
100
AcDbEntity
  8
0
  6
Continuous
 62
     7
370
    25
100
AcDbLine
 10
370.8259191585
 20
123.5778223209
 30
0.0
 11
370.8259191585
 21
123.5768223209
 31
0.0
  0
LINE
  5
355
330
1F
100
AcDbEntity
  8
0
  6
Continuous
 62
     7
370
    25
100
AcDbLine
 10
373.3535191585
 20
123.5778223209
 30
0.0
 11
373.3535191585
 21
123.5768223209
 31
0.0
  0
LINE
  5
356
330
1F
100
AcDbEntity
  8
0
  6
Continuous
 62
     7
370
    25
100
AcDbLine
 10
375.8811191585
 20
123.5778223209
 30
0.0
 11
375.8811191585
 21
123.5768223209
 31
0.0
  0
LINE
  5
357
330
1F
100
AcDbEntity
  8
0
  6
Continuous
 62
     7
370
    25
100
AcDbLine
 10
302.0264300894
 20
123.5778223209
 30
0.0
 11
302.3713300894
 21
123.5778223209
 31
0.0
  0
LINE
  5
358
330
1F
100
AcDbEntity
  8
0
  6
Continuous
 62
     7
370
    25
100
AcDbLine
 10
323.8830407593
 20
122.5768223209
 30
0.0
 11
323.8830407593
 21
114.5768223209
 31
0.0
  0
ARC
  5
359
330
1F
100
AcDbEntity
  8
0
  6
Continuous
 62
     7
370
    25
100
AcDbCircle
 10
320.9485647065
 20
110.5285078203
 30
0.0
 40
5.000000000000005
100
AcDbArc
 50
54.0630089129
 51
88.5122528411
  0
ARC
  5
35A
330
1F
100
AcDbEntity
  8
0
  6
Continuous
 62
     7
370
    25
100
AcDbCircle
 10
320.8830407593
 20
126.5768223209
 30
0.0
 40
4.999999999999999
100
AcDbArc
 50
271.5470517553
 51
306.8698976458
  0
LINE
  5
35B
330
1F
100
AcDbEntity
  8
0
  6
Continuous
 62
     7
370
    25
100
AcDbLine
 10
351.8830407593
 20
122.5768223209
 30
0.0
 11
323.8830407593
 21
122.5768223209
 31
0.0
  0
LINE
  5
35C
330
1F
100
AcDbEntity
  8
0
  6
Continuous
 62
     7
370
    25
100
AcDbLine
 10
351.8830407593
 20
122.5768223209
 30
0.0
 11
351.8830407593
 21
114.5768223209
 31
0.0
  0
LINE
  5
35D
330
1F
100
AcDbEntity
  8
0
  6
Continuous
 62
     7
370
    25
100
AcDbLine
 10
351.8830407593
 20
114.5768223209
 30
0.0
 11
323.8830407593
 21
114.5768223209
 31
0.0
  0
ARC
  5
35E
330
1F
100
AcDbEntity
  8
0
  6
Continuous
 62
     7
370
    25
100
AcDbCircle
 10
354.8830407593
 20
110.5768223209
 30
0.0
 40
5.000000000000026
100
AcDbArc
 50
93.6978561576
 51
126.8698976458
  0
ARC
  5
35F
330
1F
100
AcDbEntity
  8
0
  6
Continuous
 62
     7
370
    25
100
AcDbCircle
 10
354.8830407593
 20
126.5768223209
 30
0.0
 40
5.0
100
AcDbArc
 50
233.1301023542
 51
266.6995524952
  0
LINE
  5
360
330
1F
100
AcDbEntity
  8
0
  6
Continuous
 62
     7
370
    25
100
AcDbLine
 10
354.5289191585
 20
112.2768223209
 30
0.0
 11
354.5289191585
 21
124.7768223209
 31
0.0
  0
LINE
  5
361
330
1F
100
AcDbEntity
  8
0
  6
Continuous
 62
     7
370
    25
100
AcDbLine
 10
354.7789191585
 20
125.0268223209
 30
0.0
 11
354.7789191585
 21
112.0268223209
 31
0.0
  0
LINE
  5
362
330
1F
100
AcDbEntity
  8
0
  6
Continuous
 62
     7
370
    25
100
AcDbLine
 10
320.7680300894
 20
112.0268223209
 30
0.0
 11
320.7680300894
 21
125.0268223209
 31
0.0
  0
LINE
  5
363
330
1F
100
AcDbEntity
  8
0
  6
Continuous
 62
     7
370
    25
100
AcDbLine
 10
321.0180300894
 20
124.7768223209
 30
0.0
 11
321.0180300894
 21
112.2768223209
 31
0.0
  0
LINE
  5
364
330
1F
100
AcDbEntity
  8
0
  6
Continuous
 62
     7
370
    25
100
AcDbLine
 10
364.5289191585
 20
123.5768223209
 30
0.0
 11
364.5289191585
 21
124.5268223209
 31
0.0
  0
LINE
  5
365
330
1F
100
AcDbEntity
  8
0
  6
Continuous
 62
     7
370
    25
100
AcDbLine
 10
364.5289191585
 20
112.5268223209
 30
0.0
 11
364.5289191585
 21
113.5768223209
 31
0.0
  0
LINE
  5
366
330
1F
100
AcDbEntity
  8
0
  6
Continuous
 62
     7
370
    25
100
AcDbLine
 10
311.0180300894
 20
124.5268223209
 30
0.0
 11
311.0180300894
 21
123.5768223209
 31
0.0
  0
LINE
  5
367
330
1F
100
AcDbEntity
  8
0
  6
Continuous
 62
     7
370
    25
100
AcDbLine
 10
311.0180300894
 20
113.5768223209
 30
0.0
 11
311.0180300894
 21
112.5268223209
 31
0.0
  0
LINE
  5
368
330
1F
100
AcDbEntity
  8
0
  6
Continuous
 62
     7
370
    25
100
AcDbLine
 10
261.0180300894
 20
118.5768223209
 30
0.0
 11
251.0180300894
 21
118.5768223209
 31
0.0
  0
LINE
  5
369
330
1F
100
AcDbEntity
  8
0
  6
Continuous
 62
     7
370
    25
100
AcDbLine
 10
261.0180300894
 20
118.5768223209
 30
0.0
 11
261.0180300894
 21
113.5768223209
 31
0.0
  0
LINE
  5
36A
330
1F
100
AcDbEntity
  8
0
  6
Continuous
 62
     7
370
    25
100
AcDbLine
 10
261.0180300894
 20
113.5768223209
 30
0.0
 11
256.0180300894
 21
113.5768223209
 31
0.0
  0
ARC
  5
36B
330
1F
100
AcDbEntity
  8
0
  6
Continuous
 62
     7
370
    25
100
AcDbCircle
 10
256.0180300894
 20
118.5768223209
 30
0.0
 40
5.000000000000028
100
AcDbArc
 50
180.0
 51
270.0
  0
LINE
  5
36C
330
1F
100
AcDbEntity
  8
0
  6
Continuous
 62
     7
370
    25
100
AcDbLine
 10
261.0180300894
 20
123.5768223209
 30
0.0
 11
261.0180300894
 21
118.5768223209
 31
0.0
  0
ARC
  5
36D
330
1F
100
AcDbEntity
  8
0
  6
Continuous
 62
     7
370
    25
100
AcDbCircle
 10
256.0180300894
 20
118.5768223209
 30
0.0
 40
5.000000000000028
100
AcDbArc
 50
90.0
 51
180.0
  0
LINE
  5
36E
330
1F
100
AcDbEntity
  8
0
  6
Continuous
 62
     7
370
    25
100
AcDbLine
 10
256.0180300894
 20
123.5768223209
 30
0.0
 11
261.0180300894
 21
123.5768223209
 31
0.0
  0
LINE
  5
36F
330
1F
100
AcDbEntity
  8
0
  6
Continuous
 62
     7
370
    25
100
AcDbLine
 10
271.0180300894
 20
118.5768223209
 30
0.0
 11
261.0180300894
 21
118.5768223209
 31
0.0
  0
LINE
  5
370
330
1F
100
AcDbEntity
  8
0
  6
Continuous
 62
     7
370
    25
100
AcDbLine
 10
271.0180300894
 20
118.5768223209
 30
0.0
 11
271.0180300894
 21
113.5768223209
 31
0.0
  0
LINE
  5
371
330
1F
100
AcDbEntity
  8
0
  6
Continuous
 62
     7
370
    25
100
AcDbLine
 10
271.0180300894
 20
113.5768223209
 30
0.0
 11
261.0180300894
 21
113.5768223209
 31
0.0
  0
LINE
  5
372
330
1F
100
AcDbEntity
  8
0
  6
Continuous
 62
     7
370
    25
100
AcDbLine
 10
271.0180300894
 20
123.5768223209
 30
0.0
 11
271.0180300894
 21
118.5768223209
 31
0.0
  0
LINE
  5
373
330
1F
100
AcDbEntity
  8
0
  6
Continuous
 62
     7
370
    25
100
AcDbLine
 10
261.0180300894
 20
123.5768223209
 30
0.0
 11
271.0180300894
 21
123.5768223209
 31
0.0
  0
LINE
  5
374
330
1F
100
AcDbEntity
  8
0
  6
Continuous
 62
     7
370
    25
100
AcDbLine
 10
281.0180300894
 20
118.5768223209
 30
0.0
 11
271.0180300894
 21
118.5768223209
 31
0.0
  0
ARC
  5
375
330
1F
100
AcDbEntity
  8
0
  6
Continuous
 62
     7
370
    25
100
AcDbCircle
 10
276.0180300894
 20
118.5768223209
 30
0.0
 40
5.0
100
AcDbArc
 50
270.0
 51
0.0
  0
LINE
  5
376
330
1F
100
AcDbEntity
  8
0
  6
Continuous
 62
     7
370
    25
100
AcDbLine
 10
276.0180300894
 20
113.5768223209
 30
0.0
 11
271.0180300894
 21
113.5768223209
 31
0.0
  0
ARC
  5
377
330
1F
100
AcDbEntity
  8
0
  6
Continuous
 62
     7
370
    25
100
AcDbCircle
 10
276.0180300894
 20
118.5768223209
 30
0.0
 40
5.0
100
AcDbArc
 50
0.0
 51
90.0
  0
LINE
  5
378
330
1F
100
AcDbEntity
  8
0
  6
Continuous
 62
     7
370
    25
100
AcDbLine
 10
271.0180300894
 20
123.5768223209
 30
0.0
 11
276.0180300894
 21
123.5768223209
 31
0.0
  0
LINE
  5
379
330
1F
100
AcDbEntity
  8
0
  6
Continuous
 62
     7
370
    25
100
AcDbLine
 10
291.0180300894
 20
118.5768223209
 30
0.0
 11
281.0180300894
 21
118.5768223209
 31
0.0
  0
LINE
  5
37A
330
1F
100
AcDbEntity
  8
0
  6
Continuous
 62
     7
370
    25
100
AcDbLine
 10
291.0180300894
 20
118.5768223209
 30
0.0
 11
291.0180300894
 21
113.5768223209
 31
0.0
  0
LINE
  5
37B
330
1F
100
AcDbEntity
  8
0
  6
Continuous
 62
     7
370
    25
100
AcDbLine
 10
291.0180300894
 20
113.5768223209
 30
0.0
 11
276.0180300894
 21
113.5768223209
 31
0.0
  0
LINE
  5
37C
330
1F
100
AcDbEntity
  8
0
  6
Continuous
 62
     7
370
    25
100
AcDbLine
 10
291.0180300894
 20
123.5768223209
 30
0.0
 11
291.0180300894
 21
118.5768223209
 31
0.0
  0
LINE
  5
37D
330
1F
100
AcDbEntity
  8
0
  6
Continuous
 62
     7
370
    25
100
AcDbLine
 10
276.0180300894
 20
123.5768223209
 30
0.0
 11
291.0180300894
 21
123.5768223209
 31
0.0
  0
LINE
  5
37E
330
1F
100
AcDbEntity
  8
0
  6
Continuous
 62
     7
370
    25
100
AcDbLine
 10
311.0180300894
 20
123.5768223209
 30
0.0
 11
311.0180300894
 21
118.5768223209
 31
0.0
  0
LINE
  5
37F
330
1F
100
AcDbEntity
  8
0
  6
Continuous
 62
     7
370
    25
100
AcDbLine
 10
311.0180300894
 20
118.5768223209
 30
0.0
 11
305.3840556727
 21
118.5768223209
 31
0.0
  0
ARC
  5
380
330
1F
100
AcDbEntity
  8
0
  6
Continuous
 62
     7
370
    25
100
AcDbCircle
 10
302.5180300894
 20
118.6395366589
 30
0.0
 40
2.866711658329837
100
AcDbArc
 50
358.7464544788
 51
181.2535455212
  0
LINE
  5
381
330
1F
100
AcDbEntity
  8
0
  6
Continuous
 62
     7
370
    25
100
AcDbLine
 10
299.6520045062
 20
118.5768223209
 30
0.0
 11
291.0180300894
 21
118.5768223209
 31
0.0
  0
LINE
  5
382
330
1F
100
AcDbEntity
  8
0
  6
Continuous
 62
     7
370
    25
100
AcDbLine
 10
291.0180300894
 20
123.5768223209
 30
0.0
 11
311.0180300894
 21
123.5768223209
 31
0.0
  0
LINE
  5
383
330
1F
100
AcDbEntity
  8
0
  6
Continuous
 62
     7
370
    25
100
AcDbLine
 10
311.0180300894
 20
118.5768223209
 30
0.0
 11
311.0180300894
 21
113.5768223209
 31
0.0
  0
ARC
  5
384
330
1F
100
AcDbEntity
  8
0
  6
Continuous
 62
     7
370
    25
100
AcDbCircle
 10
302.5180300894
 20
118.514107983
 30
0.0
 40
2.866711658329836
100
AcDbArc
 50
178.7464544788
 51
1.2535455212
  0
LINE
  5
385
330
1F
100
AcDbEntity
  8
0
  6
Continuous
 62
     7
370
    25
100
AcDbLine
 10
311.0180300894
 20
113.5768223209
 30
0.0
 11
291.0180300894
 21
113.5768223209
 31
0.0
  0
ARC
  5
386
330
1F
100
AcDbEntity
  8
0
  6
Continuous
 62
     7
370
    25
100
AcDbCircle
 10
302.5180300894
 20
118.5768223209
 30
0.0
 40
2.500000000000057
100
AcDbArc
 50
180.0
 51
0.0
  0
LINE
  5
387
330
1F
100
AcDbEntity
  8
0
  6
Continuous
 62
     7
370
    25
100
AcDbLine
 10
305.0180300894
 20
118.5768223209
 30
0.0
 11
305.3840556727
 21
118.5768223209
 31
0.0
  0
LINE
  5
388
330
1F
100
AcDbEntity
  8
0
  6
Continuous
 62
     7
370
    25
100
AcDbLine
 10
299.6520045062
 20
118.5768223209
 30
0.0
 11
300.0180300894
 21
118.5768223209
 31
0.0
  0
ARC
  5
389
330
1F
100
AcDbEntity
  8
0
  6
Continuous
 62
     7
370
    25
100
AcDbCircle
 10
302.5180300894
 20
118.5768223209
 30
0.0
 40
2.500000000000057
100
AcDbArc
 50
0.0
 51
180.0
  0
LINE
  5
38A
330
1F
100
AcDbEntity
  8
0
  6
Continuous
 62
     7
370
    25
100
AcDbLine
 10
394.5289191585
 20
118.5768223209
 30
0.0
 11
404.5289191585
 21
118.5768223209
 31
0.0
  0
ARC
  5
38B
330
1F
100
AcDbEntity
  8
0
  6
Continuous
 62
     7
370
    25
100
AcDbCircle
 10
399.5289191585
 20
118.5768223209
 30
0.0
 40
5.0
100
AcDbArc
 50
90.0
 51
180.0
  0
LINE
  5
38C
330
1F
100
AcDbEntity
  8
0
  6
Continuous
 62
     7
370
    25
100
AcDbLine
 10
399.5289191585
 20
123.5768223209
 30
0.0
 11
404.5289191585
 21
123.5768223209
 31
0.0
  0
LINE
  5
38D
330
1F
100
AcDbEntity
  8
0
  6
Continuous
 62
     7
370
    25
100
AcDbLine
 10
404.5289191585
 20
118.5768223209
 30
0.0
 11
404.5289191585
 21
123.5768223209
 31
0.0
  0
ARC
  5
38E
330
1F
100
AcDbEntity
  8
0
  6
Continuous
 62
     7
370
    25
100
AcDbCircle
 10
399.5289191585
 20
118.5768223209
 30
0.0
 40
5.0
100
AcDbArc
 50
180.0
 51
270.0
  0
LINE
  5
38F
330
1F
100
AcDbEntity
  8
0
  6
Continuous
 62
     7
370
    25
100
AcDbLine
 10
404.5289191585
 20
113.5768223209
 30
0.0
 11
404.5289191585
 21
118.5768223209
 31
0.0
  0
LINE
  5
390
330
1F
100
AcDbEntity
  8
0
  6
Continuous
 62
     7
370
    25
100
AcDbLine
 10
404.5289191585
 20
113.5768223209
 30
0.0
 11
399.5289191585
 21
113.5768223209
 31
0.0
  0
LINE
  5
391
330
1F
100
AcDbEntity
  8
0
  6
Continuous
 62
     7
370
    25
100
AcDbLine
 10
404.5289191585
 20
118.5768223209
 30
0.0
 11
414.5289191585
 21
118.5768223209
 31
0.0
  0
LINE
  5
392
330
1F
100
AcDbEntity
  8
0
  6
Continuous
 62
     7
370
    25
100
AcDbLine
 10
404.5289191585
 20
123.5768223209
 30
0.0
 11
414.5289191585
 21
123.5768223209
 31
0.0
  0
LINE
  5
393
330
1F
100
AcDbEntity
  8
0
  6
Continuous
 62
     7
370
    25
100
AcDbLine
 10
414.5289191585
 20
118.5768223209
 30
0.0
 11
414.5289191585
 21
123.5768223209
 31
0.0
  0
LINE
  5
394
330
1F
100
AcDbEntity
  8
0
  6
Continuous
 62
     7
370
    25
100
AcDbLine
 10
414.5289191585
 20
113.5768223209
 30
0.0
 11
414.5289191585
 21
118.5768223209
 31
0.0
  0
LINE
  5
395
330
1F
100
AcDbEntity
  8
0
  6
Continuous
 62
     7
370
    25
100
AcDbLine
 10
414.5289191585
 20
113.5768223209
 30
0.0
 11
404.5289191585
 21
113.5768223209
 31
0.0
  0
LINE
  5
396
330
1F
100
AcDbEntity
  8
0
  6
Continuous
 62
     7
370
    25
100
AcDbLine
 10
414.5289191585
 20
118.5768223209
 30
0.0
 11
424.5289191585
 21
118.5768223209
 31
0.0
  0
ARC
  5
397
330
1F
100
AcDbEntity
  8
0
  6
Continuous
 62
     7
370
    25
100
AcDbCircle
 10
419.5289191585
 20
118.5768223209
 30
0.0
 40
5.0
100
AcDbArc
 50
270.0
 51
0.0
  0
LINE
  5
398
330
1F
100
AcDbEntity
  8
0
  6
Continuous
 62
     7
370
    25
100
AcDbLine
 10
419.5289191585
 20
113.5768223209
 30
0.0
 11
414.5289191585
 21
113.5768223209
 31
0.0
  0
LINE
  5
399
330
1F
100
AcDbEntity
  8
0
  6
Continuous
 62
     7
370
    25
100
AcDbLine
 10
414.5289191585
 20
123.5768223209
 30
0.0
 11
419.5289191585
 21
123.5768223209
 31
0.0
  0
ARC
  5
39A
330
1F
100
AcDbEntity
  8
0
  6
Continuous
 62
     7
370
    25
100
AcDbCircle
 10
419.5289191585
 20
118.5768223209
 30
0.0
 40
5.0
100
AcDbArc
 50
0.0
 51
90.0
  0
LINE
  5
39B
330
1F
100
AcDbEntity
  8
0
  6
Continuous
 62
     7
370
    25
100
AcDbLine
 10
384.5289191585
 20
118.5768223209
 30
0.0
 11
394.5289191585
 21
118.5768223209
 31
0.0
  0
LINE
  5
39C
330
1F
100
AcDbEntity
  8
0
  6
Continuous
 62
     7
370
    25
100
AcDbLine
 10
384.5289191585
 20
118.5768223209
 30
0.0
 11
384.5289191585
 21
123.5768223209
 31
0.0
  0
LINE
  5
39D
330
1F
100
AcDbEntity
  8
0
  6
Continuous
 62
     7
370
    25
100
AcDbLine
 10
384.5289191585
 20
123.5768223209
 30
0.0
 11
399.5289191585
 21
123.5768223209
 31
0.0
  0
LINE
  5
39E
330
1F
100
AcDbEntity
  8
0
  6
Continuous
 62
     7
370
    25
100
AcDbLine
 10
384.5289191585
 20
113.5768223209
 30
0.0
 11
384.5289191585
 21
118.5768223209
 31
0.0
  0
LINE
  5
39F
330
1F
100
AcDbEntity
  8
0
  6
Continuous
 62
     7
370
    25
100
AcDbLine
 10
399.5289191585
 20
113.5768223209
 30
0.0
 11
384.5289191585
 21
113.5768223209
 31
0.0
  0
LINE
  5
3A0
330
1F
100
AcDbEntity
  8
0
  6
Continuous
 62
     7
370
    25
100
AcDbLine
 10
364.5289191585
 20
118.5768223209
 30
0.0
 11
364.5289191585
 21
123.5768223209
 31
0.0
  0
LINE
  5
3A1
330
1F
100
AcDbEntity
  8
0
  6
Continuous
 62
     7
370
    25
100
AcDbLine
 10
375.8949447417
 20
118.5768223209
 30
0.0
 11
384.5289191585
 21
118.5768223209
 31
0.0
  0
ARC
  5
3A2
330
1F
100
AcDbEntity
  8
0
  6
Continuous
 62
     7
370
    25
100
AcDbCircle
 10
373.0289191585
 20
118.6395366589
 30
0.0
 40
2.86671165832978
100
AcDbArc
 50
358.7464544788
 51
181.2535455212
  0
LINE
  5
3A3
330
1F
100
AcDbEntity
  8
0
  6
Continuous
 62
     7
370
    25
100
AcDbLine
 10
364.5289191585
 20
118.5768223209
 30
0.0
 11
370.1628935752
 21
118.5768223209
 31
0.0
  0
LINE
  5
3A4
330
1F
100
AcDbEntity
  8
0
  6
Continuous
 62
     7
370
    25
100
AcDbLine
 10
364.5289191585
 20
123.5768223209
 30
0.0
 11
384.5289191585
 21
123.5768223209
 31
0.0
  0
LINE
  5
3A5
330
1F
100
AcDbEntity
  8
0
  6
Continuous
 62
     7
370
    25
100
AcDbLine
 10
364.5289191585
 20
113.5768223209
 30
0.0
 11
364.5289191585
 21
118.5768223209
 31
0.0
  0
ARC
  5
3A6
330
1F
100
AcDbEntity
  8
0
  6
Continuous
 62
     7
370
    25
100
AcDbCircle
 10
373.0289191585
 20
118.514107983
 30
0.0
 40
2.866711658329781
100
AcDbArc
 50
178.7464544788
 51
1.2535455212
  0
LINE
  5
3A7
330
1F
100
AcDbEntity
  8
0
  6
Continuous
 62
     7
370
    25
100
AcDbLine
 10
384.5289191585
 20
113.5768223209
 30
0.0
 11
364.5289191585
 21
113.5768223209
 31
0.0
  0
ARC
  5
3A8
330
1F
100
AcDbEntity
  8
0
  6
Continuous
 62
     7
370
    25
100
AcDbCircle
 10
373.0289191585
 20
118.5768223209
 30
0.0
 40
2.5
100
AcDbArc
 50
180.0
 51
0.0
  0
LINE
  5
3A9
330
1F
100
AcDbEntity
  8
0
  6
Continuous
 62
     7
370
    25
100
AcDbLine
 10
375.8949447417
 20
118.5768223209
 30
0.0
 11
375.5289191585
 21
118.5768223209
 31
0.0
  0
LINE
  5
3AA
330
1F
100
AcDbEntity
  8
0
  6
Continuous
 62
     7
370
    25
100
AcDbLine
 10
370.5289191585
 20
118.5768223209
 30
0.0
 11
370.1628935752
 21
118.5768223209
 31
0.0
  0
ARC
  5
3AB
330
1F
100
AcDbEntity
  8
0
  6
Continuous
 62
     7
370
    25
100
AcDbCircle
 10
373.0289191585
 20
118.5768223209
 30
0.0
 40
2.5
100
AcDbArc
 50
0.0
 51
180.0
  0
LINE
  5
3AC
330
1F
100
AcDbEntity
  8
0
  6
Continuous
 62
     7
370
    25
100
AcDbLine
 10
-49.0054845955
 20
121.5268223209
 30
0.0
 11
-61.9554845955
 21
121.5268223209
 31
0.0
  0
ARC
  5
3AD
330
1F
100
AcDbEntity
  8
0
  6
Continuous
 62
     7
370
    25
100
AcDbCircle
 10
-61.9554845955
 20
121.4768223209
 30
0.0
 40
0.0500000000000114
100
AcDbArc
 50
90.0
 51
180.0
  0
ARC
  5
3AE
330
1F
100
AcDbEntity
  8
0
  6
Continuous
 62
     7
370
    25
100
AcDbCircle
 10
-61.9554845955
 20
115.5768223209
 30
0.0
 40
0.0499999999999972
100
AcDbArc
 50
180.0
 51
270.0
  0
LINE
  5
3AF
330
1F
100
AcDbEntity
  8
0
  6
Continuous
 62
     7
370
    25
100
AcDbLine
 10
-61.9554845955
 20
115.5268223209
 30
0.0
 11
-49.0054845955
 21
115.5268223209
 31
0.0
  0
LINE
  5
3B0
330
1F
100
AcDbEntity
  8
0
  6
Continuous
 62
     7
370
    25
100
AcDbLine
 10
-62.9313352029
 20
120.5268223209
 30
0.0
 11
-63.2044161428
 21
120.1368223209
 31
0.0
  0
LINE
  5
3B1
330
1F
100
AcDbEntity
  8
0
  6
Continuous
 62
     7
370
    25
100
AcDbLine
 10
-63.2044161428
 20
116.9168223209
 30
0.0
 11
-62.9313352029
 21
116.5268223209
 31
0.0
  0
LINE
  5
3B2
330
1F
100
AcDbEntity
  8
0
  6
Continuous
 62
     7
370
    25
100
AcDbLine
 10
-63.6193786812
 20
116.5268223209
 30
0.0
 11
-63.4774970827
 21
116.5268223209
 31
0.0
  0
LINE
  5
3B3
330
1F
100
AcDbEntity
  8
0
  6
Continuous
 62
     7
370
    25
100
AcDbLine
 10
-63.4774970827
 20
120.5268223209
 30
0.0
 11
-63.6193786812
 21
120.5268223209
 31
0.0
  0
LINE
  5
3B4
330
1F
100
AcDbEntity
  8
0
  6
Continuous
 62
     7
370
    25
100
AcDbLine
 10
-63.6193786812
 20
120.5268223209
 30
0.0
 11
-63.8924596211
 21
120.1368223209
 31
0.0
  0
LINE
  5
3B5
330
1F
100
AcDbEntity
  8
0
  6
Continuous
 62
     7
370
    25
100
AcDbLine
 10
-63.8924596211
 20
116.9168223209
 30
0.0
 11
-63.6193786812
 21
116.5268223209
 31
0.0
  0
LINE
  5
3B6
330
1F
100
AcDbEntity
  8
0
  6
Continuous
 62
     7
370
    25
100
AcDbLine
 10
-63.4774970827
 20
116.5268223209
 30
0.0
 11
-63.2044161428
 21
116.9168223209
 31
0.0
  0
LINE
  5
3B7
330
1F
100
AcDbEntity
  8
0
  6
Continuous
 62
     7
370
    25
100
AcDbLine
 10
-63.2044161428
 20
120.1368223209
 30
0.0
 11
-63.4774970827
 21
120.5268223209
 31
0.0
  0
LINE
  5
3B8
330
1F
100
AcDbEntity
  8
0
  6
Continuous
 62
     7
370
    25
100
AcDbLine
 10
-62.9313352029
 20
116.5268223209
 30
0.0
 11
-62.9063736646
 21
116.5268223209
 31
0.0
  0
LINE
  5
3B9
330
1F
100
AcDbEntity
  8
0
  6
Continuous
 62
     7
370
    25
100
AcDbLine
 10
-62.9063736646
 20
120.5268223209
 30
0.0
 11
-62.9313352029
 21
120.5268223209
 31
0.0
  0
LINE
  5
3BA
330
1F
100
AcDbEntity
  8
0
  6
Continuous
 62
     7
370
    25
100
AcDbLine
 10
-65.5416275175
 20
116.5268223209
 30
0.0
 11
-65.2685465776
 21
116.9168223209
 31
0.0
  0
LINE
  5
3BB
330
1F
100
AcDbEntity
  8
0
  6
Continuous
 62
     7
370
    25
100
AcDbLine
 10
-65.2685465776
 20
120.1368223209
 30
0.0
 11
-65.5416275175
 21
120.5268223209
 31
0.0
  0
LINE
  5
3BC
330
1F
100
AcDbEntity
  8
0
  6
Continuous
 62
     7
370
    25
100
AcDbLine
 10
-66.2296709958
 20
116.5268223209
 30
0.0
 11
-65.9565900559
 21
116.9168223209
 31
0.0
  0
LINE
  5
3BD
330
1F
100
AcDbEntity
  8
0
  6
Continuous
 62
     7
370
    25
100
AcDbLine
 10
-65.9565900559
 20
120.1368223209
 30
0.0
 11
-66.2296709958
 21
120.5268223209
 31
0.0
  0
LINE
  5
3BE
330
1F
100
AcDbEntity
  8
0
  6
Continuous
 62
     7
370
    25
100
AcDbLine
 10
-64.9954656377
 20
120.5268223209
 30
0.0
 11
-65.2685465776
 21
120.1368223209
 31
0.0
  0
LINE
  5
3BF
330
1F
100
AcDbEntity
  8
0
  6
Continuous
 62
     7
370
    25
100
AcDbLine
 10
-65.2685465776
 20
116.9168223209
 30
0.0
 11
-64.9954656377
 21
116.5268223209
 31
0.0
  0
LINE
  5
3C0
330
1F
100
AcDbEntity
  8
0
  6
Continuous
 62
     7
370
    25
100
AcDbLine
 10
-64.9954656377
 20
116.5268223209
 30
0.0
 11
-64.8535840393
 21
116.5268223209
 31
0.0
  0
LINE
  5
3C1
330
1F
100
AcDbEntity
  8
0
  6
Continuous
 62
     7
370
    25
100
AcDbLine
 10
-64.8535840393
 20
120.5268223209
 30
0.0
 11
-64.9954656377
 21
120.5268223209
 31
0.0
  0
LINE
  5
3C2
330
1F
100
AcDbEntity
  8
0
  6
Continuous
 62
     7
370
    25
100
AcDbLine
 10
-66.3715525942
 20
120.5268223209
 30
0.0
 11
-66.6446335341
 21
120.1368223209
 31
0.0
  0
LINE
  5
3C3
330
1F
100
AcDbEntity
  8
0
  6
Continuous
 62
     7
370
    25
100
AcDbLine
 10
-66.6446335341
 20
116.9168223209
 30
0.0
 11
-66.3715525942
 21
116.5268223209
 31
0.0
  0
LINE
  5
3C4
330
1F
100
AcDbEntity
  8
0
  6
Continuous
 62
     7
370
    25
100
AcDbLine
 10
-67.6057579523
 20
116.5268223209
 30
0.0
 11
-67.3326770124
 21
116.9168223209
 31
0.0
  0
LINE
  5
3C5
330
1F
100
AcDbEntity
  8
0
  6
Continuous
 62
     7
370
    25
100
AcDbLine
 10
-67.3326770124
 20
120.1368223209
 30
0.0
 11
-67.6057579523
 21
120.5268223209
 31
0.0
  0
LINE
  5
3C6
330
1F
100
AcDbEntity
  8
0
  6
Continuous
 62
     7
370
    25
100
AcDbLine
 10
-65.683509116
 20
120.5268223209
 30
0.0
 11
-65.9565900559
 21
120.1368223209
 31
0.0
  0
LINE
  5
3C7
330
1F
100
AcDbEntity
  8
0
  6
Continuous
 62
     7
370
    25
100
AcDbLine
 10
-65.9565900559
 20
116.9168223209
 30
0.0
 11
-65.683509116
 21
116.5268223209
 31
0.0
  0
LINE
  5
3C8
330
1F
100
AcDbEntity
  8
0
  6
Continuous
 62
     7
370
    25
100
AcDbLine
 10
-65.683509116
 20
116.5268223209
 30
0.0
 11
-65.5416275175
 21
116.5268223209
 31
0.0
  0
LINE
  5
3C9
330
1F
100
AcDbEntity
  8
0
  6
Continuous
 62
     7
370
    25
100
AcDbLine
 10
-65.5416275175
 20
120.5268223209
 30
0.0
 11
-65.683509116
 21
120.5268223209
 31
0.0
  0
LINE
  5
3CA
330
1F
100
AcDbEntity
  8
0
  6
Continuous
 62
     7
370
    25
100
AcDbLine
 10
-67.0595960725
 20
116.5268223209
 30
0.0
 11
-66.917714474
 21
116.5268223209
 31
0.0
  0
LINE
  5
3CB
330
1F
100
AcDbEntity
  8
0
  6
Continuous
 62
     7
370
    25
100
AcDbLine
 10
-66.917714474
 20
120.5268223209
 30
0.0
 11
-67.0595960725
 21
120.5268223209
 31
0.0
  0
LINE
  5
3CC
330
1F
100
AcDbEntity
  8
0
  6
Continuous
 62
     7
370
    25
100
AcDbLine
 10
-64.8535840393
 20
116.5268223209
 30
0.0
 11
-64.5805030994
 21
116.9168223209
 31
0.0
  0
LINE
  5
3CD
330
1F
100
AcDbEntity
  8
0
  6
Continuous
 62
     7
370
    25
100
AcDbLine
 10
-64.5805030994
 20
120.1368223209
 30
0.0
 11
-64.8535840393
 21
120.5268223209
 31
0.0
  0
LINE
  5
3CE
330
1F
100
AcDbEntity
  8
0
  6
Continuous
 62
     7
370
    25
100
AcDbLine
 10
-66.3715525942
 20
116.5268223209
 30
0.0
 11
-66.2296709958
 21
116.5268223209
 31
0.0
  0
LINE
  5
3CF
330
1F
100
AcDbEntity
  8
0
  6
Continuous
 62
     7
370
    25
100
AcDbLine
 10
-66.2296709958
 20
120.5268223209
 30
0.0
 11
-66.3715525942
 21
120.5268223209
 31
0.0
  0
LINE
  5
3D0
330
1F
100
AcDbEntity
  8
0
  6
Continuous
 62
     7
370
    25
100
AcDbLine
 10
-66.917714474
 20
116.5268223209
 30
0.0
 11
-66.6446335341
 21
116.9168223209
 31
0.0
  0
LINE
  5
3D1
330
1F
100
AcDbEntity
  8
0
  6
Continuous
 62
     7
370
    25
100
AcDbLine
 10
-66.6446335341
 20
120.1368223209
 30
0.0
 11
-66.917714474
 21
120.5268223209
 31
0.0
  0
LINE
  5
3D2
330
1F
100
AcDbEntity
  8
0
  6
Continuous
 62
     7
370
    25
100
AcDbLine
 10
-67.0595960725
 20
120.5268223209
 30
0.0
 11
-67.3326770124
 21
120.1368223209
 31
0.0
  0
LINE
  5
3D3
330
1F
100
AcDbEntity
  8
0
  6
Continuous
 62
     7
370
    25
100
AcDbLine
 10
-67.3326770124
 20
116.9168223209
 30
0.0
 11
-67.0595960725
 21
116.5268223209
 31
0.0
  0
LINE
  5
3D4
330
1F
100
AcDbEntity
  8
0
  6
Continuous
 62
     7
370
    25
100
AcDbLine
 10
-67.7476395508
 20
116.5268223209
 30
0.0
 11
-67.6057579523
 21
116.5268223209
 31
0.0
  0
LINE
  5
3D5
330
1F
100
AcDbEntity
  8
0
  6
Continuous
 62
     7
370
    25
100
AcDbLine
 10
-67.6057579523
 20
120.5268223209
 30
0.0
 11
-67.7476395508
 21
120.5268223209
 31
0.0
  0
LINE
  5
3D6
330
1F
100
AcDbEntity
  8
0
  6
Continuous
 62
     7
370
    25
100
AcDbLine
 10
-64.3074221594
 20
120.5268223209
 30
0.0
 11
-64.5805030994
 21
120.1368223209
 31
0.0
  0
LINE
  5
3D7
330
1F
100
AcDbEntity
  8
0
  6
Continuous
 62
     7
370
    25
100
AcDbLine
 10
-64.5805030994
 20
116.9168223209
 30
0.0
 11
-64.3074221594
 21
116.5268223209
 31
0.0
  0
LINE
  5
3D8
330
1F
100
AcDbEntity
  8
0
  6
Continuous
 62
     7
370
    25
100
AcDbLine
 10
-64.165540561
 20
116.5268223209
 30
0.0
 11
-63.8924596211
 21
116.9168223209
 31
0.0
  0
LINE
  5
3D9
330
1F
100
AcDbEntity
  8
0
  6
Continuous
 62
     7
370
    25
100
AcDbLine
 10
-63.8924596211
 20
120.1368223209
 30
0.0
 11
-64.165540561
 21
120.5268223209
 31
0.0
  0
LINE
  5
3DA
330
1F
100
AcDbEntity
  8
0
  6
Continuous
 62
     7
370
    25
100
AcDbLine
 10
-67.7476395508
 20
120.5268223209
 30
0.0
 11
-68.0207204907
 21
120.1368223209
 31
0.0
  0
LINE
  5
3DB
330
1F
100
AcDbEntity
  8
0
  6
Continuous
 62
     7
370
    25
100
AcDbLine
 10
-68.0207204907
 20
116.9168223209
 30
0.0
 11
-67.7476395508
 21
116.5268223209
 31
0.0
  0
LINE
  5
3DC
330
1F
100
AcDbEntity
  8
0
  6
Continuous
 62
     7
370
    25
100
AcDbLine
 10
-64.3074221594
 20
116.5268223209
 30
0.0
 11
-64.165540561
 21
116.5268223209
 31
0.0
  0
LINE
  5
3DD
330
1F
100
AcDbEntity
  8
0
  6
Continuous
 62
     7
370
    25
100
AcDbLine
 10
-64.165540561
 20
120.5268223209
 30
0.0
 11
-64.3074221594
 21
120.5268223209
 31
0.0
  0
LINE
  5
3DE
330
1F
100
AcDbEntity
  8
0
  6
Continuous
 62
     7
370
    25
100
AcDbLine
 10
-71.1878569421
 20
116.5268223209
 30
0.0
 11
-71.0459753436
 21
116.5268223209
 31
0.0
  0
LINE
  5
3DF
330
1F
100
AcDbEntity
  8
0
  6
Continuous
 62
     7
370
    25
100
AcDbLine
 10
-71.0459753436
 20
120.5268223209
 30
0.0
 11
-71.1878569421
 21
120.5268223209
 31
0.0
  0
LINE
  5
3E0
330
1F
100
AcDbEntity
  8
0
  6
Continuous
 62
     7
370
    25
100
AcDbLine
 10
-68.435683029
 20
120.5268223209
 30
0.0
 11
-68.7087639689
 21
120.1368223209
 31
0.0
  0
LINE
  5
3E1
330
1F
100
AcDbEntity
  8
0
  6
Continuous
 62
     7
370
    25
100
AcDbLine
 10
-68.7087639689
 20
116.9168223209
 30
0.0
 11
-68.435683029
 21
116.5268223209
 31
0.0
  0
LINE
  5
3E2
330
1F
100
AcDbEntity
  8
0
  6
Continuous
 62
     7
370
    25
100
AcDbLine
 10
-69.1237265073
 20
116.5268223209
 30
0.0
 11
-68.9818449088
 21
116.5268223209
 31
0.0
  0
LINE
  5
3E3
330
1F
100
AcDbEntity
  8
0
  6
Continuous
 62
     7
370
    25
100
AcDbLine
 10
-68.9818449088
 20
120.5268223209
 30
0.0
 11
-69.1237265073
 21
120.5268223209
 31
0.0
  0
LINE
  5
3E4
330
1F
100
AcDbEntity
  8
0
  6
Continuous
 62
     7
370
    25
100
AcDbLine
 10
-68.2938014306
 20
116.5268223209
 30
0.0
 11
-68.0207204907
 21
116.9168223209
 31
0.0
  0
LINE
  5
3E5
330
1F
100
AcDbEntity
  8
0
  6
Continuous
 62
     7
370
    25
100
AcDbLine
 10
-68.0207204907
 20
120.1368223209
 30
0.0
 11
-68.2938014306
 21
120.5268223209
 31
0.0
  0
LINE
  5
3E6
330
1F
100
AcDbEntity
  8
0
  6
Continuous
 62
     7
370
    25
100
AcDbLine
 10
-69.8117699855
 20
120.5268223209
 30
0.0
 11
-70.0848509254
 21
120.1368223209
 31
0.0
  0
LINE
  5
3E7
330
1F
100
AcDbEntity
  8
0
  6
Continuous
 62
     7
370
    25
100
AcDbLine
 10
-70.0848509254
 20
116.9168223209
 30
0.0
 11
-69.8117699855
 21
116.5268223209
 31
0.0
  0
LINE
  5
3E8
330
1F
100
AcDbEntity
  8
0
  6
Continuous
 62
     7
370
    25
100
AcDbLine
 10
-71.1878569421
 20
120.5268223209
 30
0.0
 11
-71.460937882
 21
120.1368223209
 31
0.0
  0
LINE
  5
3E9
330
1F
100
AcDbEntity
  8
0
  6
Continuous
 62
     7
370
    25
100
AcDbLine
 10
-71.460937882
 20
116.9168223209
 30
0.0
 11
-71.1878569421
 21
116.5268223209
 31
0.0
  0
LINE
  5
3EA
330
1F
100
AcDbEntity
  8
0
  6
Continuous
 62
     7
370
    25
100
AcDbLine
 10
-70.3579318653
 20
116.5268223209
 30
0.0
 11
-70.0848509254
 21
116.9168223209
 31
0.0
  0
LINE
  5
3EB
330
1F
100
AcDbEntity
  8
0
  6
Continuous
 62
     7
370
    25
100
AcDbLine
 10
-70.0848509254
 20
120.1368223209
 30
0.0
 11
-70.3579318653
 21
120.5268223209
 31
0.0
  0
LINE
  5
3EC
330
1F
100
AcDbEntity
  8
0
  6
Continuous
 62
     7
370
    25
100
AcDbLine
 10
-70.4998134638
 20
116.5268223209
 30
0.0
 11
-70.3579318653
 21
116.5268223209
 31
0.0
  0
LINE
  5
3ED
330
1F
100
AcDbEntity
  8
0
  6
Continuous
 62
     7
370
    25
100
AcDbLine
 10
-70.3579318653
 20
120.5268223209
 30
0.0
 11
-70.4998134638
 21
120.5268223209
 31
0.0
  0
LINE
  5
3EE
330
1F
100
AcDbEntity
  8
0
  6
Continuous
 62
     7
370
    25
100
AcDbLine
 10
-69.1237265073
 20
120.5268223209
 30
0.0
 11
-69.3968074472
 21
120.1368223209
 31
0.0
  0
LINE
  5
3EF
330
1F
100
AcDbEntity
  8
0
  6
Continuous
 62
     7
370
    25
100
AcDbLine
 10
-69.3968074472
 20
116.9168223209
 30
0.0
 11
-69.1237265073
 21
116.5268223209
 31
0.0
  0
LINE
  5
3F0
330
1F
100
AcDbEntity
  8
0
  6
Continuous
 62
     7
370
    25
100
AcDbLine
 10
-69.6698883871
 20
116.5268223209
 30
0.0
 11
-69.3968074472
 21
116.9168223209
 31
0.0
  0
LINE
  5
3F1
330
1F
100
AcDbEntity
  8
0
  6
Continuous
 62
     7
370
    25
100
AcDbLine
 10
-69.3968074472
 20
120.1368223209
 30
0.0
 11
-69.6698883871
 21
120.5268223209
 31
0.0
  0
LINE
  5
3F2
330
1F
100
AcDbEntity
  8
0
  6
Continuous
 62
     7
370
    25
100
AcDbLine
 10
-71.7340188219
 20
116.5268223209
 30
0.0
 11
-71.460937882
 21
116.9168223209
 31
0.0
  0
LINE
  5
3F3
330
1F
100
AcDbEntity
  8
0
  6
Continuous
 62
     7
370
    25
100
AcDbLine
 10
-71.460937882
 20
120.1368223209
 30
0.0
 11
-71.7340188219
 21
120.5268223209
 31
0.0
  0
LINE
  5
3F4
330
1F
100
AcDbEntity
  8
0
  6
Continuous
 62
     7
370
    25
100
AcDbLine
 10
-68.9818449088
 20
116.5268223209
 30
0.0
 11
-68.7087639689
 21
116.9168223209
 31
0.0
  0
LINE
  5
3F5
330
1F
100
AcDbEntity
  8
0
  6
Continuous
 62
     7
370
    25
100
AcDbLine
 10
-68.7087639689
 20
120.1368223209
 30
0.0
 11
-68.9818449088
 21
120.5268223209
 31
0.0
  0
LINE
  5
3F6
330
1F
100
AcDbEntity
  8
0
  6
Continuous
 62
     7
370
    25
100
AcDbLine
 10
-68.435683029
 20
116.5268223209
 30
0.0
 11
-68.2938014306
 21
116.5268223209
 31
0.0
  0
LINE
  5
3F7
330
1F
100
AcDbEntity
  8
0
  6
Continuous
 62
     7
370
    25
100
AcDbLine
 10
-68.2938014306
 20
120.5268223209
 30
0.0
 11
-68.435683029
 21
120.5268223209
 31
0.0
  0
LINE
  5
3F8
330
1F
100
AcDbEntity
  8
0
  6
Continuous
 62
     7
370
    25
100
AcDbLine
 10
-71.0459753436
 20
116.5268223209
 30
0.0
 11
-70.7728944037
 21
116.9168223209
 31
0.0
  0
LINE
  5
3F9
330
1F
100
AcDbEntity
  8
0
  6
Continuous
 62
     7
370
    25
100
AcDbLine
 10
-70.7728944037
 20
120.1368223209
 30
0.0
 11
-71.0459753436
 21
120.5268223209
 31
0.0
  0
LINE
  5
3FA
330
1F
100
AcDbEntity
  8
0
  6
Continuous
 62
     7
370
    25
100
AcDbLine
 10
-70.4998134638
 20
120.5268223209
 30
0.0
 11
-70.7728944037
 21
120.1368223209
 31
0.0
  0
LINE
  5
3FB
330
1F
100
AcDbEntity
  8
0
  6
Continuous
 62
     7
370
    25
100
AcDbLine
 10
-70.7728944037
 20
116.9168223209
 30
0.0
 11
-70.4998134638
 21
116.5268223209
 31
0.0
  0
LINE
  5
3FC
330
1F
100
AcDbEntity
  8
0
  6
Continuous
 62
     7
370
    25
100
AcDbLine
 10
-69.8117699855
 20
116.5268223209
 30
0.0
 11
-69.6698883871
 21
116.5268223209
 31
0.0
  0
LINE
  5
3FD
330
1F
100
AcDbEntity
  8
0
  6
Continuous
 62
     7
370
    25
100
AcDbLine
 10
-69.6698883871
 20
120.5268223209
 30
0.0
 11
-69.8117699855
 21
120.5268223209
 31
0.0
  0
LINE
  5
3FE
330
1F
100
AcDbEntity
  8
0
  6
Continuous
 62
     7
370
    25
100
AcDbLine
 10
-73.9400308551
 20
116.5268223209
 30
0.0
 11
-73.7981492566
 21
116.5268223209
 31
0.0
  0
LINE
  5
3FF
330
1F
100
AcDbEntity
  8
0
  6
Continuous
 62
     7
370
    25
100
AcDbLine
 10
-73.7981492566
 20
120.5268223209
 30
0.0
 11
-73.9400308551
 21
120.5268223209
 31
0.0
  0
LINE
  5
400
330
1F
100
AcDbEntity
  8
0
  6
Continuous
 62
     7
370
    25
100
AcDbLine
 10
-73.2519873768
 20
120.5268223209
 30
0.0
 11
-73.5250683167
 21
120.1368223209
 31
0.0
  0
LINE
  5
401
330
1F
100
AcDbEntity
  8
0
  6
Continuous
 62
     7
370
    25
100
AcDbLine
 10
-73.5250683167
 20
116.9168223209
 30
0.0
 11
-73.2519873768
 21
116.5268223209
 31
0.0
  0
LINE
  5
402
330
1F
100
AcDbEntity
  8
0
  6
Continuous
 62
     7
370
    25
100
AcDbLine
 10
-73.7981492566
 20
116.5268223209
 30
0.0
 11
-73.5250683167
 21
116.9168223209
 31
0.0
  0
LINE
  5
403
330
1F
100
AcDbEntity
  8
0
  6
Continuous
 62
     7
370
    25
100
AcDbLine
 10
-73.5250683167
 20
120.1368223209
 30
0.0
 11
-73.7981492566
 21
120.5268223209
 31
0.0
  0
LINE
  5
404
330
1F
100
AcDbEntity
  8
0
  6
Continuous
 62
     7
370
    25
100
AcDbLine
 10
-75.3161178116
 20
116.5268223209
 30
0.0
 11
-75.1742362132
 21
116.5268223209
 31
0.0
  0
LINE
  5
405
330
1F
100
AcDbEntity
  8
0
  6
Continuous
 62
     7
370
    25
100
AcDbLine
 10
-75.1742362132
 20
120.5268223209
 30
0.0
 11
-75.3161178116
 21
120.5268223209
 31
0.0
  0
LINE
  5
406
330
1F
100
AcDbEntity
  8
0
  6
Continuous
 62
     7
370
    25
100
AcDbLine
 10
-62.9063736646
 20
116.5268223209
 30
0.0
 11
-62.5163736646
 21
116.9168223209
 31
0.0
  0
LINE
  5
407
330
1F
100
AcDbEntity
  8
0
  6
Continuous
 62
     7
370
    25
100
AcDbLine
 10
-62.5163736646
 20
120.1368223209
 30
0.0
 11
-62.9063736646
 21
120.5268223209
 31
0.0
  0
LINE
  5
408
330
1F
100
AcDbEntity
  8
0
  6
Continuous
 62
     7
370
    25
100
AcDbLine
 10
-74.4861927349
 20
116.5268223209
 30
0.0
 11
-74.213111795
 21
116.9168223209
 31
0.0
  0
LINE
  5
409
330
1F
100
AcDbEntity
  8
0
  6
Continuous
 62
     7
370
    25
100
AcDbLine
 10
-74.213111795
 20
120.1368223209
 30
0.0
 11
-74.4861927349
 21
120.5268223209
 31
0.0
  0
LINE
  5
40A
330
1F
100
AcDbEntity
  8
0
  6
Continuous
 62
     7
370
    25
100
AcDbLine
 10
-71.8759004203
 20
116.5268223209
 30
0.0
 11
-71.7340188219
 21
116.5268223209
 31
0.0
  0
LINE
  5
40B
330
1F
100
AcDbEntity
  8
0
  6
Continuous
 62
     7
370
    25
100
AcDbLine
 10
-71.7340188219
 20
120.5268223209
 30
0.0
 11
-71.8759004203
 21
120.5268223209
 31
0.0
  0
LINE
  5
40C
330
1F
100
AcDbEntity
  8
0
  6
Continuous
 62
     7
370
    25
100
AcDbLine
 10
-75.8622796914
 20
116.5268223209
 30
0.0
 11
-75.5891987515
 21
116.9168223209
 31
0.0
  0
LINE
  5
40D
330
1F
100
AcDbEntity
  8
0
  6
Continuous
 62
     7
370
    25
100
AcDbLine
 10
-75.5891987515
 20
120.1368223209
 30
0.0
 11
-75.8622796914
 21
120.5268223209
 31
0.0
  0
LINE
  5
40E
330
1F
100
AcDbEntity
  8
0
  6
Continuous
 62
     7
370
    25
100
AcDbLine
 10
-73.9400308551
 20
120.5268223209
 30
0.0
 11
-74.213111795
 21
120.1368223209
 31
0.0
  0
LINE
  5
40F
330
1F
100
AcDbEntity
  8
0
  6
Continuous
 62
     7
370
    25
100
AcDbLine
 10
-74.213111795
 20
116.9168223209
 30
0.0
 11
-73.9400308551
 21
116.5268223209
 31
0.0
  0
LINE
  5
410
330
1F
100
AcDbEntity
  8
0
  6
Continuous
 62
     7
370
    25
100
AcDbLine
 10
-74.6280743334
 20
116.5268223209
 30
0.0
 11
-74.4861927349
 21
116.5268223209
 31
0.0
  0
LINE
  5
411
330
1F
100
AcDbEntity
  8
0
  6
Continuous
 62
     7
370
    25
100
AcDbLine
 10
-74.4861927349
 20
120.5268223209
 30
0.0
 11
-74.6280743334
 21
120.5268223209
 31
0.0
  0
LINE
  5
412
330
1F
100
AcDbEntity
  8
0
  6
Continuous
 62
     7
370
    25
100
AcDbLine
 10
-74.6280743334
 20
120.5268223209
 30
0.0
 11
-74.9011552733
 21
120.1368223209
 31
0.0
  0
LINE
  5
413
330
1F
100
AcDbEntity
  8
0
  6
Continuous
 62
     7
370
    25
100
AcDbLine
 10
-74.9011552733
 20
116.9168223209
 30
0.0
 11
-74.6280743334
 21
116.5268223209
 31
0.0
  0
LINE
  5
414
330
1F
100
AcDbEntity
  8
0
  6
Continuous
 62
     7
370
    25
100
AcDbLine
 10
-72.4220623001
 20
116.5268223209
 30
0.0
 11
-72.1489813602
 21
116.9168223209
 31
0.0
  0
LINE
  5
415
330
1F
100
AcDbEntity
  8
0
  6
Continuous
 62
     7
370
    25
100
AcDbLine
 10
-72.1489813602
 20
120.1368223209
 30
0.0
 11
-72.4220623001
 21
120.5268223209
 31
0.0
  0
LINE
  5
416
330
1F
100
AcDbEntity
  8
0
  6
Continuous
 62
     7
370
    25
100
AcDbLine
 10
-75.3161178116
 20
120.5268223209
 30
0.0
 11
-75.5891987515
 21
120.1368223209
 31
0.0
  0
LINE
  5
417
330
1F
100
AcDbEntity
  8
0
  6
Continuous
 62
     7
370
    25
100
AcDbLine
 10
-75.5891987515
 20
116.9168223209
 30
0.0
 11
-75.3161178116
 21
116.5268223209
 31
0.0
  0
LINE
  5
418
330
1F
100
AcDbEntity
  8
0
  6
Continuous
 62
     7
370
    25
100
AcDbLine
 10
-75.1742362132
 20
116.5268223209
 30
0.0
 11
-74.9011552733
 21
116.9168223209
 31
0.0
  0
LINE
  5
419
330
1F
100
AcDbEntity
  8
0
  6
Continuous
 62
     7
370
    25
100
AcDbLine
 10
-74.9011552733
 20
120.1368223209
 30
0.0
 11
-75.1742362132
 21
120.5268223209
 31
0.0
  0
LINE
  5
41A
330
1F
100
AcDbEntity
  8
0
  6
Continuous
 62
     7
370
    25
100
AcDbLine
 10
-72.5639438986
 20
116.5268223209
 30
0.0
 11
-72.4220623001
 21
116.5268223209
 31
0.0
  0
LINE
  5
41B
330
1F
100
AcDbEntity
  8
0
  6
Continuous
 62
     7
370
    25
100
AcDbLine
 10
-72.4220623001
 20
120.5268223209
 30
0.0
 11
-72.5639438986
 21
120.5268223209
 31
0.0
  0
LINE
  5
41C
330
1F
100
AcDbEntity
  8
0
  6
Continuous
 62
     7
370
    25
100
AcDbLine
 10
-73.2519873768
 20
116.5268223209
 30
0.0
 11
-73.1101057784
 21
116.5268223209
 31
0.0
  0
LINE
  5
41D
330
1F
100
AcDbEntity
  8
0
  6
Continuous
 62
     7
370
    25
100
AcDbLine
 10
-73.1101057784
 20
120.5268223209
 30
0.0
 11
-73.2519873768
 21
120.5268223209
 31
0.0
  0
LINE
  5
41E
330
1F
100
AcDbEntity
  8
0
  6
Continuous
 62
     7
370
    25
100
AcDbLine
 10
-72.5639438986
 20
120.5268223209
 30
0.0
 11
-72.8370248385
 21
120.1368223209
 31
0.0
  0
LINE
  5
41F
330
1F
100
AcDbEntity
  8
0
  6
Continuous
 62
     7
370
    25
100
AcDbLine
 10
-72.8370248385
 20
116.9168223209
 30
0.0
 11
-72.5639438986
 21
116.5268223209
 31
0.0
  0
LINE
  5
420
330
1F
100
AcDbEntity
  8
0
  6
Continuous
 62
     7
370
    25
100
AcDbLine
 10
-71.8759004203
 20
120.5268223209
 30
0.0
 11
-72.1489813602
 21
120.1368223209
 31
0.0
  0
LINE
  5
421
330
1F
100
AcDbEntity
  8
0
  6
Continuous
 62
     7
370
    25
100
AcDbLine
 10
-72.1489813602
 20
116.9168223209
 30
0.0
 11
-71.8759004203
 21
116.5268223209
 31
0.0
  0
LINE
  5
422
330
1F
100
AcDbEntity
  8
0
  6
Continuous
 62
     7
370
    25
100
AcDbLine
 10
-73.1101057784
 20
116.5268223209
 30
0.0
 11
-72.8370248385
 21
116.9168223209
 31
0.0
  0
LINE
  5
423
330
1F
100
AcDbEntity
  8
0
  6
Continuous
 62
     7
370
    25
100
AcDbLine
 10
-72.8370248385
 20
120.1368223209
 30
0.0
 11
-73.1101057784
 21
120.5268223209
 31
0.0
  0
LINE
  5
424
330
1F
100
AcDbEntity
  8
0
  6
Continuous
 62
     7
370
    25
100
AcDbLine
 10
-77.3802482464
 20
116.5268223209
 30
0.0
 11
-77.2383666479
 21
116.5268223209
 31
0.0
  0
LINE
  5
425
330
1F
100
AcDbEntity
  8
0
  6
Continuous
 62
     7
370
    25
100
AcDbLine
 10
-77.2383666479
 20
120.5268223209
 30
0.0
 11
-77.3802482464
 21
120.5268223209
 31
0.0
  0
LINE
  5
426
330
1F
100
AcDbEntity
  8
0
  6
Continuous
 62
     7
370
    25
100
AcDbLine
 10
-78.0682917247
 20
116.5268223209
 30
0.0
 11
-77.9264101262
 21
116.5268223209
 31
0.0
  0
LINE
  5
427
330
1F
100
AcDbEntity
  8
0
  6
Continuous
 62
     7
370
    25
100
AcDbLine
 10
-77.9264101262
 20
120.5268223209
 30
0.0
 11
-78.0682917247
 21
120.5268223209
 31
0.0
  0
LINE
  5
428
330
1F
100
AcDbEntity
  8
0
  6
Continuous
 62
     7
370
    25
100
AcDbLine
 10
-77.9264101262
 20
116.5268223209
 30
0.0
 11
-77.6533291863
 21
116.9168223209
 31
0.0
  0
LINE
  5
429
330
1F
100
AcDbEntity
  8
0
  6
Continuous
 62
     7
370
    25
100
AcDbLine
 10
-77.6533291863
 20
120.1368223209
 30
0.0
 11
-77.9264101262
 21
120.5268223209
 31
0.0
  0
LINE
  5
42A
330
1F
100
AcDbEntity
  8
0
  6
Continuous
 62
     7
370
    25
100
AcDbLine
 10
-76.0041612899
 20
116.5268223209
 30
0.0
 11
-75.8622796914
 21
116.5268223209
 31
0.0
  0
LINE
  5
42B
330
1F
100
AcDbEntity
  8
0
  6
Continuous
 62
     7
370
    25
100
AcDbLine
 10
-75.8622796914
 20
120.5268223209
 30
0.0
 11
-76.0041612899
 21
120.5268223209
 31
0.0
  0
LINE
  5
42C
330
1F
100
AcDbEntity
  8
0
  6
Continuous
 62
     7
370
    25
100
AcDbLine
 10
-78.0682917247
 20
120.5268223209
 30
0.0
 11
-78.3413726646
 21
120.1368223209
 31
0.0
  0
LINE
  5
42D
330
1F
100
AcDbEntity
  8
0
  6
Continuous
 62
     7
370
    25
100
AcDbLine
 10
-78.3413726646
 20
116.9168223209
 30
0.0
 11
-78.0682917247
 21
116.5268223209
 31
0.0
  0
LINE
  5
42E
330
1F
100
AcDbEntity
  8
0
  6
Continuous
 62
     7
370
    25
100
AcDbLine
 10
-76.0041612899
 20
120.5268223209
 30
0.0
 11
-76.2772422298
 21
120.1368223209
 31
0.0
  0
LINE
  5
42F
330
1F
100
AcDbEntity
  8
0
  6
Continuous
 62
     7
370
    25
100
AcDbLine
 10
-76.2772422298
 20
116.9168223209
 30
0.0
 11
-76.0041612899
 21
116.5268223209
 31
0.0
  0
LINE
  5
430
330
1F
100
AcDbEntity
  8
0
  6
Continuous
 62
     7
370
    25
100
AcDbLine
 10
-78.7563352029
 20
116.5268223209
 30
0.0
 11
-78.6144536045
 21
116.5268223209
 31
0.0
  0
LINE
  5
431
330
1F
100
AcDbEntity
  8
0
  6
Continuous
 62
     7
370
    25
100
AcDbLine
 10
-78.6144536045
 20
120.5268223209
 30
0.0
 11
-78.7563352029
 21
120.5268223209
 31
0.0
  0
LINE
  5
432
330
1F
100
AcDbEntity
  8
0
  6
Continuous
 62
     7
370
    25
100
AcDbLine
 10
-77.3802482464
 20
120.5268223209
 30
0.0
 11
-77.6533291863
 21
120.1368223209
 31
0.0
  0
LINE
  5
433
330
1F
100
AcDbEntity
  8
0
  6
Continuous
 62
     7
370
    25
100
AcDbLine
 10
-77.6533291863
 20
116.9168223209
 30
0.0
 11
-77.3802482464
 21
116.5268223209
 31
0.0
  0
LINE
  5
434
330
1F
100
AcDbEntity
  8
0
  6
Continuous
 62
     7
370
    25
100
AcDbLine
 10
-79.3024970827
 20
116.5268223209
 30
0.0
 11
-79.0294161428
 21
116.9168223209
 31
0.0
  0
LINE
  5
435
330
1F
100
AcDbEntity
  8
0
  6
Continuous
 62
     7
370
    25
100
AcDbLine
 10
-79.0294161428
 20
120.1368223209
 30
0.0
 11
-79.3024970827
 21
120.5268223209
 31
0.0
  0
LINE
  5
436
330
1F
100
AcDbEntity
  8
0
  6
Continuous
 62
     7
370
    25
100
AcDbLine
 10
-76.6922047681
 20
116.5268223209
 30
0.0
 11
-76.5503231697
 21
116.5268223209
 31
0.0
  0
LINE
  5
437
330
1F
100
AcDbEntity
  8
0
  6
Continuous
 62
     7
370
    25
100
AcDbLine
 10
-76.5503231697
 20
120.5268223209
 30
0.0
 11
-76.6922047681
 21
120.5268223209
 31
0.0
  0
LINE
  5
438
330
1F
100
AcDbEntity
  8
0
  6
Continuous
 62
     7
370
    25
100
AcDbLine
 10
-78.6144536045
 20
116.5268223209
 30
0.0
 11
-78.3413726646
 21
116.9168223209
 31
0.0
  0
LINE
  5
439
330
1F
100
AcDbEntity
  8
0
  6
Continuous
 62
     7
370
    25
100
AcDbLine
 10
-78.3413726646
 20
120.1368223209
 30
0.0
 11
-78.6144536045
 21
120.5268223209
 31
0.0
  0
LINE
  5
43A
330
1F
100
AcDbEntity
  8
0
  6
Continuous
 62
     7
370
    25
100
AcDbLine
 10
-78.7563352029
 20
120.5268223209
 30
0.0
 11
-79.0294161428
 21
120.1368223209
 31
0.0
  0
LINE
  5
43B
330
1F
100
AcDbEntity
  8
0
  6
Continuous
 62
     7
370
    25
100
AcDbLine
 10
-79.0294161428
 20
116.9168223209
 30
0.0
 11
-78.7563352029
 21
116.5268223209
 31
0.0
  0
LINE
  5
43C
330
1F
100
AcDbEntity
  8
0
  6
Continuous
 62
     7
370
    25
100
AcDbLine
 10
-79.4443786812
 20
120.5268223209
 30
0.0
 11
-79.7174596211
 21
120.1368223209
 31
0.0
  0
LINE
  5
43D
330
1F
100
AcDbEntity
  8
0
  6
Continuous
 62
     7
370
    25
100
AcDbLine
 10
-79.7174596211
 20
116.9168223209
 30
0.0
 11
-79.4443786812
 21
116.5268223209
 31
0.0
  0
LINE
  5
43E
330
1F
100
AcDbEntity
  8
0
  6
Continuous
 62
     7
370
    25
100
AcDbLine
 10
-76.6922047681
 20
120.5268223209
 30
0.0
 11
-76.965285708
 21
120.1368223209
 31
0.0
  0
LINE
  5
43F
330
1F
100
AcDbEntity
  8
0
  6
Continuous
 62
     7
370
    25
100
AcDbLine
 10
-76.965285708
 20
116.9168223209
 30
0.0
 11
-76.6922047681
 21
116.5268223209
 31
0.0
  0
LINE
  5
440
330
1F
100
AcDbEntity
  8
0
  6
Continuous
 62
     7
370
    25
100
AcDbLine
 10
-77.2383666479
 20
116.5268223209
 30
0.0
 11
-76.965285708
 21
116.9168223209
 31
0.0
  0
LINE
  5
441
330
1F
100
AcDbEntity
  8
0
  6
Continuous
 62
     7
370
    25
100
AcDbLine
 10
-76.965285708
 20
120.1368223209
 30
0.0
 11
-77.2383666479
 21
120.5268223209
 31
0.0
  0
LINE
  5
442
330
1F
100
AcDbEntity
  8
0
  6
Continuous
 62
     7
370
    25
100
AcDbLine
 10
-76.5503231697
 20
116.5268223209
 30
0.0
 11
-76.2772422298
 21
116.9168223209
 31
0.0
  0
LINE
  5
443
330
1F
100
AcDbEntity
  8
0
  6
Continuous
 62
     7
370
    25
100
AcDbLine
 10
-76.2772422298
 20
120.1368223209
 30
0.0
 11
-76.5503231697
 21
120.5268223209
 31
0.0
  0
LINE
  5
444
330
1F
100
AcDbEntity
  8
0
  6
Continuous
 62
     7
370
    25
100
AcDbLine
 10
-79.4443786812
 20
116.5268223209
 30
0.0
 11
-79.3024970827
 21
116.5268223209
 31
0.0
  0
LINE
  5
445
330
1F
100
AcDbEntity
  8
0
  6
Continuous
 62
     7
370
    25
100
AcDbLine
 10
-79.3024970827
 20
120.5268223209
 30
0.0
 11
-79.4443786812
 21
120.5268223209
 31
0.0
  0
LINE
  5
446
330
1F
100
AcDbEntity
  8
0
  6
Continuous
 62
     7
370
    25
100
AcDbLine
 10
-82.1965525942
 20
116.5268223209
 30
0.0
 11
-82.0546709958
 21
116.5268223209
 31
0.0
  0
LINE
  5
447
330
1F
100
AcDbEntity
  8
0
  6
Continuous
 62
     7
370
    25
100
AcDbLine
 10
-82.0546709958
 20
120.5268223209
 30
0.0
 11
-82.1965525942
 21
120.5268223209
 31
0.0
  0
LINE
  5
448
330
1F
100
AcDbEntity
  8
0
  6
Continuous
 62
     7
370
    25
100
AcDbLine
 10
-82.742714474
 20
116.5268223209
 30
0.0
 11
-82.4696335341
 21
116.9168223209
 31
0.0
  0
LINE
  5
449
330
1F
100
AcDbEntity
  8
0
  6
Continuous
 62
     7
370
    25
100
AcDbLine
 10
-82.4696335341
 20
120.1368223209
 30
0.0
 11
-82.742714474
 21
120.5268223209
 31
0.0
  0
LINE
  5
44A
330
1F
100
AcDbEntity
  8
0
  6
Continuous
 62
     7
370
    25
100
AcDbLine
 10
-81.508509116
 20
120.5268223209
 30
0.0
 11
-81.7815900559
 21
120.1368223209
 31
0.0
  0
LINE
  5
44B
330
1F
100
AcDbEntity
  8
0
  6
Continuous
 62
     7
370
    25
100
AcDbLine
 10
-81.7815900559
 20
116.9168223209
 30
0.0
 11
-81.508509116
 21
116.5268223209
 31
0.0
  0
LINE
  5
44C
330
1F
100
AcDbEntity
  8
0
  6
Continuous
 62
     7
370
    25
100
AcDbLine
 10
-83.5726395508
 20
120.5268223209
 30
0.0
 11
-83.8457204907
 21
120.1368223209
 31
0.0
  0
LINE
  5
44D
330
1F
100
AcDbEntity
  8
0
  6
Continuous
 62
     7
370
    25
100
AcDbLine
 10
-83.8457204907
 20
116.9168223209
 30
0.0
 11
-83.5726395508
 21
116.5268223209
 31
0.0
  0
LINE
  5
44E
330
1F
100
AcDbEntity
  8
0
  6
Continuous
 62
     7
370
    25
100
AcDbLine
 10
-79.990540561
 20
116.5268223209
 30
0.0
 11
-79.7174596211
 21
116.9168223209
 31
0.0
  0
LINE
  5
44F
330
1F
100
AcDbEntity
  8
0
  6
Continuous
 62
     7
370
    25
100
AcDbLine
 10
-79.7174596211
 20
120.1368223209
 30
0.0
 11
-79.990540561
 21
120.5268223209
 31
0.0
  0
LINE
  5
450
330
1F
100
AcDbEntity
  8
0
  6
Continuous
 62
     7
370
    25
100
AcDbLine
 10
-82.8845960725
 20
116.5268223209
 30
0.0
 11
-82.742714474
 21
116.5268223209
 31
0.0
  0
LINE
  5
451
330
1F
100
AcDbEntity
  8
0
  6
Continuous
 62
     7
370
    25
100
AcDbLine
 10
-82.742714474
 20
120.5268223209
 30
0.0
 11
-82.8845960725
 21
120.5268223209
 31
0.0
  0
LINE
  5
452
330
1F
100
AcDbEntity
  8
0
  6
Continuous
 62
     7
370
    25
100
AcDbLine
 10
-82.1965525942
 20
120.5268223209
 30
0.0
 11
-82.4696335341
 21
120.1368223209
 31
0.0
  0
LINE
  5
453
330
1F
100
AcDbEntity
  8
0
  6
Continuous
 62
     7
370
    25
100
AcDbLine
 10
-82.4696335341
 20
116.9168223209
 30
0.0
 11
-82.1965525942
 21
116.5268223209
 31
0.0
  0
LINE
  5
454
330
1F
100
AcDbEntity
  8
0
  6
Continuous
 62
     7
370
    25
100
AcDbLine
 10
-80.6785840393
 20
116.5268223209
 30
0.0
 11
-80.4055030994
 21
116.9168223209
 31
0.0
  0
LINE
  5
455
330
1F
100
AcDbEntity
  8
0
  6
Continuous
 62
     7
370
    25
100
AcDbLine
 10
-80.4055030994
 20
120.1368223209
 30
0.0
 11
-80.6785840393
 21
120.5268223209
 31
0.0
  0
LINE
  5
456
330
1F
100
AcDbEntity
  8
0
  6
Continuous
 62
     7
370
    25
100
AcDbLine
 10
-80.1324221594
 20
116.5268223209
 30
0.0
 11
-79.990540561
 21
116.5268223209
 31
0.0
  0
LINE
  5
457
330
1F
100
AcDbEntity
  8
0
  6
Continuous
 62
     7
370
    25
100
AcDbLine
 10
-79.990540561
 20
120.5268223209
 30
0.0
 11
-80.1324221594
 21
120.5268223209
 31
0.0
  0
LINE
  5
458
330
1F
100
AcDbEntity
  8
0
  6
Continuous
 62
     7
370
    25
100
AcDbLine
 10
-81.508509116
 20
116.5268223209
 30
0.0
 11
-81.3666275175
 21
116.5268223209
 31
0.0
  0
LINE
  5
459
330
1F
100
AcDbEntity
  8
0
  6
Continuous
 62
     7
370
    25
100
AcDbLine
 10
-81.3666275175
 20
120.5268223209
 30
0.0
 11
-81.508509116
 21
120.5268223209
 31
0.0
  0
LINE
  5
45A
330
1F
100
AcDbEntity
  8
0
  6
Continuous
 62
     7
370
    25
100
AcDbLine
 10
-83.4307579523
 20
116.5268223209
 30
0.0
 11
-83.1576770124
 21
116.9168223209
 31
0.0
  0
LINE
  5
45B
330
1F
100
AcDbEntity
  8
0
  6
Continuous
 62
     7
370
    25
100
AcDbLine
 10
-83.1576770124
 20
120.1368223209
 30
0.0
 11
-83.4307579523
 21
120.5268223209
 31
0.0
  0
LINE
  5
45C
330
1F
100
AcDbEntity
  8
0
  6
Continuous
 62
     7
370
    25
100
AcDbLine
 10
-83.5726395508
 20
116.5268223209
 30
0.0
 11
-83.4307579523
 21
116.5268223209
 31
0.0
  0
LINE
  5
45D
330
1F
100
AcDbEntity
  8
0
  6
Continuous
 62
     7
370
    25
100
AcDbLine
 10
-83.4307579523
 20
120.5268223209
 30
0.0
 11
-83.5726395508
 21
120.5268223209
 31
0.0
  0
LINE
  5
45E
330
1F
100
AcDbEntity
  8
0
  6
Continuous
 62
     7
370
    25
100
AcDbLine
 10
-80.1324221594
 20
120.5268223209
 30
0.0
 11
-80.4055030994
 21
120.1368223209
 31
0.0
  0
LINE
  5
45F
330
1F
100
AcDbEntity
  8
0
  6
Continuous
 62
     7
370
    25
100
AcDbLine
 10
-80.4055030994
 20
116.9168223209
 30
0.0
 11
-80.1324221594
 21
116.5268223209
 31
0.0
  0
LINE
  5
460
330
1F
100
AcDbEntity
  8
0
  6
Continuous
 62
     7
370
    25
100
AcDbLine
 10
-81.3666275175
 20
116.5268223209
 30
0.0
 11
-81.0935465776
 21
116.9168223209
 31
0.0
  0
LINE
  5
461
330
1F
100
AcDbEntity
  8
0
  6
Continuous
 62
     7
370
    25
100
AcDbLine
 10
-81.0935465776
 20
120.1368223209
 30
0.0
 11
-81.3666275175
 21
120.5268223209
 31
0.0
  0
LINE
  5
462
330
1F
100
AcDbEntity
  8
0
  6
Continuous
 62
     7
370
    25
100
AcDbLine
 10
-82.8845960725
 20
120.5268223209
 30
0.0
 11
-83.1576770124
 21
120.1368223209
 31
0.0
  0
LINE
  5
463
330
1F
100
AcDbEntity
  8
0
  6
Continuous
 62
     7
370
    25
100
AcDbLine
 10
-83.1576770124
 20
116.9168223209
 30
0.0
 11
-82.8845960725
 21
116.5268223209
 31
0.0
  0
LINE
  5
464
330
1F
100
AcDbEntity
  8
0
  6
Continuous
 62
     7
370
    25
100
AcDbLine
 10
-80.8204656377
 20
116.5268223209
 30
0.0
 11
-80.6785840393
 21
116.5268223209
 31
0.0
  0
LINE
  5
465
330
1F
100
AcDbEntity
  8
0
  6
Continuous
 62
     7
370
    25
100
AcDbLine
 10
-80.6785840393
 20
120.5268223209
 30
0.0
 11
-80.8204656377
 21
120.5268223209
 31
0.0
  0
LINE
  5
466
330
1F
100
AcDbEntity
  8
0
  6
Continuous
 62
     7
370
    25
100
AcDbLine
 10
-82.0546709958
 20
116.5268223209
 30
0.0
 11
-81.7815900559
 21
116.9168223209
 31
0.0
  0
LINE
  5
467
330
1F
100
AcDbEntity
  8
0
  6
Continuous
 62
     7
370
    25
100
AcDbLine
 10
-81.7815900559
 20
120.1368223209
 30
0.0
 11
-82.0546709958
 21
120.5268223209
 31
0.0
  0
LINE
  5
468
330
1F
100
AcDbEntity
  8
0
  6
Continuous
 62
     7
370
    25
100
AcDbLine
 10
-80.8204656377
 20
120.5268223209
 30
0.0
 11
-81.0935465776
 21
120.1368223209
 31
0.0
  0
LINE
  5
469
330
1F
100
AcDbEntity
  8
0
  6
Continuous
 62
     7
370
    25
100
AcDbLine
 10
-81.0935465776
 20
116.9168223209
 30
0.0
 11
-80.8204656377
 21
116.5268223209
 31
0.0
  0
LINE
  5
46A
330
1F
100
AcDbEntity
  8
0
  6
Continuous
 62
     7
370
    25
100
AcDbLine
 10
-84.1188014306
 20
116.5268223209
 30
0.0
 11
-83.8457204907
 21
116.9168223209
 31
0.0
  0
LINE
  5
46B
330
1F
100
AcDbEntity
  8
0
  6
Continuous
 62
     7
370
    25
100
AcDbLine
 10
-83.8457204907
 20
120.1368223209
 30
0.0
 11
-84.1188014306
 21
120.5268223209
 31
0.0
  0
LINE
  5
46C
330
1F
100
AcDbEntity
  8
0
  6
Continuous
 62
     7
370
    25
100
AcDbLine
 10
-86.1829318653
 20
116.5268223209
 30
0.0
 11
-85.9098509254
 21
116.9168223209
 31
0.0
  0
LINE
  5
46D
330
1F
100
AcDbEntity
  8
0
  6
Continuous
 62
     7
370
    25
100
AcDbLine
 10
-85.9098509254
 20
120.1368223209
 30
0.0
 11
-86.1829318653
 21
120.5268223209
 31
0.0
  0
LINE
  5
46E
330
1F
100
AcDbEntity
  8
0
  6
Continuous
 62
     7
370
    25
100
AcDbLine
 10
-86.8709753436
 20
116.5268223209
 30
0.0
 11
-86.5978944037
 21
116.9168223209
 31
0.0
  0
LINE
  5
46F
330
1F
100
AcDbEntity
  8
0
  6
Continuous
 62
     7
370
    25
100
AcDbLine
 10
-86.5978944037
 20
120.1368223209
 30
0.0
 11
-86.8709753436
 21
120.5268223209
 31
0.0
  0
LINE
  5
470
330
1F
100
AcDbEntity
  8
0
  6
Continuous
 62
     7
370
    25
100
AcDbLine
 10
-85.6367699855
 20
120.5268223209
 30
0.0
 11
-85.9098509254
 21
120.1368223209
 31
0.0
  0
LINE
  5
471
330
1F
100
AcDbEntity
  8
0
  6
Continuous
 62
     7
370
    25
100
AcDbLine
 10
-85.9098509254
 20
116.9168223209
 30
0.0
 11
-85.6367699855
 21
116.5268223209
 31
0.0
  0
LINE
  5
472
330
1F
100
AcDbEntity
  8
0
  6
Continuous
 62
     7
370
    25
100
AcDbLine
 10
-86.3248134638
 20
116.5268223209
 30
0.0
 11
-86.1829318653
 21
116.5268223209
 31
0.0
  0
LINE
  5
473
330
1F
100
AcDbEntity
  8
0
  6
Continuous
 62
     7
370
    25
100
AcDbLine
 10
-86.1829318653
 20
120.5268223209
 30
0.0
 11
-86.3248134638
 21
120.5268223209
 31
0.0
  0
LINE
  5
474
330
1F
100
AcDbEntity
  8
0
  6
Continuous
 62
     7
370
    25
100
AcDbLine
 10
-84.8068449088
 20
116.5268223209
 30
0.0
 11
-84.5337639689
 21
116.9168223209
 31
0.0
  0
LINE
  5
475
330
1F
100
AcDbEntity
  8
0
  6
Continuous
 62
     7
370
    25
100
AcDbLine
 10
-84.5337639689
 20
120.1368223209
 30
0.0
 11
-84.8068449088
 21
120.5268223209
 31
0.0
  0
LINE
  5
476
330
1F
100
AcDbEntity
  8
0
  6
Continuous
 62
     7
370
    25
100
AcDbLine
 10
-87.0128569421
 20
116.5268223209
 30
0.0
 11
-86.8709753436
 21
116.5268223209
 31
0.0
  0
LINE
  5
477
330
1F
100
AcDbEntity
  8
0
  6
Continuous
 62
     7
370
    25
100
AcDbLine
 10
-86.8709753436
 20
120.5268223209
 30
0.0
 11
-87.0128569421
 21
120.5268223209
 31
0.0
  0
LINE
  5
478
330
1F
100
AcDbEntity
  8
0
  6
Continuous
 62
     7
370
    25
100
AcDbLine
 10
-84.9487265073
 20
116.5268223209
 30
0.0
 11
-84.8068449088
 21
116.5268223209
 31
0.0
  0
LINE
  5
479
330
1F
100
AcDbEntity
  8
0
  6
Continuous
 62
     7
370
    25
100
AcDbLine
 10
-84.8068449088
 20
120.5268223209
 30
0.0
 11
-84.9487265073
 21
120.5268223209
 31
0.0
  0
LINE
  5
47A
330
1F
100
AcDbEntity
  8
0
  6
Continuous
 62
     7
370
    25
100
AcDbLine
 10
-87.5590188219
 20
116.5268223209
 30
0.0
 11
-87.285937882
 21
116.9168223209
 31
0.0
  0
LINE
  5
47B
330
1F
100
AcDbEntity
  8
0
  6
Continuous
 62
     7
370
    25
100
AcDbLine
 10
-87.285937882
 20
120.1368223209
 30
0.0
 11
-87.5590188219
 21
120.5268223209
 31
0.0
  0
LINE
  5
47C
330
1F
100
AcDbEntity
  8
0
  6
Continuous
 62
     7
370
    25
100
AcDbLine
 10
-84.260683029
 20
116.5268223209
 30
0.0
 11
-84.1188014306
 21
116.5268223209
 31
0.0
  0
LINE
  5
47D
330
1F
100
AcDbEntity
  8
0
  6
Continuous
 62
     7
370
    25
100
AcDbLine
 10
-84.1188014306
 20
120.5268223209
 30
0.0
 11
-84.260683029
 21
120.5268223209
 31
0.0
  0
LINE
  5
47E
330
1F
100
AcDbEntity
  8
0
  6
Continuous
 62
     7
370
    25
100
AcDbLine
 10
-87.0128569421
 20
120.5268223209
 30
0.0
 11
-87.285937882
 21
120.1368223209
 31
0.0
  0
LINE
  5
47F
330
1F
100
AcDbEntity
  8
0
  6
Continuous
 62
     7
370
    25
100
AcDbLine
 10
-87.285937882
 20
116.9168223209
 30
0.0
 11
-87.0128569421
 21
116.5268223209
 31
0.0
  0
LINE
  5
480
330
1F
100
AcDbEntity
  8
0
  6
Continuous
 62
     7
370
    25
100
AcDbLine
 10
-85.4948883871
 20
116.5268223209
 30
0.0
 11
-85.2218074472
 21
116.9168223209
 31
0.0
  0
LINE
  5
481
330
1F
100
AcDbEntity
  8
0
  6
Continuous
 62
     7
370
    25
100
AcDbLine
 10
-85.2218074472
 20
120.1368223209
 30
0.0
 11
-85.4948883871
 21
120.5268223209
 31
0.0
  0
LINE
  5
482
330
1F
100
AcDbEntity
  8
0
  6
Continuous
 62
     7
370
    25
100
AcDbLine
 10
-86.3248134638
 20
120.5268223209
 30
0.0
 11
-86.5978944037
 21
120.1368223209
 31
0.0
  0
LINE
  5
483
330
1F
100
AcDbEntity
  8
0
  6
Continuous
 62
     7
370
    25
100
AcDbLine
 10
-86.5978944037
 20
116.9168223209
 30
0.0
 11
-86.3248134638
 21
116.5268223209
 31
0.0
  0
LINE
  5
484
330
1F
100
AcDbEntity
  8
0
  6
Continuous
 62
     7
370
    25
100
AcDbLine
 10
-87.7009004203
 20
116.5268223209
 30
0.0
 11
-87.5590188219
 21
116.5268223209
 31
0.0
  0
LINE
  5
485
330
1F
100
AcDbEntity
  8
0
  6
Continuous
 62
     7
370
    25
100
AcDbLine
 10
-87.5590188219
 20
120.5268223209
 30
0.0
 11
-87.7009004203
 21
120.5268223209
 31
0.0
  0
LINE
  5
486
330
1F
100
AcDbEntity
  8
0
  6
Continuous
 62
     7
370
    25
100
AcDbLine
 10
-85.6367699855
 20
116.5268223209
 30
0.0
 11
-85.4948883871
 21
116.5268223209
 31
0.0
  0
LINE
  5
487
330
1F
100
AcDbEntity
  8
0
  6
Continuous
 62
     7
370
    25
100
AcDbLine
 10
-85.4948883871
 20
120.5268223209
 30
0.0
 11
-85.6367699855
 21
120.5268223209
 31
0.0
  0
LINE
  5
488
330
1F
100
AcDbEntity
  8
0
  6
Continuous
 62
     7
370
    25
100
AcDbLine
 10
-84.260683029
 20
120.5268223209
 30
0.0
 11
-84.5337639689
 21
120.1368223209
 31
0.0
  0
LINE
  5
489
330
1F
100
AcDbEntity
  8
0
  6
Continuous
 62
     7
370
    25
100
AcDbLine
 10
-84.5337639689
 20
116.9168223209
 30
0.0
 11
-84.260683029
 21
116.5268223209
 31
0.0
  0
LINE
  5
48A
330
1F
100
AcDbEntity
  8
0
  6
Continuous
 62
     7
370
    25
100
AcDbLine
 10
-84.9487265073
 20
120.5268223209
 30
0.0
 11
-85.2218074472
 21
120.1368223209
 31
0.0
  0
LINE
  5
48B
330
1F
100
AcDbEntity
  8
0
  6
Continuous
 62
     7
370
    25
100
AcDbLine
 10
-85.2218074472
 20
116.9168223209
 30
0.0
 11
-84.9487265073
 21
116.5268223209
 31
0.0
  0
LINE
  5
48C
330
1F
100
AcDbEntity
  8
0
  6
Continuous
 62
     7
370
    25
100
AcDbLine
 10
-90.9992362132
 20
116.5268223209
 30
0.0
 11
-90.7261552733
 21
116.9168223209
 31
0.0
  0
LINE
  5
48D
330
1F
100
AcDbEntity
  8
0
  6
Continuous
 62
     7
370
    25
100
AcDbLine
 10
-90.7261552733
 20
120.1368223209
 30
0.0
 11
-90.9992362132
 21
120.5268223209
 31
0.0
  0
LINE
  5
48E
330
1F
100
AcDbEntity
  8
0
  6
Continuous
 62
     7
370
    25
100
AcDbLine
 10
-88.9351057784
 20
116.5268223209
 30
0.0
 11
-88.6620248385
 21
116.9168223209
 31
0.0
  0
LINE
  5
48F
330
1F
100
AcDbEntity
  8
0
  6
Continuous
 62
     7
370
    25
100
AcDbLine
 10
-88.6620248385
 20
120.1368223209
 30
0.0
 11
-88.9351057784
 21
120.5268223209
 31
0.0
  0
LINE
  5
490
330
1F
100
AcDbEntity
  8
0
  6
Continuous
 62
     7
370
    25
100
AcDbLine
 10
-87.7009004203
 20
120.5268223209
 30
0.0
 11
-87.9739813602
 21
120.1368223209
 31
0.0
  0
LINE
  5
491
330
1F
100
AcDbEntity
  8
0
  6
Continuous
 62
     7
370
    25
100
AcDbLine
 10
-87.9739813602
 20
116.9168223209
 30
0.0
 11
-87.7009004203
 21
116.5268223209
 31
0.0
  0
LINE
  5
492
330
1F
100
AcDbEntity
  8
0
  6
Continuous
 62
     7
370
    25
100
AcDbLine
 10
-90.4530743334
 20
120.5268223209
 30
0.0
 11
-90.7261552733
 21
120.1368223209
 31
0.0
  0
LINE
  5
493
330
1F
100
AcDbEntity
  8
0
  6
Continuous
 62
     7
370
    25
100
AcDbLine
 10
-90.7261552733
 20
116.9168223209
 30
0.0
 11
-90.4530743334
 21
116.5268223209
 31
0.0
  0
LINE
  5
494
330
1F
100
AcDbEntity
  8
0
  6
Continuous
 62
     7
370
    25
100
AcDbLine
 10
-90.4530743334
 20
116.5268223209
 30
0.0
 11
-90.3111927349
 21
116.5268223209
 31
0.0
  0
LINE
  5
495
330
1F
100
AcDbEntity
  8
0
  6
Continuous
 62
     7
370
    25
100
AcDbLine
 10
-90.3111927349
 20
120.5268223209
 30
0.0
 11
-90.4530743334
 21
120.5268223209
 31
0.0
  0
LINE
  5
496
330
1F
100
AcDbEntity
  8
0
  6
Continuous
 62
     7
370
    25
100
AcDbLine
 10
-88.3889438986
 20
116.5268223209
 30
0.0
 11
-88.2470623001
 21
116.5268223209
 31
0.0
  0
LINE
  5
497
330
1F
100
AcDbEntity
  8
0
  6
Continuous
 62
     7
370
    25
100
AcDbLine
 10
-88.2470623001
 20
120.5268223209
 30
0.0
 11
-88.3889438986
 21
120.5268223209
 31
0.0
  0
LINE
  5
498
330
1F
100
AcDbEntity
  8
0
  6
Continuous
 62
     7
370
    25
100
AcDbLine
 10
-89.0769873768
 20
116.5268223209
 30
0.0
 11
-88.9351057784
 21
116.5268223209
 31
0.0
  0
LINE
  5
499
330
1F
100
AcDbEntity
  8
0
  6
Continuous
 62
     7
370
    25
100
AcDbLine
 10
-88.9351057784
 20
120.5268223209
 30
0.0
 11
-89.0769873768
 21
120.5268223209
 31
0.0
  0
LINE
  5
49A
330
1F
100
AcDbEntity
  8
0
  6
Continuous
 62
     7
370
    25
100
AcDbLine
 10
-91.6872796914
 20
116.5268223209
 30
0.0
 11
-91.4141987515
 21
116.9168223209
 31
0.0
  0
LINE
  5
49B
330
1F
100
AcDbEntity
  8
0
  6
Continuous
 62
     7
370
    25
100
AcDbLine
 10
-91.4141987515
 20
120.1368223209
 30
0.0
 11
-91.6872796914
 21
120.5268223209
 31
0.0
  0
LINE
  5
49C
330
1F
100
AcDbEntity
  8
0
  6
Continuous
 62
     7
370
    25
100
AcDbLine
 10
-91.1411178116
 20
116.5268223209
 30
0.0
 11
-90.9992362132
 21
116.5268223209
 31
0.0
  0
LINE
  5
49D
330
1F
100
AcDbEntity
  8
0
  6
Continuous
 62
     7
370
    25
100
AcDbLine
 10
-90.9992362132
 20
120.5268223209
 30
0.0
 11
-91.1411178116
 21
120.5268223209
 31
0.0
  0
LINE
  5
49E
330
1F
100
AcDbEntity
  8
0
  6
Continuous
 62
     7
370
    25
100
AcDbLine
 10
-88.3889438986
 20
120.5268223209
 30
0.0
 11
-88.6620248385
 21
120.1368223209
 31
0.0
  0
LINE
  5
49F
330
1F
100
AcDbEntity
  8
0
  6
Continuous
 62
     7
370
    25
100
AcDbLine
 10
-88.6620248385
 20
116.9168223209
 30
0.0
 11
-88.3889438986
 21
116.5268223209
 31
0.0
  0
LINE
  5
4A0
330
1F
100
AcDbEntity
  8
0
  6
Continuous
 62
     7
370
    25
100
AcDbLine
 10
-88.2470623001
 20
116.5268223209
 30
0.0
 11
-87.9739813602
 21
116.9168223209
 31
0.0
  0
LINE
  5
4A1
330
1F
100
AcDbEntity
  8
0
  6
Continuous
 62
     7
370
    25
100
AcDbLine
 10
-87.9739813602
 20
120.1368223209
 30
0.0
 11
-88.2470623001
 21
120.5268223209
 31
0.0
  0
LINE
  5
4A2
330
1F
100
AcDbEntity
  8
0
  6
Continuous
 62
     7
370
    25
100
AcDbLine
 10
-90.3111927349
 20
116.5268223209
 30
0.0
 11
-90.038111795
 21
116.9168223209
 31
0.0
  0
LINE
  5
4A3
330
1F
100
AcDbEntity
  8
0
  6
Continuous
 62
     7
370
    25
100
AcDbLine
 10
-90.038111795
 20
120.1368223209
 30
0.0
 11
-90.3111927349
 21
120.5268223209
 31
0.0
  0
LINE
  5
4A4
330
1F
100
AcDbEntity
  8
0
  6
Continuous
 62
     7
370
    25
100
AcDbLine
 10
-91.1411178116
 20
120.5268223209
 30
0.0
 11
-91.4141987515
 21
120.1368223209
 31
0.0
  0
LINE
  5
4A5
330
1F
100
AcDbEntity
  8
0
  6
Continuous
 62
     7
370
    25
100
AcDbLine
 10
-91.4141987515
 20
116.9168223209
 30
0.0
 11
-91.1411178116
 21
116.5268223209
 31
0.0
  0
LINE
  5
4A6
330
1F
100
AcDbEntity
  8
0
  6
Continuous
 62
     7
370
    25
100
AcDbLine
 10
-89.7650308551
 20
120.5268223209
 30
0.0
 11
-90.038111795
 21
120.1368223209
 31
0.0
  0
LINE
  5
4A7
330
1F
100
AcDbEntity
  8
0
  6
Continuous
 62
     7
370
    25
100
AcDbLine
 10
-90.038111795
 20
116.9168223209
 30
0.0
 11
-89.7650308551
 21
116.5268223209
 31
0.0
  0
LINE
  5
4A8
330
1F
100
AcDbEntity
  8
0
  6
Continuous
 62
     7
370
    25
100
AcDbLine
 10
-89.7650308551
 20
116.5268223209
 30
0.0
 11
-89.6231492566
 21
116.5268223209
 31
0.0
  0
LINE
  5
4A9
330
1F
100
AcDbEntity
  8
0
  6
Continuous
 62
     7
370
    25
100
AcDbLine
 10
-89.6231492566
 20
120.5268223209
 30
0.0
 11
-89.7650308551
 21
120.5268223209
 31
0.0
  0
LINE
  5
4AA
330
1F
100
AcDbEntity
  8
0
  6
Continuous
 62
     7
370
    25
100
AcDbLine
 10
-89.0769873768
 20
120.5268223209
 30
0.0
 11
-89.3500683167
 21
120.1368223209
 31
0.0
  0
LINE
  5
4AB
330
1F
100
AcDbEntity
  8
0
  6
Continuous
 62
     7
370
    25
100
AcDbLine
 10
-89.3500683167
 20
116.9168223209
 30
0.0
 11
-89.0769873768
 21
116.5268223209
 31
0.0
  0
LINE
  5
4AC
330
1F
100
AcDbEntity
  8
0
  6
Continuous
 62
     7
370
    25
100
AcDbLine
 10
-89.6231492566
 20
116.5268223209
 30
0.0
 11
-89.3500683167
 21
116.9168223209
 31
0.0
  0
LINE
  5
4AD
330
1F
100
AcDbEntity
  8
0
  6
Continuous
 62
     7
370
    25
100
AcDbLine
 10
-89.3500683167
 20
120.1368223209
 30
0.0
 11
-89.6231492566
 21
120.5268223209
 31
0.0
  0
LINE
  5
4AE
330
1F
100
AcDbEntity
  8
0
  6
Continuous
 62
     7
370
    25
100
AcDbLine
 10
-92.5172047681
 20
116.5268223209
 30
0.0
 11
-92.3753231697
 21
116.5268223209
 31
0.0
  0
LINE
  5
4AF
330
1F
100
AcDbEntity
  8
0
  6
Continuous
 62
     7
370
    25
100
AcDbLine
 10
-92.3753231697
 20
120.5268223209
 30
0.0
 11
-92.5172047681
 21
120.5268223209
 31
0.0
  0
LINE
  5
4B0
330
1F
100
AcDbEntity
  8
0
  6
Continuous
 62
     7
370
    25
100
AcDbLine
 10
-92.5172047681
 20
120.5268223209
 30
0.0
 11
-92.790285708
 21
120.1368223209
 31
0.0
  0
LINE
  5
4B1
330
1F
100
AcDbEntity
  8
0
  6
Continuous
 62
     7
370
    25
100
AcDbLine
 10
-92.790285708
 20
116.9168223209
 30
0.0
 11
-92.5172047681
 21
116.5268223209
 31
0.0
  0
LINE
  5
4B2
330
1F
100
AcDbEntity
  8
0
  6
Continuous
 62
     7
370
    25
100
AcDbLine
 10
-93.8932917247
 20
120.5268223209
 30
0.0
 11
-94.1663726646
 21
120.1368223209
 31
0.0
  0
LINE
  5
4B3
330
1F
100
AcDbEntity
  8
0
  6
Continuous
 62
     7
370
    25
100
AcDbLine
 10
-94.1663726646
 20
116.9168223209
 30
0.0
 11
-93.8932917247
 21
116.5268223209
 31
0.0
  0
LINE
  5
4B4
330
1F
100
AcDbEntity
  8
0
  6
Continuous
 62
     7
370
    25
100
AcDbLine
 10
-91.8291612899
 20
120.5268223209
 30
0.0
 11
-92.1022422298
 21
120.1368223209
 31
0.0
  0
LINE
  5
4B5
330
1F
100
AcDbEntity
  8
0
  6
Continuous
 62
     7
370
    25
100
AcDbLine
 10
-92.1022422298
 20
116.9168223209
 30
0.0
 11
-91.8291612899
 21
116.5268223209
 31
0.0
  0
LINE
  5
4B6
330
1F
100
AcDbEntity
  8
0
  6
Continuous
 62
     7
370
    25
100
AcDbLine
 10
-93.0633666479
 20
116.5268223209
 30
0.0
 11
-92.790285708
 21
116.9168223209
 31
0.0
  0
LINE
  5
4B7
330
1F
100
AcDbEntity
  8
0
  6
Continuous
 62
     7
370
    25
100
AcDbLine
 10
-92.790285708
 20
120.1368223209
 30
0.0
 11
-93.0633666479
 21
120.5268223209
 31
0.0
  0
LINE
  5
4B8
330
1F
100
AcDbEntity
  8
0
  6
Continuous
 62
     7
370
    25
100
AcDbLine
 10
-92.3753231697
 20
116.5268223209
 30
0.0
 11
-92.1022422298
 21
116.9168223209
 31
0.0
  0
LINE
  5
4B9
330
1F
100
AcDbEntity
  8
0
  6
Continuous
 62
     7
370
    25
100
AcDbLine
 10
-92.1022422298
 20
120.1368223209
 30
0.0
 11
-92.3753231697
 21
120.5268223209
 31
0.0
  0
LINE
  5
4BA
330
1F
100
AcDbEntity
  8
0
  6
Continuous
 62
     7
370
    25
100
AcDbLine
 10
-93.2052482464
 20
116.5268223209
 30
0.0
 11
-93.0633666479
 21
116.5268223209
 31
0.0
  0
LINE
  5
4BB
330
1F
100
AcDbEntity
  8
0
  6
Continuous
 62
     7
370
    25
100
AcDbLine
 10
-93.0633666479
 20
120.5268223209
 30
0.0
 11
-93.2052482464
 21
120.5268223209
 31
0.0
  0
LINE
  5
4BC
330
1F
100
AcDbEntity
  8
0
  6
Continuous
 62
     7
370
    25
100
AcDbLine
 10
-93.7514101262
 20
116.5268223209
 30
0.0
 11
-93.4783291863
 21
116.9168223209
 31
0.0
  0
LINE
  5
4BD
330
1F
100
AcDbEntity
  8
0
  6
Continuous
 62
     7
370
    25
100
AcDbLine
 10
-93.4783291863
 20
120.1368223209
 30
0.0
 11
-93.7514101262
 21
120.5268223209
 31
0.0
  0
LINE
  5
4BE
330
1F
100
AcDbEntity
  8
0
  6
Continuous
 62
     7
370
    25
100
AcDbLine
 10
-91.8291612899
 20
116.5268223209
 30
0.0
 11
-91.6872796914
 21
116.5268223209
 31
0.0
  0
LINE
  5
4BF
330
1F
100
AcDbEntity
  8
0
  6
Continuous
 62
     7
370
    25
100
AcDbLine
 10
-91.6872796914
 20
120.5268223209
 30
0.0
 11
-91.8291612899
 21
120.5268223209
 31
0.0
  0
LINE
  5
4C0
330
1F
100
AcDbEntity
  8
0
  6
Continuous
 62
     7
370
    25
100
AcDbLine
 10
-93.2052482464
 20
120.5268223209
 30
0.0
 11
-93.4783291863
 21
120.1368223209
 31
0.0
  0
LINE
  5
4C1
330
1F
100
AcDbEntity
  8
0
  6
Continuous
 62
     7
370
    25
100
AcDbLine
 10
-93.4783291863
 20
116.9168223209
 30
0.0
 11
-93.2052482464
 21
116.5268223209
 31
0.0
  0
LINE
  5
4C2
330
1F
100
AcDbEntity
  8
0
  6
Continuous
 62
     7
370
    25
100
AcDbLine
 10
-94.4394536045
 20
116.5268223209
 30
0.0
 11
-94.4394536045
 21
116.5268223209
 31
0.0
  0
LINE
  5
4C3
330
1F
100
AcDbEntity
  8
0
  6
Continuous
 62
     7
370
    25
100
AcDbLine
 10
-94.4394536045
 20
120.5268223209
 30
0.0
 11
-94.5163736646
 21
120.5268223209
 31
0.0
  0
LINE
  5
4C4
330
1F
100
AcDbEntity
  8
0
  6
Continuous
 62
     7
370
    25
100
AcDbLine
 10
-94.4394536045
 20
116.5268223209
 30
0.0
 11
-94.1663726646
 21
116.9168223209
 31
0.0
  0
LINE
  5
4C5
330
1F
100
AcDbEntity
  8
0
  6
Continuous
 62
     7
370
    25
100
AcDbLine
 10
-94.1663726646
 20
120.1368223209
 30
0.0
 11
-94.4394536045
 21
120.5268223209
 31
0.0
  0
LINE
  5
4C6
330
1F
100
AcDbEntity
  8
0
  6
Continuous
 62
     7
370
    25
100
AcDbLine
 10
-93.8932917247
 20
116.5268223209
 30
0.0
 11
-93.7514101262
 21
116.5268223209
 31
0.0
  0
LINE
  5
4C7
330
1F
100
AcDbEntity
  8
0
  6
Continuous
 62
     7
370
    25
100
AcDbLine
 10
-93.7514101262
 20
120.5268223209
 30
0.0
 11
-93.8932917247
 21
120.5268223209
 31
0.0
  0
LINE
  5
4C8
330
1F
100
AcDbEntity
  8
0
  6
Continuous
 62
     7
370
    25
100
AcDbLine
 10
-88.7663736646
 20
125.0268223209
 30
0.0
 11
-94.5163736646
 21
125.0268223209
 31
0.0
  0
LINE
  5
4C9
330
1F
100
AcDbEntity
  8
0
  6
Continuous
 62
     7
370
    25
100
AcDbLine
 10
-94.5163736646
 20
112.0268223209
 30
0.0
 11
-88.7663736646
 21
112.0268223209
 31
0.0
  0
LINE
  5
4CA
330
1F
100
AcDbEntity
  8
0
  6
Continuous
 62
     7
370
    25
100
AcDbLine
 10
-88.7663736646
 20
112.0268223209
 30
0.0
 11
-88.5163736646
 21
112.2768223209
 31
0.0
  0
LINE
  5
4CB
330
1F
100
AcDbEntity
  8
0
  6
Continuous
 62
     7
370
    25
100
AcDbLine
 10
-88.5163736646
 20
124.7768223209
 30
0.0
 11
-88.7663736646
 21
125.0268223209
 31
0.0
  0
LINE
  5
4CC
330
1F
100
AcDbEntity
  8
0
  6
Continuous
 62
     7
370
    25
100
AcDbLine
 10
-54.7554845955
 20
112.0268223209
 30
0.0
 11
-49.0054845955
 21
112.0268223209
 31
0.0
  0
LINE
  5
4CD
330
1F
100
AcDbEntity
  8
0
  6
Continuous
 62
     7
370
    25
100
AcDbLine
 10
-49.0054845955
 20
125.0268223209
 30
0.0
 11
-54.7554845955
 21
125.0268223209
 31
0.0
  0
LINE
  5
4CE
330
1F
100
AcDbEntity
  8
0
  6
Continuous
 62
     7
370
    25
100
AcDbLine
 10
-54.7554845955
 20
125.0268223209
 30
0.0
 11
-55.0054845955
 21
124.7768223209
 31
0.0
  0
LINE
  5
4CF
330
1F
100
AcDbEntity
  8
0
  6
Continuous
 62
     7
370
    25
100
AcDbLine
 10
-55.0054845955
 20
112.2768223209
 30
0.0
 11
-54.7554845955
 21
112.0268223209
 31
0.0
  0
LINE
  5
4D0
330
1F
100
AcDbEntity
  8
0
  6
Continuous
 62
     7
370
    25
100
AcDbLine
 10
-97.5163736646
 20
124.5268223209
 30
0.0
 11
-98.5163736646
 21
124.5268223209
 31
0.0
  0
LINE
  5
4D1
330
1F
100
AcDbEntity
  8
0
  6
Continuous
 62
     7
370
    25
100
AcDbLine
 10
-98.5163736646
 20
112.5268223209
 30
0.0
 11
-97.5163736646
 21
112.5268223209
 31
0.0
  0
LINE
  5
4D2
330
1F
100
AcDbEntity
  8
0
  6
Continuous
 62
     7
370
    25
100
AcDbLine
 10
-46.0054845955
 20
112.5268223209
 30
0.0
 11
-45.0054845955
 21
112.5268223209
 31
0.0
  0
LINE
  5
4D3
330
1F
100
AcDbEntity
  8
0
  6
Continuous
 62
     7
370
    25
100
AcDbLine
 10
-45.0054845955
 20
124.5268223209
 30
0.0
 11
-46.0054845955
 21
124.5268223209
 31
0.0
  0
LINE
  5
4D4
330
1F
100
AcDbEntity
  8
0
  6
Continuous
 62
     7
370
    25
100
AcDbLine
 10
-62.0054845955
 20
118.9201574213
 30
0.0
 11
-62.0054845955
 21
121.4768223209
 31
0.0
  0
ARC
  5
4D5
330
1F
100
AcDbEntity
  8
0
  6
Continuous
 62
     7
370
    25
100
AcDbCircle
 10
-61.9677623713
 20
118.8280745166
 30
0.0
 40
0.0995099368727115
100
AcDbArc
 50
82.9126484446
 51
112.2767057316
  0
LINE
  5
4D6
330
1F
100
AcDbEntity
  8
0
  6
Continuous
 62
     7
370
    25
100
AcDbLine
 10
-61.9554845955
 20
118.9010049708
 30
0.0
 11
-61.9554845955
 21
118.9268241179
 31
0.0
  0
LWPOLYLINE
  5
4D7
330
1F
100
AcDbEntity
  8
0
  6
Continuous
 62
     7
370
    25
100
AcDbPolyline
 90
        9
 70
   128
 43
0.0
 10
-61.9554845955
 20
118.9010049708
 10
-61.9652391116
 20
118.9013729798
 10
-61.9746187671
 20
118.9024628643
 10
-61.9832631072
 20
118.9042327407
 10
-61.9908399346
 20
118.9066145937
 10
-61.9970580761
 20
118.9095168899
 10
-62.0016785721
 20
118.9128280958
 10
-62.0045238595
 20
118.9164209635
 10
-62.0054845955
 20
118.9201574213
  0
LINE
  5
4D8
330
1F
100
AcDbEntity
  8
0
  6
Continuous
 62
     7
370
    25
100
AcDbLine
 10
-61.9554845955
 20
118.9010049708
 30
0.0
 11
-61.9554845955
 21
116.1607848291
 31
0.0
  0
LWPOLYLINE
  5
4D9
330
1F
100
AcDbEntity
  8
0
  6
Continuous
 62
     7
370
    25
100
AcDbPolyline
 90
        9
 70
   128
 43
0.0
 10
-61.9554845955
 20
116.1607848291
 10
-61.9652391116
 20
116.1611528381
 10
-61.9746187671
 20
116.1622427226
 10
-61.9832631072
 20
116.164012599
 10
-61.9908399346
 20
116.1663944519
 10
-61.9970580761
 20
116.1692967482
 10
-62.0016785721
 20
116.172607954
 10
-62.0045238595
 20
116.1762008218
 10
-62.0054845955
 20
116.1799372795
  0
LINE
  5
4DA
330
1F
100
AcDbEntity
  8
0
  6
Continuous
 62
     7
370
    25
100
AcDbLine
 10
-62.0054845955
 20
116.1799372795
 30
0.0
 11
-62.0054845955
 21
118.9201574213
 31
0.0
  0
LINE
  5
4DB
330
1F
100
AcDbEntity
  8
0
  6
Continuous
 62
     7
370
    25
100
AcDbLine
 10
-61.9554845955
 20
116.1401595669
 30
0.0
 11
-61.9554845955
 21
116.1607848291
 31
0.0
  0
ARC
  5
4DC
330
1F
100
AcDbEntity
  8
0
  6
Continuous
 62
     7
370
    25
100
AcDbCircle
 10
-61.9600732634
 20
116.1857051676
 30
0.0
 40
0.0457761686373402
100
AcDbArc
 50
187.2386228288
 51
275.7530723875
  0
LINE
  5
4DD
330
1F
100
AcDbEntity
  8
0
  6
Continuous
 62
     7
370
    25
100
AcDbLine
 10
-62.0054845955
 20
115.5768223209
 30
0.0
 11
-62.0054845955
 21
116.1799372795
 31
0.0
  0
LINE
  5
4DE
330
1F
100
AcDbEntity
  8
0
  6
Continuous
 62
     7
370
    25
100
AcDbLine
 10
-62.9313352029
 20
116.5268223209
 30
0.0
 11
-62.9313352029
 21
120.5268223209
 31
0.0
  0
LINE
  5
4DF
330
1F
100
AcDbEntity
  8
0
  6
Continuous
 62
     7
370
    25
100
AcDbLine
 10
-63.2044161428
 20
116.9168223209
 30
0.0
 11
-63.2044161428
 21
120.1368223209
 31
0.0
  0
LINE
  5
4E0
330
1F
100
AcDbEntity
  8
0
  6
Continuous
 62
     7
370
    25
100
AcDbLine
 10
-63.6193786812
 20
116.5268223209
 30
0.0
 11
-63.6193786812
 21
120.5268223209
 31
0.0
  0
LINE
  5
4E1
330
1F
100
AcDbEntity
  8
0
  6
Continuous
 62
     7
370
    25
100
AcDbLine
 10
-63.4774970827
 20
116.5268223209
 30
0.0
 11
-63.4774970827
 21
120.5268223209
 31
0.0
  0
LINE
  5
4E2
330
1F
100
AcDbEntity
  8
0
  6
Continuous
 62
     7
370
    25
100
AcDbLine
 10
-63.8924596211
 20
116.9168223209
 30
0.0
 11
-63.8924596211
 21
120.1368223209
 31
0.0
  0
LINE
  5
4E3
330
1F
100
AcDbEntity
  8
0
  6
Continuous
 62
     7
370
    25
100
AcDbLine
 10
-62.9063736646
 20
117.7446906562
 30
0.0
 11
-62.9063736646
 21
120.5268223209
 31
0.0
  0
LINE
  5
4E4
330
1F
100
AcDbEntity
  8
0
  6
Continuous
 62
     7
370
    25
100
AcDbLine
 10
-62.9063736646
 20
116.5268223209
 30
0.0
 11
-62.9063736646
 21
117.7446906562
 31
0.0
  0
LINE
  5
4E5
330
1F
100
AcDbEntity
  8
0
  6
Continuous
 62
     7
370
    25
100
AcDbLine
 10
-65.2685465776
 20
116.9168223209
 30
0.0
 11
-65.2685465776
 21
120.1368223209
 31
0.0
  0
LINE
  5
4E6
330
1F
100
AcDbEntity
  8
0
  6
Continuous
 62
     7
370
    25
100
AcDbLine
 10
-65.5416275175
 20
116.5268223209
 30
0.0
 11
-65.5416275175
 21
120.5268223209
 31
0.0
  0
LINE
  5
4E7
330
1F
100
AcDbEntity
  8
0
  6
Continuous
 62
     7
370
    25
100
AcDbLine
 10
-65.9565900559
 20
116.9168223209
 30
0.0
 11
-65.9565900559
 21
120.1368223209
 31
0.0
  0
LINE
  5
4E8
330
1F
100
AcDbEntity
  8
0
  6
Continuous
 62
     7
370
    25
100
AcDbLine
 10
-66.2296709958
 20
116.5268223209
 30
0.0
 11
-66.2296709958
 21
120.5268223209
 31
0.0
  0
LINE
  5
4E9
330
1F
100
AcDbEntity
  8
0
  6
Continuous
 62
     7
370
    25
100
AcDbLine
 10
-64.9954656377
 20
116.5268223209
 30
0.0
 11
-64.9954656377
 21
120.5268223209
 31
0.0
  0
LINE
  5
4EA
330
1F
100
AcDbEntity
  8
0
  6
Continuous
 62
     7
370
    25
100
AcDbLine
 10
-64.8535840393
 20
116.5268223209
 30
0.0
 11
-64.8535840393
 21
120.5268223209
 31
0.0
  0
LINE
  5
4EB
330
1F
100
AcDbEntity
  8
0
  6
Continuous
 62
     7
370
    25
100
AcDbLine
 10
-66.3715525942
 20
116.5268223209
 30
0.0
 11
-66.3715525942
 21
120.5268223209
 31
0.0
  0
LINE
  5
4EC
330
1F
100
AcDbEntity
  8
0
  6
Continuous
 62
     7
370
    25
100
AcDbLine
 10
-66.6446335341
 20
116.9168223209
 30
0.0
 11
-66.6446335341
 21
120.1368223209
 31
0.0
  0
LINE
  5
4ED
330
1F
100
AcDbEntity
  8
0
  6
Continuous
 62
     7
370
    25
100
AcDbLine
 10
-67.3326770124
 20
116.9168223209
 30
0.0
 11
-67.3326770124
 21
120.1368223209
 31
0.0
  0
LINE
  5
4EE
330
1F
100
AcDbEntity
  8
0
  6
Continuous
 62
     7
370
    25
100
AcDbLine
 10
-67.6057579523
 20
116.5268223209
 30
0.0
 11
-67.6057579523
 21
120.5268223209
 31
0.0
  0
LINE
  5
4EF
330
1F
100
AcDbEntity
  8
0
  6
Continuous
 62
     7
370
    25
100
AcDbLine
 10
-65.683509116
 20
116.5268223209
 30
0.0
 11
-65.683509116
 21
120.5268223209
 31
0.0
  0
LINE
  5
4F0
330
1F
100
AcDbEntity
  8
0
  6
Continuous
 62
     7
370
    25
100
AcDbLine
 10
-67.0595960725
 20
116.5268223209
 30
0.0
 11
-67.0595960725
 21
120.5268223209
 31
0.0
  0
LINE
  5
4F1
330
1F
100
AcDbEntity
  8
0
  6
Continuous
 62
     7
370
    25
100
AcDbLine
 10
-66.917714474
 20
116.5268223209
 30
0.0
 11
-66.917714474
 21
120.5268223209
 31
0.0
  0
LINE
  5
4F2
330
1F
100
AcDbEntity
  8
0
  6
Continuous
 62
     7
370
    25
100
AcDbLine
 10
-64.5805030994
 20
116.9168223209
 30
0.0
 11
-64.5805030994
 21
120.1368223209
 31
0.0
  0
LINE
  5
4F3
330
1F
100
AcDbEntity
  8
0
  6
Continuous
 62
     7
370
    25
100
AcDbLine
 10
-67.7476395508
 20
116.5268223209
 30
0.0
 11
-67.7476395508
 21
120.5268223209
 31
0.0
  0
LINE
  5
4F4
330
1F
100
AcDbEntity
  8
0
  6
Continuous
 62
     7
370
    25
100
AcDbLine
 10
-64.3074221594
 20
116.5268223209
 30
0.0
 11
-64.3074221594
 21
120.5268223209
 31
0.0
  0
LINE
  5
4F5
330
1F
100
AcDbEntity
  8
0
  6
Continuous
 62
     7
370
    25
100
AcDbLine
 10
-64.165540561
 20
116.5268223209
 30
0.0
 11
-64.165540561
 21
120.5268223209
 31
0.0
  0
LINE
  5
4F6
330
1F
100
AcDbEntity
  8
0
  6
Continuous
 62
     7
370
    25
100
AcDbLine
 10
-68.0207204907
 20
116.9168223209
 30
0.0
 11
-68.0207204907
 21
120.1368223209
 31
0.0
  0
LINE
  5
4F7
330
1F
100
AcDbEntity
  8
0
  6
Continuous
 62
     7
370
    25
100
AcDbLine
 10
-71.1878569421
 20
116.5268223209
 30
0.0
 11
-71.1878569421
 21
120.5268223209
 31
0.0
  0
LINE
  5
4F8
330
1F
100
AcDbEntity
  8
0
  6
Continuous
 62
     7
370
    25
100
AcDbLine
 10
-71.0459753436
 20
116.5268223209
 30
0.0
 11
-71.0459753436
 21
120.5268223209
 31
0.0
  0
LINE
  5
4F9
330
1F
100
AcDbEntity
  8
0
  6
Continuous
 62
     7
370
    25
100
AcDbLine
 10
-68.435683029
 20
116.5268223209
 30
0.0
 11
-68.435683029
 21
120.5268223209
 31
0.0
  0
LINE
  5
4FA
330
1F
100
AcDbEntity
  8
0
  6
Continuous
 62
     7
370
    25
100
AcDbLine
 10
-68.7087639689
 20
116.9168223209
 30
0.0
 11
-68.7087639689
 21
120.1368223209
 31
0.0
  0
LINE
  5
4FB
330
1F
100
AcDbEntity
  8
0
  6
Continuous
 62
     7
370
    25
100
AcDbLine
 10
-69.1237265073
 20
116.5268223209
 30
0.0
 11
-69.1237265073
 21
120.5268223209
 31
0.0
  0
LINE
  5
4FC
330
1F
100
AcDbEntity
  8
0
  6
Continuous
 62
     7
370
    25
100
AcDbLine
 10
-68.9818449088
 20
116.5268223209
 30
0.0
 11
-68.9818449088
 21
120.5268223209
 31
0.0
  0
LINE
  5
4FD
330
1F
100
AcDbEntity
  8
0
  6
Continuous
 62
     7
370
    25
100
AcDbLine
 10
-68.2938014306
 20
116.5268223209
 30
0.0
 11
-68.2938014306
 21
120.5268223209
 31
0.0
  0
LINE
  5
4FE
330
1F
100
AcDbEntity
  8
0
  6
Continuous
 62
     7
370
    25
100
AcDbLine
 10
-69.8117699855
 20
116.5268223209
 30
0.0
 11
-69.8117699855
 21
120.5268223209
 31
0.0
  0
LINE
  5
4FF
330
1F
100
AcDbEntity
  8
0
  6
Continuous
 62
     7
370
    25
100
AcDbLine
 10
-70.0848509254
 20
116.9168223209
 30
0.0
 11
-70.0848509254
 21
120.1368223209
 31
0.0
  0
LINE
  5
500
330
1F
100
AcDbEntity
  8
0
  6
Continuous
 62
     7
370
    25
100
AcDbLine
 10
-71.460937882
 20
116.9168223209
 30
0.0
 11
-71.460937882
 21
120.1368223209
 31
0.0
  0
LINE
  5
501
330
1F
100
AcDbEntity
  8
0
  6
Continuous
 62
     7
370
    25
100
AcDbLine
 10
-70.3579318653
 20
116.5268223209
 30
0.0
 11
-70.3579318653
 21
120.5268223209
 31
0.0
  0
LINE
  5
502
330
1F
100
AcDbEntity
  8
0
  6
Continuous
 62
     7
370
    25
100
AcDbLine
 10
-70.4998134638
 20
116.5268223209
 30
0.0
 11
-70.4998134638
 21
120.5268223209
 31
0.0
  0
LINE
  5
503
330
1F
100
AcDbEntity
  8
0
  6
Continuous
 62
     7
370
    25
100
AcDbLine
 10
-69.3968074472
 20
116.9168223209
 30
0.0
 11
-69.3968074472
 21
120.1368223209
 31
0.0
  0
LINE
  5
504
330
1F
100
AcDbEntity
  8
0
  6
Continuous
 62
     7
370
    25
100
AcDbLine
 10
-69.6698883871
 20
116.5268223209
 30
0.0
 11
-69.6698883871
 21
120.5268223209
 31
0.0
  0
LINE
  5
505
330
1F
100
AcDbEntity
  8
0
  6
Continuous
 62
     7
370
    25
100
AcDbLine
 10
-71.7340188219
 20
116.5268223209
 30
0.0
 11
-71.7340188219
 21
120.5268223209
 31
0.0
  0
LINE
  5
506
330
1F
100
AcDbEntity
  8
0
  6
Continuous
 62
     7
370
    25
100
AcDbLine
 10
-70.7728944037
 20
116.9168223209
 30
0.0
 11
-70.7728944037
 21
120.1368223209
 31
0.0
  0
LINE
  5
507
330
1F
100
AcDbEntity
  8
0
  6
Continuous
 62
     7
370
    25
100
AcDbLine
 10
-73.9400308551
 20
116.5268223209
 30
0.0
 11
-73.9400308551
 21
120.5268223209
 31
0.0
  0
LINE
  5
508
330
1F
100
AcDbEntity
  8
0
  6
Continuous
 62
     7
370
    25
100
AcDbLine
 10
-73.7981492566
 20
116.5268223209
 30
0.0
 11
-73.7981492566
 21
120.5268223209
 31
0.0
  0
LINE
  5
509
330
1F
100
AcDbEntity
  8
0
  6
Continuous
 62
     7
370
    25
100
AcDbLine
 10
-73.2519873768
 20
116.5268223209
 30
0.0
 11
-73.2519873768
 21
120.5268223209
 31
0.0
  0
LINE
  5
50A
330
1F
100
AcDbEntity
  8
0
  6
Continuous
 62
     7
370
    25
100
AcDbLine
 10
-73.5250683167
 20
116.9168223209
 30
0.0
 11
-73.5250683167
 21
120.1368223209
 31
0.0
  0
LINE
  5
50B
330
1F
100
AcDbEntity
  8
0
  6
Continuous
 62
     7
370
    25
100
AcDbLine
 10
-75.3161178116
 20
116.5268223209
 30
0.0
 11
-75.3161178116
 21
120.5268223209
 31
0.0
  0
LINE
  5
50C
330
1F
100
AcDbEntity
  8
0
  6
Continuous
 62
     7
370
    25
100
AcDbLine
 10
-75.1742362132
 20
116.5268223209
 30
0.0
 11
-75.1742362132
 21
120.5268223209
 31
0.0
  0
LINE
  5
50D
330
1F
100
AcDbEntity
  8
0
  6
Continuous
 62
     7
370
    25
100
AcDbLine
 10
-62.5163736646
 20
117.8972063308
 30
0.0
 11
-62.5163736646
 21
120.1368223209
 31
0.0
  0
LINE
  5
50E
330
1F
100
AcDbEntity
  8
0
  6
Continuous
 62
     7
370
    25
100
AcDbLine
 10
-62.5163736646
 20
116.9168223209
 30
0.0
 11
-62.5163736646
 21
117.8972063308
 31
0.0
  0
LINE
  5
50F
330
1F
100
AcDbEntity
  8
0
  6
Continuous
 62
     7
370
    25
100
AcDbLine
 10
-74.213111795
 20
116.9168223209
 30
0.0
 11
-74.213111795
 21
120.1368223209
 31
0.0
  0
LINE
  5
510
330
1F
100
AcDbEntity
  8
0
  6
Continuous
 62
     7
370
    25
100
AcDbLine
 10
-74.4861927349
 20
116.5268223209
 30
0.0
 11
-74.4861927349
 21
120.5268223209
 31
0.0
  0
LINE
  5
511
330
1F
100
AcDbEntity
  8
0
  6
Continuous
 62
     7
370
    25
100
AcDbLine
 10
-71.8759004203
 20
116.5268223209
 30
0.0
 11
-71.8759004203
 21
120.5268223209
 31
0.0
  0
LINE
  5
512
330
1F
100
AcDbEntity
  8
0
  6
Continuous
 62
     7
370
    25
100
AcDbLine
 10
-75.5891987515
 20
116.9168223209
 30
0.0
 11
-75.5891987515
 21
120.1368223209
 31
0.0
  0
LINE
  5
513
330
1F
100
AcDbEntity
  8
0
  6
Continuous
 62
     7
370
    25
100
AcDbLine
 10
-75.8622796914
 20
116.5268223209
 30
0.0
 11
-75.8622796914
 21
120.5268223209
 31
0.0
  0
LINE
  5
514
330
1F
100
AcDbEntity
  8
0
  6
Continuous
 62
     7
370
    25
100
AcDbLine
 10
-74.6280743334
 20
116.5268223209
 30
0.0
 11
-74.6280743334
 21
120.5268223209
 31
0.0
  0
LINE
  5
515
330
1F
100
AcDbEntity
  8
0
  6
Continuous
 62
     7
370
    25
100
AcDbLine
 10
-74.9011552733
 20
116.9168223209
 30
0.0
 11
-74.9011552733
 21
120.1368223209
 31
0.0
  0
LINE
  5
516
330
1F
100
AcDbEntity
  8
0
  6
Continuous
 62
     7
370
    25
100
AcDbLine
 10
-72.1489813602
 20
116.9168223209
 30
0.0
 11
-72.1489813602
 21
120.1368223209
 31
0.0
  0
LINE
  5
517
330
1F
100
AcDbEntity
  8
0
  6
Continuous
 62
     7
370
    25
100
AcDbLine
 10
-72.4220623001
 20
116.5268223209
 30
0.0
 11
-72.4220623001
 21
120.5268223209
 31
0.0
  0
LINE
  5
518
330
1F
100
AcDbEntity
  8
0
  6
Continuous
 62
     7
370
    25
100
AcDbLine
 10
-72.5639438986
 20
116.5268223209
 30
0.0
 11
-72.5639438986
 21
120.5268223209
 31
0.0
  0
LINE
  5
519
330
1F
100
AcDbEntity
  8
0
  6
Continuous
 62
     7
370
    25
100
AcDbLine
 10
-73.1101057784
 20
116.5268223209
 30
0.0
 11
-73.1101057784
 21
120.5268223209
 31
0.0
  0
LINE
  5
51A
330
1F
100
AcDbEntity
  8
0
  6
Continuous
 62
     7
370
    25
100
AcDbLine
 10
-72.8370248385
 20
116.9168223209
 30
0.0
 11
-72.8370248385
 21
120.1368223209
 31
0.0
  0
LINE
  5
51B
330
1F
100
AcDbEntity
  8
0
  6
Continuous
 62
     7
370
    25
100
AcDbLine
 10
-77.3802482464
 20
116.5268223209
 30
0.0
 11
-77.3802482464
 21
120.5268223209
 31
0.0
  0
LINE
  5
51C
330
1F
100
AcDbEntity
  8
0
  6
Continuous
 62
     7
370
    25
100
AcDbLine
 10
-77.2383666479
 20
116.5268223209
 30
0.0
 11
-77.2383666479
 21
120.5268223209
 31
0.0
  0
LINE
  5
51D
330
1F
100
AcDbEntity
  8
0
  6
Continuous
 62
     7
370
    25
100
AcDbLine
 10
-78.0682917247
 20
116.5268223209
 30
0.0
 11
-78.0682917247
 21
120.5268223209
 31
0.0
  0
LINE
  5
51E
330
1F
100
AcDbEntity
  8
0
  6
Continuous
 62
     7
370
    25
100
AcDbLine
 10
-77.9264101262
 20
116.5268223209
 30
0.0
 11
-77.9264101262
 21
120.5268223209
 31
0.0
  0
LINE
  5
51F
330
1F
100
AcDbEntity
  8
0
  6
Continuous
 62
     7
370
    25
100
AcDbLine
 10
-77.6533291863
 20
116.9168223209
 30
0.0
 11
-77.6533291863
 21
120.1368223209
 31
0.0
  0
LINE
  5
520
330
1F
100
AcDbEntity
  8
0
  6
Continuous
 62
     7
370
    25
100
AcDbLine
 10
-76.0041612899
 20
116.5268223209
 30
0.0
 11
-76.0041612899
 21
120.5268223209
 31
0.0
  0
LINE
  5
521
330
1F
100
AcDbEntity
  8
0
  6
Continuous
 62
     7
370
    25
100
AcDbLine
 10
-78.3413726646
 20
116.9168223209
 30
0.0
 11
-78.3413726646
 21
120.1368223209
 31
0.0
  0
LINE
  5
522
330
1F
100
AcDbEntity
  8
0
  6
Continuous
 62
     7
370
    25
100
AcDbLine
 10
-76.2772422298
 20
116.9168223209
 30
0.0
 11
-76.2772422298
 21
120.1368223209
 31
0.0
  0
LINE
  5
523
330
1F
100
AcDbEntity
  8
0
  6
Continuous
 62
     7
370
    25
100
AcDbLine
 10
-78.7563352029
 20
116.5268223209
 30
0.0
 11
-78.7563352029
 21
120.5268223209
 31
0.0
  0
LINE
  5
524
330
1F
100
AcDbEntity
  8
0
  6
Continuous
 62
     7
370
    25
100
AcDbLine
 10
-78.6144536045
 20
116.5268223209
 30
0.0
 11
-78.6144536045
 21
120.5268223209
 31
0.0
  0
LINE
  5
525
330
1F
100
AcDbEntity
  8
0
  6
Continuous
 62
     7
370
    25
100
AcDbLine
 10
-79.0294161428
 20
116.9168223209
 30
0.0
 11
-79.0294161428
 21
120.1368223209
 31
0.0
  0
LINE
  5
526
330
1F
100
AcDbEntity
  8
0
  6
Continuous
 62
     7
370
    25
100
AcDbLine
 10
-79.3024970827
 20
116.5268223209
 30
0.0
 11
-79.3024970827
 21
120.5268223209
 31
0.0
  0
LINE
  5
527
330
1F
100
AcDbEntity
  8
0
  6
Continuous
 62
     7
370
    25
100
AcDbLine
 10
-76.6922047681
 20
116.5268223209
 30
0.0
 11
-76.6922047681
 21
120.5268223209
 31
0.0
  0
LINE
  5
528
330
1F
100
AcDbEntity
  8
0
  6
Continuous
 62
     7
370
    25
100
AcDbLine
 10
-76.5503231697
 20
116.5268223209
 30
0.0
 11
-76.5503231697
 21
120.5268223209
 31
0.0
  0
LINE
  5
529
330
1F
100
AcDbEntity
  8
0
  6
Continuous
 62
     7
370
    25
100
AcDbLine
 10
-79.4443786812
 20
116.5268223209
 30
0.0
 11
-79.4443786812
 21
120.5268223209
 31
0.0
  0
LINE
  5
52A
330
1F
100
AcDbEntity
  8
0
  6
Continuous
 62
     7
370
    25
100
AcDbLine
 10
-79.7174596211
 20
116.9168223209
 30
0.0
 11
-79.7174596211
 21
120.1368223209
 31
0.0
  0
LINE
  5
52B
330
1F
100
AcDbEntity
  8
0
  6
Continuous
 62
     7
370
    25
100
AcDbLine
 10
-76.965285708
 20
116.9168223209
 30
0.0
 11
-76.965285708
 21
120.1368223209
 31
0.0
  0
LINE
  5
52C
330
1F
100
AcDbEntity
  8
0
  6
Continuous
 62
     7
370
    25
100
AcDbLine
 10
-82.1965525942
 20
116.5268223209
 30
0.0
 11
-82.1965525942
 21
120.5268223209
 31
0.0
  0
LINE
  5
52D
330
1F
100
AcDbEntity
  8
0
  6
Continuous
 62
     7
370
    25
100
AcDbLine
 10
-82.0546709958
 20
116.5268223209
 30
0.0
 11
-82.0546709958
 21
120.5268223209
 31
0.0
  0
LINE
  5
52E
330
1F
100
AcDbEntity
  8
0
  6
Continuous
 62
     7
370
    25
100
AcDbLine
 10
-82.4696335341
 20
116.9168223209
 30
0.0
 11
-82.4696335341
 21
120.1368223209
 31
0.0
  0
LINE
  5
52F
330
1F
100
AcDbEntity
  8
0
  6
Continuous
 62
     7
370
    25
100
AcDbLine
 10
-82.742714474
 20
116.5268223209
 30
0.0
 11
-82.742714474
 21
120.5268223209
 31
0.0
  0
LINE
  5
530
330
1F
100
AcDbEntity
  8
0
  6
Continuous
 62
     7
370
    25
100
AcDbLine
 10
-81.508509116
 20
116.5268223209
 30
0.0
 11
-81.508509116
 21
120.5268223209
 31
0.0
  0
LINE
  5
531
330
1F
100
AcDbEntity
  8
0
  6
Continuous
 62
     7
370
    25
100
AcDbLine
 10
-81.7815900559
 20
116.9168223209
 30
0.0
 11
-81.7815900559
 21
120.1368223209
 31
0.0
  0
LINE
  5
532
330
1F
100
AcDbEntity
  8
0
  6
Continuous
 62
     7
370
    25
100
AcDbLine
 10
-83.5726395508
 20
116.5268223209
 30
0.0
 11
-83.5726395508
 21
120.5268223209
 31
0.0
  0
LINE
  5
533
330
1F
100
AcDbEntity
  8
0
  6
Continuous
 62
     7
370
    25
100
AcDbLine
 10
-83.8457204907
 20
116.9168223209
 30
0.0
 11
-83.8457204907
 21
120.1368223209
 31
0.0
  0
LINE
  5
534
330
1F
100
AcDbEntity
  8
0
  6
Continuous
 62
     7
370
    25
100
AcDbLine
 10
-79.990540561
 20
116.5268223209
 30
0.0
 11
-79.990540561
 21
120.5268223209
 31
0.0
  0
LINE
  5
535
330
1F
100
AcDbEntity
  8
0
  6
Continuous
 62
     7
370
    25
100
AcDbLine
 10
-82.8845960725
 20
116.5268223209
 30
0.0
 11
-82.8845960725
 21
120.5268223209
 31
0.0
  0
LINE
  5
536
330
1F
100
AcDbEntity
  8
0
  6
Continuous
 62
     7
370
    25
100
AcDbLine
 10
-80.4055030994
 20
116.9168223209
 30
0.0
 11
-80.4055030994
 21
120.1368223209
 31
0.0
  0
LINE
  5
537
330
1F
100
AcDbEntity
  8
0
  6
Continuous
 62
     7
370
    25
100
AcDbLine
 10
-80.6785840393
 20
116.5268223209
 30
0.0
 11
-80.6785840393
 21
120.5268223209
 31
0.0
  0
LINE
  5
538
330
1F
100
AcDbEntity
  8
0
  6
Continuous
 62
     7
370
    25
100
AcDbLine
 10
-80.1324221594
 20
116.5268223209
 30
0.0
 11
-80.1324221594
 21
120.5268223209
 31
0.0
  0
LINE
  5
539
330
1F
100
AcDbEntity
  8
0
  6
Continuous
 62
     7
370
    25
100
AcDbLine
 10
-81.3666275175
 20
116.5268223209
 30
0.0
 11
-81.3666275175
 21
120.5268223209
 31
0.0
  0
LINE
  5
53A
330
1F
100
AcDbEntity
  8
0
  6
Continuous
 62
     7
370
    25
100
AcDbLine
 10
-83.1576770124
 20
116.9168223209
 30
0.0
 11
-83.1576770124
 21
120.1368223209
 31
0.0
  0
LINE
  5
53B
330
1F
100
AcDbEntity
  8
0
  6
Continuous
 62
     7
370
    25
100
AcDbLine
 10
-83.4307579523
 20
116.5268223209
 30
0.0
 11
-83.4307579523
 21
120.5268223209
 31
0.0
  0
LINE
  5
53C
330
1F
100
AcDbEntity
  8
0
  6
Continuous
 62
     7
370
    25
100
AcDbLine
 10
-81.0935465776
 20
116.9168223209
 30
0.0
 11
-81.0935465776
 21
120.1368223209
 31
0.0
  0
LINE
  5
53D
330
1F
100
AcDbEntity
  8
0
  6
Continuous
 62
     7
370
    25
100
AcDbLine
 10
-80.8204656377
 20
116.5268223209
 30
0.0
 11
-80.8204656377
 21
120.5268223209
 31
0.0
  0
LINE
  5
53E
330
1F
100
AcDbEntity
  8
0
  6
Continuous
 62
     7
370
    25
100
AcDbLine
 10
-84.1188014306
 20
116.5268223209
 30
0.0
 11
-84.1188014306
 21
120.5268223209
 31
0.0
  0
LINE
  5
53F
330
1F
100
AcDbEntity
  8
0
  6
Continuous
 62
     7
370
    25
100
AcDbLine
 10
-85.9098509254
 20
116.9168223209
 30
0.0
 11
-85.9098509254
 21
120.1368223209
 31
0.0
  0
LINE
  5
540
330
1F
100
AcDbEntity
  8
0
  6
Continuous
 62
     7
370
    25
100
AcDbLine
 10
-86.1829318653
 20
116.5268223209
 30
0.0
 11
-86.1829318653
 21
120.5268223209
 31
0.0
  0
LINE
  5
541
330
1F
100
AcDbEntity
  8
0
  6
Continuous
 62
     7
370
    25
100
AcDbLine
 10
-86.5978944037
 20
116.9168223209
 30
0.0
 11
-86.5978944037
 21
120.1368223209
 31
0.0
  0
LINE
  5
542
330
1F
100
AcDbEntity
  8
0
  6
Continuous
 62
     7
370
    25
100
AcDbLine
 10
-86.8709753436
 20
116.5268223209
 30
0.0
 11
-86.8709753436
 21
120.5268223209
 31
0.0
  0
LINE
  5
543
330
1F
100
AcDbEntity
  8
0
  6
Continuous
 62
     7
370
    25
100
AcDbLine
 10
-85.6367699855
 20
116.5268223209
 30
0.0
 11
-85.6367699855
 21
120.5268223209
 31
0.0
  0
LINE
  5
544
330
1F
100
AcDbEntity
  8
0
  6
Continuous
 62
     7
370
    25
100
AcDbLine
 10
-86.3248134638
 20
116.5268223209
 30
0.0
 11
-86.3248134638
 21
120.5268223209
 31
0.0
  0
LINE
  5
545
330
1F
100
AcDbEntity
  8
0
  6
Continuous
 62
     7
370
    25
100
AcDbLine
 10
-84.5337639689
 20
116.9168223209
 30
0.0
 11
-84.5337639689
 21
120.1368223209
 31
0.0
  0
LINE
  5
546
330
1F
100
AcDbEntity
  8
0
  6
Continuous
 62
     7
370
    25
100
AcDbLine
 10
-84.8068449088
 20
116.5268223209
 30
0.0
 11
-84.8068449088
 21
120.5268223209
 31
0.0
  0
LINE
  5
547
330
1F
100
AcDbEntity
  8
0
  6
Continuous
 62
     7
370
    25
100
AcDbLine
 10
-87.0128569421
 20
116.5268223209
 30
0.0
 11
-87.0128569421
 21
120.5268223209
 31
0.0
  0
LINE
  5
548
330
1F
100
AcDbEntity
  8
0
  6
Continuous
 62
     7
370
    25
100
AcDbLine
 10
-84.9487265073
 20
116.5268223209
 30
0.0
 11
-84.9487265073
 21
120.5268223209
 31
0.0
  0
LINE
  5
549
330
1F
100
AcDbEntity
  8
0
  6
Continuous
 62
     7
370
    25
100
AcDbLine
 10
-87.285937882
 20
116.9168223209
 30
0.0
 11
-87.285937882
 21
120.1368223209
 31
0.0
  0
LINE
  5
54A
330
1F
100
AcDbEntity
  8
0
  6
Continuous
 62
     7
370
    25
100
AcDbLine
 10
-87.5590188219
 20
116.5268223209
 30
0.0
 11
-87.5590188219
 21
120.5268223209
 31
0.0
  0
LINE
  5
54B
330
1F
100
AcDbEntity
  8
0
  6
Continuous
 62
     7
370
    25
100
AcDbLine
 10
-84.260683029
 20
116.5268223209
 30
0.0
 11
-84.260683029
 21
120.5268223209
 31
0.0
  0
LINE
  5
54C
330
1F
100
AcDbEntity
  8
0
  6
Continuous
 62
     7
370
    25
100
AcDbLine
 10
-85.2218074472
 20
116.9168223209
 30
0.0
 11
-85.2218074472
 21
120.1368223209
 31
0.0
  0
LINE
  5
54D
330
1F
100
AcDbEntity
  8
0
  6
Continuous
 62
     7
370
    25
100
AcDbLine
 10
-85.4948883871
 20
116.5268223209
 30
0.0
 11
-85.4948883871
 21
120.5268223209
 31
0.0
  0
LINE
  5
54E
330
1F
100
AcDbEntity
  8
0
  6
Continuous
 62
     7
370
    25
100
AcDbLine
 10
-87.7009004203
 20
116.5268223209
 30
0.0
 11
-87.7009004203
 21
120.5268223209
 31
0.0
  0
LINE
  5
54F
330
1F
100
AcDbEntity
  8
0
  6
Continuous
 62
     7
370
    25
100
AcDbLine
 10
-90.7261552733
 20
116.9168223209
 30
0.0
 11
-90.7261552733
 21
120.1368223209
 31
0.0
  0
LINE
  5
550
330
1F
100
AcDbEntity
  8
0
  6
Continuous
 62
     7
370
    25
100
AcDbLine
 10
-90.9992362132
 20
116.5268223209
 30
0.0
 11
-90.9992362132
 21
120.5268223209
 31
0.0
  0
LINE
  5
551
330
1F
100
AcDbEntity
  8
0
  6
Continuous
 62
     7
370
    25
100
AcDbLine
 10
-88.6620248385
 20
116.9168223209
 30
0.0
 11
-88.6620248385
 21
120.1368223209
 31
0.0
  0
LINE
  5
552
330
1F
100
AcDbEntity
  8
0
  6
Continuous
 62
     7
370
    25
100
AcDbLine
 10
-88.9351057784
 20
116.5268223209
 30
0.0
 11
-88.9351057784
 21
120.5268223209
 31
0.0
  0
LINE
  5
553
330
1F
100
AcDbEntity
  8
0
  6
Continuous
 62
     7
370
    25
100
AcDbLine
 10
-87.9739813602
 20
116.9168223209
 30
0.0
 11
-87.9739813602
 21
120.1368223209
 31
0.0
  0
LINE
  5
554
330
1F
100
AcDbEntity
  8
0
  6
Continuous
 62
     7
370
    25
100
AcDbLine
 10
-90.4530743334
 20
116.5268223209
 30
0.0
 11
-90.4530743334
 21
120.5268223209
 31
0.0
  0
LINE
  5
555
330
1F
100
AcDbEntity
  8
0
  6
Continuous
 62
     7
370
    25
100
AcDbLine
 10
-90.3111927349
 20
116.5268223209
 30
0.0
 11
-90.3111927349
 21
120.5268223209
 31
0.0
  0
LINE
  5
556
330
1F
100
AcDbEntity
  8
0
  6
Continuous
 62
     7
370
    25
100
AcDbLine
 10
-88.3889438986
 20
116.5268223209
 30
0.0
 11
-88.3889438986
 21
120.5268223209
 31
0.0
  0
LINE
  5
557
330
1F
100
AcDbEntity
  8
0
  6
Continuous
 62
     7
370
    25
100
AcDbLine
 10
-88.2470623001
 20
116.5268223209
 30
0.0
 11
-88.2470623001
 21
120.5268223209
 31
0.0
  0
LINE
  5
558
330
1F
100
AcDbEntity
  8
0
  6
Continuous
 62
     7
370
    25
100
AcDbLine
 10
-89.0769873768
 20
116.5268223209
 30
0.0
 11
-89.0769873768
 21
120.5268223209
 31
0.0
  0
LINE
  5
559
330
1F
100
AcDbEntity
  8
0
  6
Continuous
 62
     7
370
    25
100
AcDbLine
 10
-91.4141987515
 20
116.9168223209
 30
0.0
 11
-91.4141987515
 21
120.1368223209
 31
0.0
  0
LINE
  5
55A
330
1F
100
AcDbEntity
  8
0
  6
Continuous
 62
     7
370
    25
100
AcDbLine
 10
-91.6872796914
 20
116.5268223209
 30
0.0
 11
-91.6872796914
 21
120.5268223209
 31
0.0
  0
LINE
  5
55B
330
1F
100
AcDbEntity
  8
0
  6
Continuous
 62
     7
370
    25
100
AcDbLine
 10
-91.1411178116
 20
116.5268223209
 30
0.0
 11
-91.1411178116
 21
120.5268223209
 31
0.0
  0
LINE
  5
55C
330
1F
100
AcDbEntity
  8
0
  6
Continuous
 62
     7
370
    25
100
AcDbLine
 10
-90.038111795
 20
116.9168223209
 30
0.0
 11
-90.038111795
 21
120.1368223209
 31
0.0
  0
LINE
  5
55D
330
1F
100
AcDbEntity
  8
0
  6
Continuous
 62
     7
370
    25
100
AcDbLine
 10
-89.7650308551
 20
116.5268223209
 30
0.0
 11
-89.7650308551
 21
120.5268223209
 31
0.0
  0
LINE
  5
55E
330
1F
100
AcDbEntity
  8
0
  6
Continuous
 62
     7
370
    25
100
AcDbLine
 10
-89.6231492566
 20
116.5268223209
 30
0.0
 11
-89.6231492566
 21
120.5268223209
 31
0.0
  0
LINE
  5
55F
330
1F
100
AcDbEntity
  8
0
  6
Continuous
 62
     7
370
    25
100
AcDbLine
 10
-89.3500683167
 20
116.9168223209
 30
0.0
 11
-89.3500683167
 21
120.1368223209
 31
0.0
  0
LINE
  5
560
330
1F
100
AcDbEntity
  8
0
  6
Continuous
 62
     7
370
    25
100
AcDbLine
 10
-92.5172047681
 20
116.5268223209
 30
0.0
 11
-92.5172047681
 21
120.5268223209
 31
0.0
  0
LINE
  5
561
330
1F
100
AcDbEntity
  8
0
  6
Continuous
 62
     7
370
    25
100
AcDbLine
 10
-92.3753231697
 20
116.5268223209
 30
0.0
 11
-92.3753231697
 21
120.5268223209
 31
0.0
  0
LINE
  5
562
330
1F
100
AcDbEntity
  8
0
  6
Continuous
 62
     7
370
    25
100
AcDbLine
 10
-92.790285708
 20
116.9168223209
 30
0.0
 11
-92.790285708
 21
120.1368223209
 31
0.0
  0
LINE
  5
563
330
1F
100
AcDbEntity
  8
0
  6
Continuous
 62
     7
370
    25
100
AcDbLine
 10
-93.8932917247
 20
116.5268223209
 30
0.0
 11
-93.8932917247
 21
120.5268223209
 31
0.0
  0
LINE
  5
564
330
1F
100
AcDbEntity
  8
0
  6
Continuous
 62
     7
370
    25
100
AcDbLine
 10
-94.1663726646
 20
116.9168223209
 30
0.0
 11
-94.1663726646
 21
120.1368223209
 31
0.0
  0
LINE
  5
565
330
1F
100
AcDbEntity
  8
0
  6
Continuous
 62
     7
370
    25
100
AcDbLine
 10
-91.8291612899
 20
116.5268223209
 30
0.0
 11
-91.8291612899
 21
120.5268223209
 31
0.0
  0
LINE
  5
566
330
1F
100
AcDbEntity
  8
0
  6
Continuous
 62
     7
370
    25
100
AcDbLine
 10
-92.1022422298
 20
116.9168223209
 30
0.0
 11
-92.1022422298
 21
120.1368223209
 31
0.0
  0
LINE
  5
567
330
1F
100
AcDbEntity
  8
0
  6
Continuous
 62
     7
370
    25
100
AcDbLine
 10
-93.0633666479
 20
116.5268223209
 30
0.0
 11
-93.0633666479
 21
120.5268223209
 31
0.0
  0
LINE
  5
568
330
1F
100
AcDbEntity
  8
0
  6
Continuous
 62
     7
370
    25
100
AcDbLine
 10
-93.2052482464
 20
116.5268223209
 30
0.0
 11
-93.2052482464
 21
120.5268223209
 31
0.0
  0
LINE
  5
569
330
1F
100
AcDbEntity
  8
0
  6
Continuous
 62
     7
370
    25
100
AcDbLine
 10
-93.4783291863
 20
116.9168223209
 30
0.0
 11
-93.4783291863
 21
120.1368223209
 31
0.0
  0
LINE
  5
56A
330
1F
100
AcDbEntity
  8
0
  6
Continuous
 62
     7
370
    25
100
AcDbLine
 10
-93.7514101262
 20
116.5268223209
 30
0.0
 11
-93.7514101262
 21
120.5268223209
 31
0.0
  0
LINE
  5
56B
330
1F
100
AcDbEntity
  8
0
  6
Continuous
 62
     7
370
    25
100
AcDbLine
 10
-94.4394536045
 20
116.5268223209
 30
0.0
 11
-94.4394536045
 21
120.5268223209
 31
0.0
  0
LINE
  5
56C
330
1F
100
AcDbEntity
  8
0
  6
Continuous
 62
     7
370
    25
100
AcDbLine
 10
-94.5163736646
 20
133.5268223209
 30
0.0
 11
-97.5163736646
 21
133.5268223209
 31
0.0
  0
LINE
  5
56D
330
1F
100
AcDbEntity
  8
0
  6
Continuous
 62
     7
370
    25
100
AcDbLine
 10
-97.5163736646
 20
133.5268223209
 30
0.0
 11
-97.5163736646
 21
138.5268223209
 31
0.0
  0
LINE
  5
56E
330
1F
100
AcDbEntity
  8
0
  6
Continuous
 62
     7
370
    25
100
AcDbLine
 10
-97.5163736646
 20
138.5268223209
 30
0.0
 11
-94.5163736646
 21
138.5268223209
 31
0.0
  0
LINE
  5
56F
330
1F
100
AcDbEntity
  8
0
  6
Continuous
 62
     7
370
    25
100
AcDbLine
 10
-94.5163736646
 20
138.5268223209
 30
0.0
 11
-94.5163736646
 21
133.5268223209
 31
0.0
  0
LINE
  5
570
330
1F
100
AcDbEntity
  8
0
  6
Continuous
 62
     7
370
    25
100
AcDbLine
 10
-97.5163736646
 20
103.5268223209
 30
0.0
 11
-94.5163736646
 21
103.5268223209
 31
0.0
  0
LINE
  5
571
330
1F
100
AcDbEntity
  8
0
  6
Continuous
 62
     7
370
    25
100
AcDbLine
 10
-97.5163736646
 20
133.5268223209
 30
0.0
 11
-97.5163736646
 21
103.5268223209
 31
0.0
  0
LINE
  5
572
330
1F
100
AcDbEntity
  8
0
  6
Continuous
 62
     7
370
    25
100
AcDbLine
 10
-94.5163736646
 20
133.5268223209
 30
0.0
 11
-94.5163736646
 21
103.5268223209
 31
0.0
  0
LINE
  5
573
330
1F
100
AcDbEntity
  8
0
  6
Continuous
 62
     7
370
    25
100
AcDbLine
 10
-94.5163736646
 20
98.5268223209
 30
0.0
 11
-97.5163736646
 21
98.5268223209
 31
0.0
  0
LINE
  5
574
330
1F
100
AcDbEntity
  8
0
  6
Continuous
 62
     7
370
    25
100
AcDbLine
 10
-97.5163736646
 20
98.5268223209
 30
0.0
 11
-97.5163736646
 21
103.5268223209
 31
0.0
  0
LINE
  5
575
330
1F
100
AcDbEntity
  8
0
  6
Continuous
 62
     7
370
    25
100
AcDbLine
 10
-94.5163736646
 20
103.5268223209
 30
0.0
 11
-94.5163736646
 21
98.5268223209
 31
0.0
  0
LINE
  5
576
330
1F
100
AcDbEntity
  8
0
  6
Continuous
 62
     7
370
    25
100
AcDbLine
 10
-46.0054845955
 20
133.5268223209
 30
0.0
 11
-49.0054845955
 21
133.5268223209
 31
0.0
  0
LINE
  5
577
330
1F
100
AcDbEntity
  8
0
  6
Continuous
 62
     7
370
    25
100
AcDbLine
 10
-46.0054845955
 20
103.5268223209
 30
0.0
 11
-46.0054845955
 21
133.5268223209
 31
0.0
  0
LINE
  5
578
330
1F
100
AcDbEntity
  8
0
  6
Continuous
 62
     7
370
    25
100
AcDbLine
 10
-49.0054845955
 20
103.5268223209
 30
0.0
 11
-46.0054845955
 21
103.5268223209
 31
0.0
  0
LINE
  5
579
330
1F
100
AcDbEntity
  8
0
  6
Continuous
 62
     7
370
    25
100
AcDbLine
 10
-49.0054845955
 20
103.5268223209
 30
0.0
 11
-49.0054845955
 21
133.5268223209
 31
0.0
  0
LINE
  5
57A
330
1F
100
AcDbEntity
  8
0
  6
Continuous
 62
     7
370
    25
100
AcDbLine
 10
-46.0054845955
 20
98.5268223209
 30
0.0
 11
-49.0054845955
 21
98.5268223209
 31
0.0
  0
LINE
  5
57B
330
1F
100
AcDbEntity
  8
0
  6
Continuous
 62
     7
370
    25
100
AcDbLine
 10
-49.0054845955
 20
98.5268223209
 30
0.0
 11
-49.0054845955
 21
103.5268223209
 31
0.0
  0
LINE
  5
57C
330
1F
100
AcDbEntity
  8
0
  6
Continuous
 62
     7
370
    25
100
AcDbLine
 10
-46.0054845955
 20
103.5268223209
 30
0.0
 11
-46.0054845955
 21
98.5268223209
 31
0.0
  0
LINE
  5
57D
330
1F
100
AcDbEntity
  8
0
  6
Continuous
 62
     7
370
    25
100
AcDbLine
 10
-49.0054845955
 20
138.5268223209
 30
0.0
 11
-46.0054845955
 21
138.5268223209
 31
0.0
  0
LINE
  5
57E
330
1F
100
AcDbEntity
  8
0
  6
Continuous
 62
     7
370
    25
100
AcDbLine
 10
-49.0054845955
 20
133.5268223209
 30
0.0
 11
-49.0054845955
 21
138.5268223209
 31
0.0
  0
LINE
  5
57F
330
1F
100
AcDbEntity
  8
0
  6
Continuous
 62
     7
370
    25
100
AcDbLine
 10
-46.0054845955
 20
138.5268223209
 30
0.0
 11
-46.0054845955
 21
133.5268223209
 31
0.0
  0
LINE
  5
580
330
1F
100
AcDbEntity
  8
0
  6
Continuous
 62
     7
370
    25
100
AcDbLine
 10
-36.1808845955
 20
123.5778223209
 30
0.0
 11
-36.1808845955
 21
123.5768223209
 31
0.0
  0
LINE
  5
581
330
1F
100
AcDbEntity
  8
0
  6
Continuous
 62
     7
370
    25
100
AcDbLine
 10
-33.6532845955
 20
123.5778223209
 30
0.0
 11
-33.6532845955
 21
123.5768223209
 31
0.0
  0
LINE
  5
582
330
1F
100
AcDbEntity
  8
0
  6
Continuous
 62
     7
370
    25
100
AcDbLine
 10
-38.7084845955
 20
123.5778223209
 30
0.0
 11
-38.7084845955
 21
123.5768223209
 31
0.0
  0
LINE
  5
583
330
1F
100
AcDbEntity
  8
0
  6
Continuous
 62
     7
370
    25
100
AcDbLine
 10
-107.3409736646
 20
123.5778223209
 30
0.0
 11
-107.3409736646
 21
123.5768223209
 31
0.0
  0
LINE
  5
584
330
1F
100
AcDbEntity
  8
0
  6
Continuous
 62
     7
370
    25
100
AcDbLine
 10
-104.8133736646
 20
123.5778223209
 30
0.0
 11
-104.8133736646
 21
123.5768223209
 31
0.0
  0
LINE
  5
585
330
1F
100
AcDbEntity
  8
0
  6
Continuous
 62
     7
370
    25
100
AcDbLine
 10
-109.8685736646
 20
123.5778223209
 30
0.0
 11
-109.8685736646
 21
123.5768223209
 31
0.0
  0
LINE
  5
586
330
1F
100
AcDbEntity
  8
0
  6
Continuous
 62
     7
370
    25
100
AcDbLine
 10
-107.5079736646
 20
123.5778223209
 30
0.0
 11
-107.1630736646
 21
123.5778223209
 31
0.0
  0
LINE
  5
587
330
1F
100
AcDbEntity
  8
0
  6
Continuous
 62
     7
370
    25
100
AcDbLine
 10
-57.8704952654
 20
114.5768223209
 30
0.0
 11
-57.8704952654
 21
115.5268223209
 31
0.0
  0
LINE
  5
588
330
1F
100
AcDbEntity
  8
0
  6
Continuous
 62
     7
370
    25
100
AcDbLine
 10
-57.8704952654
 20
121.5268223209
 30
0.0
 11
-57.8704952654
 21
122.5768223209
 31
0.0
  0
ARC
  5
589
330
1F
100
AcDbEntity
  8
0
  6
Continuous
 62
     7
370
    25
100
AcDbCircle
 10
-54.8704952654
 20
126.5768223209
 30
0.0
 40
4.999999999999997
100
AcDbArc
 50
233.1301023542
 51
268.4529482447
  0
ARC
  5
58A
330
1F
100
AcDbEntity
  8
0
  6
Continuous
 62
     7
370
    25
100
AcDbCircle
 10
-54.8704952654
 20
110.5768223209
 30
0.0
 40
5.000000000000016
100
AcDbArc
 50
98.109614456
 51
126.8698976458
  0
LINE
  5
58B
330
1F
100
AcDbEntity
  8
0
  6
Continuous
 62
     7
370
    25
100
AcDbLine
 10
-85.8704952654
 20
114.5768223209
 30
0.0
 11
-85.9098509254
 21
116.9168223209
 31
0.0
  0
LINE
  5
58C
330
1F
100
AcDbEntity
  8
0
  6
Continuous
 62
     7
370
    25
100
AcDbLine
 10
-85.9098509254
 20
120.1368223209
 30
0.0
 11
-85.8704952654
 21
122.5768223209
 31
0.0
  0
LINE
  5
58D
330
1F
100
AcDbEntity
  8
0
  6
Continuous
 62
     7
370
    25
100
AcDbLine
 10
-85.8704952654
 20
114.5768223209
 30
0.0
 11
-57.8704952654
 21
114.5768223209
 31
0.0
  0
LINE
  5
58E
330
1F
100
AcDbEntity
  8
0
  6
Continuous
 62
     7
370
    25
100
AcDbLine
 10
-85.8704952654
 20
122.5768223209
 30
0.0
 11
-57.8704952654
 21
122.5768223209
 31
0.0
  0
ARC
  5
58F
330
1F
100
AcDbEntity
  8
0
  6
Continuous
 62
     7
370
    25
100
AcDbCircle
 10
-88.8704952654
 20
110.5768223209
 30
0.0
 40
5.00000000000002
100
AcDbArc
 50
53.1301023542
 51
86.3021438424
  0
ARC
  5
590
330
1F
100
AcDbEntity
  8
0
  6
Continuous
 62
     7
370
    25
100
AcDbCircle
 10
-88.8704952654
 20
126.5768223209
 30
0.0
 40
4.999999999999993
100
AcDbArc
 50
274.288841335
 51
306.8698976458
  0
LINE
  5
591
330
1F
100
AcDbEntity
  8
0
  6
Continuous
 62
     7
370
    25
100
AcDbLine
 10
-88.7663736646
 20
112.1905809353
 30
0.0
 11
-88.7663736646
 21
116.767796753
 31
0.0
  0
LINE
  5
592
330
1F
100
AcDbEntity
  8
0
  6
Continuous
 62
     7
370
    25
100
AcDbLine
 10
-88.7663736646
 20
120.2858478889
 30
0.0
 11
-88.7663736646
 21
125.0268223209
 31
0.0
  0
LINE
  5
593
330
1F
100
AcDbEntity
  8
0
  6
Continuous
 62
     7
370
    25
100
AcDbLine
 10
-88.7663736646
 20
112.0268223209
 30
0.0
 11
-88.7663736646
 21
112.1905809353
 31
0.0
  0
LINE
  5
594
330
1F
100
AcDbEntity
  8
0
  6
Continuous
 62
     7
370
    25
100
AcDbLine
 10
-88.5163736646
 20
112.434282527
 30
0.0
 11
-88.5163736646
 21
112.2768223209
 31
0.0
  0
LINE
  5
595
330
1F
100
AcDbEntity
  8
0
  6
Continuous
 62
     7
370
    25
100
AcDbLine
 10
-88.5163736646
 20
124.7768223209
 30
0.0
 11
-88.5163736646
 21
120.3448337546
 31
0.0
  0
LINE
  5
596
330
1F
100
AcDbEntity
  8
0
  6
Continuous
 62
     7
370
    25
100
AcDbLine
 10
-88.5163736646
 20
116.7088108872
 30
0.0
 11
-88.5163736646
 21
112.434282527
 31
0.0
  0
LINE
  5
597
330
1F
100
AcDbEntity
  8
0
  6
Continuous
 62
     7
370
    25
100
AcDbLine
 10
-54.7554845955
 20
124.6242287376
 30
0.0
 11
-54.7554845955
 21
121.5268223209
 31
0.0
  0
LINE
  5
598
330
1F
100
AcDbEntity
  8
0
  6
Continuous
 62
     7
370
    25
100
AcDbLine
 10
-54.7554845955
 20
115.5268223209
 30
0.0
 11
-54.7554845955
 21
112.0268223209
 31
0.0
  0
LINE
  5
599
330
1F
100
AcDbEntity
  8
0
  6
Continuous
 62
     7
370
    25
100
AcDbLine
 10
-54.7554845955
 20
125.0268223209
 30
0.0
 11
-54.7554845955
 21
124.6242287376
 31
0.0
  0
LINE
  5
59A
330
1F
100
AcDbEntity
  8
0
  6
Continuous
 62
     7
370
    25
100
AcDbLine
 10
-55.0054845955
 20
124.3897131062
 30
0.0
 11
-55.0054845955
 21
124.7768223209
 31
0.0
  0
LINE
  5
59B
330
1F
100
AcDbEntity
  8
0
  6
Continuous
 62
     7
370
    25
100
AcDbLine
 10
-55.0054845955
 20
112.2768223209
 30
0.0
 11
-55.0054845955
 21
115.5749997768
 31
0.0
  0
LINE
  5
59C
330
1F
100
AcDbEntity
  8
0
  6
Continuous
 62
     7
370
    25
100
AcDbLine
 10
-55.0054845955
 20
121.578644865
 30
0.0
 11
-55.0054845955
 21
124.3897131062
 31
0.0
  0
LINE
  5
59D
330
1F
100
AcDbEntity
  8
0
  6
Continuous
 62
     7
370
    25
100
AcDbLine
 10
-98.5163736646
 20
124.5268223209
 30
0.0
 11
-98.5163736646
 21
123.5768223209
 31
0.0
  0
LINE
  5
59E
330
1F
100
AcDbEntity
  8
0
  6
Continuous
 62
     7
370
    25
100
AcDbLine
 10
-98.5163736646
 20
113.5768223209
 30
0.0
 11
-98.5163736646
 21
112.5268223209
 31
0.0
  0
LINE
  5
59F
330
1F
100
AcDbEntity
  8
0
  6
Continuous
 62
     7
370
    25
100
AcDbLine
 10
-45.0054845955
 20
112.5268223209
 30
0.0
 11
-45.0054845955
 21
113.5768223209
 31
0.0
  0
LINE
  5
5A0
330
1F
100
AcDbEntity
  8
0
  6
Continuous
 62
     7
370
    25
100
AcDbLine
 10
-45.0054845955
 20
123.5768223209
 30
0.0
 11
-45.0054845955
 21
124.5268223209
 31
0.0
  0
LINE
  5
5A1
330
1F
100
AcDbEntity
  8
0
  6
Continuous
 62
     7
370
    25
100
AcDbLine
 10
14.9945154045
 20
118.5768223209
 30
0.0
 11
4.9945154045
 21
118.5768223209
 31
0.0
  0
ARC
  5
5A2
330
1F
100
AcDbEntity
  8
0
  6
Continuous
 62
     7
370
    25
100
AcDbCircle
 10
9.9945154045
 20
118.5768223209
 30
0.0
 40
5.000000000000004
100
AcDbArc
 50
270.0
 51
0.0
  0
LINE
  5
5A3
330
1F
100
AcDbEntity
  8
0
  6
Continuous
 62
     7
370
    25
100
AcDbLine
 10
9.9945154045
 20
113.5768223209
 30
0.0
 11
4.9945154045
 21
113.5768223209
 31
0.0
  0
LINE
  5
5A4
330
1F
100
AcDbEntity
  8
0
  6
Continuous
 62
     7
370
    25
100
AcDbLine
 10
4.9945154045
 20
118.5768223209
 30
0.0
 11
4.9945154045
 21
113.5768223209
 31
0.0
  0
ARC
  5
5A5
330
1F
100
AcDbEntity
  8
0
  6
Continuous
 62
     7
370
    25
100
AcDbCircle
 10
9.9945154045
 20
118.5768223209
 30
0.0
 40
5.000000000000004
100
AcDbArc
 50
0.0
 51
90.0
  0
LINE
  5
5A6
330
1F
100
AcDbEntity
  8
0
  6
Continuous
 62
     7
370
    25
100
AcDbLine
 10
4.9945154045
 20
123.5768223209
 30
0.0
 11
4.9945154045
 21
118.5768223209
 31
0.0
  0
LINE
  5
5A7
330
1F
100
AcDbEntity
  8
0
  6
Continuous
 62
     7
370
    25
100
AcDbLine
 10
4.9945154045
 20
123.5768223209
 30
0.0
 11
9.9945154045
 21
123.5768223209
 31
0.0
  0
LINE
  5
5A8
330
1F
100
AcDbEntity
  8
0
  6
Continuous
 62
     7
370
    25
100
AcDbLine
 10
4.9945154045
 20
118.5768223209
 30
0.0
 11
-45.0054845955
 21
118.5768223209
 31
0.0
  0
LINE
  5
5A9
330
1F
100
AcDbEntity
  8
0
  6
Continuous
 62
     7
370
    25
100
AcDbLine
 10
4.9945154045
 20
113.5768223209
 30
0.0
 11
-45.0054845955
 21
113.5768223209
 31
0.0
  0
LINE
  5
5AA
330
1F
100
AcDbEntity
  8
0
  6
Continuous
 62
     7
370
    25
100
AcDbLine
 10
-45.0054845955
 20
113.5768223209
 30
0.0
 11
-45.0054845955
 21
118.5768223209
 31
0.0
  0
LINE
  5
5AB
330
1F
100
AcDbEntity
  8
0
  6
Continuous
 62
     7
370
    25
100
AcDbLine
 10
-45.0054845955
 20
118.5768223209
 30
0.0
 11
-45.0054845955
 21
123.5768223209
 31
0.0
  0
LINE
  5
5AC
330
1F
100
AcDbEntity
  8
0
  6
Continuous
 62
     7
370
    25
100
AcDbLine
 10
-45.0054845955
 20
123.5768223209
 30
0.0
 11
4.9945154045
 21
123.5768223209
 31
0.0
  0
LINE
  5
5AD
330
1F
100
AcDbEntity
  8
0
  6
Continuous
 62
     7
370
    25
100
AcDbLine
 10
-148.5163736646
 20
113.5768223209
 30
0.0
 11
-148.5163736646
 21
118.5768223209
 31
0.0
  0
LINE
  5
5AE
330
1F
100
AcDbEntity
  8
0
  6
Continuous
 62
     7
370
    25
100
AcDbLine
 10
-148.5163736646
 20
118.5768223209
 30
0.0
 11
-98.5163736646
 21
118.5768223209
 31
0.0
  0
LINE
  5
5AF
330
1F
100
AcDbEntity
  8
0
  6
Continuous
 62
     7
370
    25
100
AcDbLine
 10
-98.5163736646
 20
113.5768223209
 30
0.0
 11
-148.5163736646
 21
113.5768223209
 31
0.0
  0
LINE
  5
5B0
330
1F
100
AcDbEntity
  8
0
  6
Continuous
 62
     7
370
    25
100
AcDbLine
 10
-98.5163736646
 20
118.5768223209
 30
0.0
 11
-98.5163736646
 21
113.5768223209
 31
0.0
  0
LINE
  5
5B1
330
1F
100
AcDbEntity
  8
0
  6
Continuous
 62
     7
370
    25
100
AcDbLine
 10
-148.5163736646
 20
118.5768223209
 30
0.0
 11
-148.5163736646
 21
123.5768223209
 31
0.0
  0
LINE
  5
5B2
330
1F
100
AcDbEntity
  8
0
  6
Continuous
 62
     7
370
    25
100
AcDbLine
 10
-148.5163736646
 20
123.5768223209
 30
0.0
 11
-98.5163736646
 21
123.5768223209
 31
0.0
  0
LINE
  5
5B3
330
1F
100
AcDbEntity
  8
0
  6
Continuous
 62
     7
370
    25
100
AcDbLine
 10
-98.5163736646
 20
123.5768223209
 30
0.0
 11
-98.5163736646
 21
118.5768223209
 31
0.0
  0
LINE
  5
5B4
330
1F
100
AcDbEntity
  8
0
  6
Continuous
 62
     7
370
    25
100
AcDbLine
 10
-158.5163736646
 20
118.5768223209
 30
0.0
 11
-148.5163736646
 21
118.5768223209
 31
0.0
  0
ARC
  5
5B5
330
1F
100
AcDbEntity
  8
0
  6
Continuous
 62
     7
370
    25
100
AcDbCircle
 10
-153.5163736646
 20
118.5768223209
 30
0.0
 40
5.0
100
AcDbArc
 50
90.0
 51
180.0
  0
LINE
  5
5B6
330
1F
100
AcDbEntity
  8
0
  6
Continuous
 62
     7
370
    25
100
AcDbLine
 10
-153.5163736646
 20
123.5768223209
 30
0.0
 11
-148.5163736646
 21
123.5768223209
 31
0.0
  0
ARC
  5
5B7
330
1F
100
AcDbEntity
  8
0
  6
Continuous
 62
     7
370
    25
100
AcDbCircle
 10
-153.5163736646
 20
118.5768223209
 30
0.0
 40
5.0
100
AcDbArc
 50
180.0
 51
270.0
  0
LINE
  5
5B8
330
1F
100
AcDbEntity
  8
0
  6
Continuous
 62
     7
370
    25
100
AcDbLine
 10
-148.5163736646
 20
113.5768223209
 30
0.0
 11
-153.5163736646
 21
113.5768223209
 31
0.0
  0
LINE
  5
5B9
330
1F
100
AcDbEntity
  8
0
  6
Continuous
 62
     1
370
    25
100
AcDbLine
 10
-61.9554845955
 20
118.9268241179
 30
0.0
 11
-49.0054845955
 21
118.9268241179
 31
0.0
  0
LINE
  5
5BA
330
1F
100
AcDbEntity
  8
0
  6
Continuous
 62
     1
370
    25
100
AcDbLine
 10
-61.9554845955
 20
121.5268223209
 30
0.0
 11
-61.9554845955
 21
118.9268241179
 31
0.0
  0
LINE
  5
5BB
330
1F
100
AcDbEntity
  8
0
  6
Continuous
 62
     1
370
    25
100
AcDbLine
 10
-49.0054845955
 20
118.9268241179
 30
0.0
 11
-61.9554845955
 21
118.9010049708
 31
0.0
  0
LINE
  5
5BC
330
1F
100
AcDbEntity
  8
0
  6
Continuous
 62
     1
370
    25
100
AcDbLine
 10
-61.9554845955
 20
116.1607848291
 30
0.0
 11
-49.0054845955
 21
116.1607848291
 31
0.0
  0
LINE
  5
5BD
330
1F
100
AcDbEntity
  8
0
  6
Continuous
 62
     1
370
    25
100
AcDbLine
 10
-49.0054845955
 20
116.1607848291
 30
0.0
 11
-61.9554845955
 21
116.1401595669
 31
0.0
  0
LINE
  5
5BE
330
1F
100
AcDbEntity
  8
0
  6
Continuous
 62
     1
370
    25
100
AcDbLine
 10
-61.9554845955
 20
116.1401595669
 30
0.0
 11
-61.9554845955
 21
115.5268223209
 31
0.0
  0
ENDSEC
  0
SECTION
  2
OBJECTS
  0
DICTIONARY
  5
C
330
0
100
AcDbDictionary
281
     1
  3
ACAD_GROUP
350
D
  3
ACAD_LAYOUT
350
1A
  3
ACAD_MLINESTYLE
350
17
  3
ACAD_PLOTSETTINGS
350
19
  3
ACAD_PLOTSTYLENAME
350
E
  3
ACAD_SCALELIST
350
47
  3
DWGPROPS
350
5BF
  0
DICTIONARY
  5
D
102
{ACAD_REACTORS
330
C
102
}
330
C
100
AcDbDictionary
281
     1
  0
DICTIONARY
  5
1A
102
{ACAD_REACTORS
330
C
102
}
330
C
100
AcDbDictionary
281
     1
  3
Layout1
350
1E
  3
Layout2
350
26
  3
Model
350
22
  0
DICTIONARY
  5
17
102
{ACAD_REACTORS
330
C
102
}
330
C
100
AcDbDictionary
281
     1
  3
Standard
350
18
  0
DICTIONARY
  5
19
102
{ACAD_REACTORS
330
C
102
}
330
C
100
AcDbDictionary
281
     1
  0
ACDBDICTIONARYWDFLT
  5
E
102
{ACAD_REACTORS
330
C
102
}
330
C
100
AcDbDictionary
281
     1
  3
Normal
350
F
100
AcDbDictionaryWithDefault
340
F
  0
DICTIONARY
  5
47
102
{ACAD_REACTORS
330
C
102
}
330
C
100
AcDbDictionary
281
     1
  3
A0
350
48
  3
A1
350
49
  3
A2
350
4A
  3
A3
350
4B
  3
A4
350
4C
  3
A5
350
4D
  3
A6
350
4E
  3
A7
350
4F
  3
A8
350
50
  3
A9
350
51
  3
B0
350
52
  3
B1
350
53
  3
B2
350
54
  3
B3
350
55
  3
B4
350
56
  3
B5
350
57
  3
B6
350
58
  3
B7
350
59
  3
B8
350
5A
  3
B9
350
5B
  3
C0
350
5C
  3
C1
350
5D
  3
C2
350
5E
  3
C3
350
5F
  3
C4
350
60
  3
C5
350
61
  3
C6
350
62
  3
C7
350
63
  3
C8
350
64
  3
C9
350
65
  3
D0
350
66
  3
D1
350
67
  3
D2
350
68
  0
XRECORD
  5
5BF
102
{ACAD_REACTORS
330
C
102
}
330
C
100
AcDbXrecord
280
     1
  1
DWGPROPS COOKIE
  2

  3

  4

  6

  7

  8
pedro.miguel
  9

300
=
301
=
302
=
303
=
304
=
305
=
306
=
307
=
308
=
309
=
 40
0.0
 41
2459472.437779861
 42
2459472.437780891
  1

 90
        0
  0
LAYOUT
  5
1E
102
{ACAD_REACTORS
330
1A
102
}
330
1A
100
AcDbPlotSettings
  1

  2
none_device
  4

  6

 40
0.0
 41
0.0
 42
0.0
 43
0.0
 44
0.0
 45
0.0
 46
0.0
 47
0.0
 48
0.0
 49
0.0
140
0.0
141
0.0
142
1.0
143
1.0
 70
   688
 72
     1
 73
     0
 74
     5
  7

 75
    16
147
1.0
148
0.0
149
0.0
100
AcDbLayout
  1
Layout1
 70
     1
 71
     1
 10
0.0
 20
0.0
 11
420.0
 21
297.0
 12
0.0
 22
0.0
 32
0.0
 14
1.0000000000E+20
 24
1.0000000000E+20
 34
1.0000000000E+20
 15
-1.0000000000E+20
 25
-1.0000000000E+20
 35
-1.0000000000E+20
146
0.0
 13
0.0
 23
0.0
 33
0.0
 16
1.0
 26
0.0
 36
0.0
 17
0.0
 27
1.0
 37
0.0
 76
     0
330
1B
  0
LAYOUT
  5
26
102
{ACAD_REACTORS
330
1A
102
}
330
1A
100
AcDbPlotSettings
  1

  2
none_device
  4

  6

 40
0.0
 41
0.0
 42
0.0
 43
0.0
 44
0.0
 45
0.0
 46
0.0
 47
0.0
 48
0.0
 49
0.0
140
0.0
141
0.0
142
1.0
143
1.0
 70
   688
 72
     1
 73
     0
 74
     5
  7

 75
    16
147
1.0
148
0.0
149
0.0
100
AcDbLayout
  1
Layout2
 70
     1
 71
     2
 10
0.0
 20
0.0
 11
0.0
 21
0.0
 12
0.0
 22
0.0
 32
0.0
 14
0.0
 24
0.0
 34
0.0
 15
0.0
 25
0.0
 35
0.0
146
0.0
 13
0.0
 23
0.0
 33
0.0
 16
1.0
 26
0.0
 36
0.0
 17
0.0
 27
1.0
 37
0.0
 76
     0
330
23
  0
LAYOUT
  5
22
102
{ACAD_REACTORS
330
1A
102
}
330
1A
100
AcDbPlotSettings
  1

  2
none_device
  4
Letter_(8.50_x_11.00_Inches)
  6

 40
6.35
 41
6.35
 42
6.35000508
 43
6.35000508
 44
215.9
 45
279.4
 46
0.0
 47
0.0
 48
0.0
 49
0.0
140
0.0
141
0.0
142
1.0
143
1.0
 70
  1712
 72
     1
 73
     0
 74
     0
  7

 75
     0
147
1.0
148
0.0
149
0.0
100
AcDbLayout
  1
Model
 70
     1
 71
     0
 10
0.0
 20
0.0
 11
279.4
 21
215.9
 12
0.0
 22
0.0
 32
0.0
 14
0.0
 24
0.0
 34
0.0
 15
279.4
 25
215.9
 35
0.0
146
0.0
 13
0.0
 23
0.0
 33
0.0
 16
1.0
 26
0.0
 36
0.0
 17
0.0
 27
1.0
 37
0.0
 76
     0
330
1F
331
29
  0
MLINESTYLE
  5
18
102
{ACAD_REACTORS
330
17
102
}
330
17
100
AcDbMlineStyle
  2
Standard
 70
     0
  3

 62
   256
 51
90.0
 52
90.0
 71
     2
 49
0.5
 62
   256
  6
BYLAYER
 49
-0.5
 62
   256
  6
BYLAYER
  0
ACDBPLACEHOLDER
  5
F
102
{ACAD_REACTORS
330
E
102
}
330
E
  0
SCALE
  5
48
102
{ACAD_REACTORS
330
47
102
}
330
47
100
AcDbScale
 70
     0
300
1:1
140
1.0
141
1.0
290
     1
  0
SCALE
  5
49
102
{ACAD_REACTORS
330
47
102
}
330
47
100
AcDbScale
 70
     0
300
1:2
140
1.0
141
2.0
290
     0
  0
SCALE
  5
4A
102
{ACAD_REACTORS
330
47
102
}
330
47
100
AcDbScale
 70
     0
300
1:4
140
1.0
141
4.0
290
     0
  0
SCALE
  5
4B
102
{ACAD_REACTORS
330
47
102
}
330
47
100
AcDbScale
 70
     0
300
1:5
140
1.0
141
5.0
290
     0
  0
SCALE
  5
4C
102
{ACAD_REACTORS
330
47
102
}
330
47
100
AcDbScale
 70
     0
300
1:8
140
1.0
141
8.0
290
     0
  0
SCALE
  5
4D
102
{ACAD_REACTORS
330
47
102
}
330
47
100
AcDbScale
 70
     0
300
1:10
140
1.0
141
10.0
290
     0
  0
SCALE
  5
4E
102
{ACAD_REACTORS
330
47
102
}
330
47
100
AcDbScale
 70
     0
300
1:16
140
1.0
141
16.0
290
     0
  0
SCALE
  5
4F
102
{ACAD_REACTORS
330
47
102
}
330
47
100
AcDbScale
 70
     0
300
1:20
140
1.0
141
20.0
290
     0
  0
SCALE
  5
50
102
{ACAD_REACTORS
330
47
102
}
330
47
100
AcDbScale
 70
     0
300
1:30
140
1.0
141
30.0
290
     0
  0
SCALE
  5
51
102
{ACAD_REACTORS
330
47
102
}
330
47
100
AcDbScale
 70
     0
300
1:40
140
1.0
141
40.0
290
     0
  0
SCALE
  5
52
102
{ACAD_REACTORS
330
47
102
}
330
47
100
AcDbScale
 70
     0
300
1:50
140
1.0
141
50.0
290
     0
  0
SCALE
  5
53
102
{ACAD_REACTORS
330
47
102
}
330
47
100
AcDbScale
 70
     0
300
1:100
140
1.0
141
100.0
290
     0
  0
SCALE
  5
54
102
{ACAD_REACTORS
330
47
102
}
330
47
100
AcDbScale
 70
     0
300
2:1
140
2.0
141
1.0
290
     0
  0
SCALE
  5
55
102
{ACAD_REACTORS
330
47
102
}
330
47
100
AcDbScale
 70
     0
300
4:1
140
4.0
141
1.0
290
     0
  0
SCALE
  5
56
102
{ACAD_REACTORS
330
47
102
}
330
47
100
AcDbScale
 70
     0
300
8:1
140
8.0
141
1.0
290
     0
  0
SCALE
  5
57
102
{ACAD_REACTORS
330
47
102
}
330
47
100
AcDbScale
 70
     0
300
10:1
140
10.0
141
1.0
290
     0
  0
SCALE
  5
58
102
{ACAD_REACTORS
330
47
102
}
330
47
100
AcDbScale
 70
     0
300
100:1
140
100.0
141
1.0
290
     0
  0
SCALE
  5
59
102
{ACAD_REACTORS
330
47
102
}
330
47
100
AcDbScale
 70
     0
300
1/128" = 1'-0"
140
0.0078125
141
12.0
290
     0
  0
SCALE
  5
5A
102
{ACAD_REACTORS
330
47
102
}
330
47
100
AcDbScale
 70
     0
300
1/64" = 1'-0"
140
0.015625
141
12.0
290
     0
  0
SCALE
  5
5B
102
{ACAD_REACTORS
330
47
102
}
330
47
100
AcDbScale
 70
     0
300
1/32" = 1'-0"
140
0.03125
141
12.0
290
     0
  0
SCALE
  5
5C
102
{ACAD_REACTORS
330
47
102
}
330
47
100
AcDbScale
 70
     0
300
1/16" = 1'-0"
140
0.0625
141
12.0
290
     0
  0
SCALE
  5
5D
102
{ACAD_REACTORS
330
47
102
}
330
47
100
AcDbScale
 70
     0
300
3/32" = 1'-0"
140
0.09375
141
12.0
290
     0
  0
SCALE
  5
5E
102
{ACAD_REACTORS
330
47
102
}
330
47
100
AcDbScale
 70
     0
300
1/8" = 1'-0"
140
0.125
141
12.0
290
     0
  0
SCALE
  5
5F
102
{ACAD_REACTORS
330
47
102
}
330
47
100
AcDbScale
 70
     0
300
3/16" = 1'-0"
140
0.1875
141
12.0
290
     0
  0
SCALE
  5
60
102
{ACAD_REACTORS
330
47
102
}
330
47
100
AcDbScale
 70
     0
300
1/4" = 1'-0"
140
0.25
141
12.0
290
     0
  0
SCALE
  5
61
102
{ACAD_REACTORS
330
47
102
}
330
47
100
AcDbScale
 70
     0
300
3/8" = 1'-0"
140
0.375
141
12.0
290
     0
  0
SCALE
  5
62
102
{ACAD_REACTORS
330
47
102
}
330
47
100
AcDbScale
 70
     0
300
1/2" = 1'-0"
140
0.5
141
12.0
290
     0
  0
SCALE
  5
63
102
{ACAD_REACTORS
330
47
102
}
330
47
100
AcDbScale
 70
     0
300
3/4" = 1'-0"
140
0.75
141
12.0
290
     0
  0
SCALE
  5
64
102
{ACAD_REACTORS
330
47
102
}
330
47
100
AcDbScale
 70
     0
300
1" = 1'-0"
140
1.0
141
12.0
290
     0
  0
SCALE
  5
65
102
{ACAD_REACTORS
330
47
102
}
330
47
100
AcDbScale
 70
     0
300
1-1/2" = 1'-0"
140
1.5
141
12.0
290
     0
  0
SCALE
  5
66
102
{ACAD_REACTORS
330
47
102
}
330
47
100
AcDbScale
 70
     0
300
3" = 1'-0"
140
3.0
141
12.0
290
     0
  0
SCALE
  5
67
102
{ACAD_REACTORS
330
47
102
}
330
47
100
AcDbScale
 70
     0
300
6" = 1'-0"
140
6.0
141
12.0
290
     0
  0
SCALE
  5
68
102
{ACAD_REACTORS
330
47
102
}
330
47
100
AcDbScale
 70
     0
300
1'-0" = 1'-0"
140
12.0
141
12.0
290
     0
  0
ENDSEC
  0
EOF
