  0
SECTION
  2
HEADER
  9
$ACADVER
  1
AC1015
  9
$ACADMAINTVER
 70
     6
  9
$DWGCODEPAGE
  3
ANSI_1252
  9
$INSBASE
 10
0.0
 20
0.0
 30
0.0
  9
$EXTMIN
 10
0.0
 20
0.0
 30
0.0
  9
$EXTMAX
 10
500.0
 20
500.0
 30
0.0
  9
$LIMMIN
 10
0.0
 20
0.0
  9
$LIMMAX
 10
500.0
 20
500.0
  9
$ORTHOMODE
 70
     0
  9
$REGENMODE
 70
     1
  9
$FILLMODE
 70
     1
  9
$QTEXTMODE
 70
     0
  9
$MIRRTEXT
 70
     1
  9
$LTSCALE
 40
1.0
  9
$ATTMODE
 70
     1
  9
$TEXTSIZE
 40
3.5
  9
$TRACEWID
 40
1.0
  9
$TEXTSTYLE
  7
Standard
  9
$CLAYER
  8
0
  9
$CELTYPE
  6
ByLayer
  9
$CECOLOR
 62
   256
  9
$CELTSCALE
 40
1.0
  9
$DISPSILH
 70
     0
  9
$DIMSCALE
 40
1.0
  9
$DIMASZ
 40
3.302
  9
$DIMEXO
 40
1.0
  9
$DIMDLI
 40
3.75
  9
$DIMRND
 40
0.0
  9
$DIMDLE
 40
0.0
  9
$DIMEXE
 40
1.0
  9
$DIMTP
 40
0.0
  9
$DIMTM
 40
0.0
  9
$DIMTXT
 40
3.5
  9
$DIMCEN
 40
2.5
  9
$DIMTSZ
 40
0.0
  9
$DIMTOL
 70
     0
  9
$DIMLIM
 70
     0
  9
$DIMTIH
 70
     1
  9
$DIMTOH
 70
     1
  9
$DIMSE1
 70
     0
  9
$DIMSE2
 70
     0
  9
$DIMTAD
 70
     1
  9
$DIMZIN
 70
     1
  9
$DIMBLK
  1

  9
$DIMASO
 70
     1
  9
$DIMSHO
 70
     1
  9
$DIMPOST
  1

  9
$DIMAPOST
  1

  9
$DIMALT
 70
     0
  9
$DIMALTD
 70
     3
  9
$DIMALTF
 40
0.0393700787
  9
$DIMLFAC
 40
5.0
  9
$DIMTOFL
 70
     1
  9
$DIMTVP
 40
0.0
  9
$DIMTIX
 70
     0
  9
$DIMSOXD
 70
     0
  9
$DIMSAH
 70
     0
  9
$DIMBLK1
  1

  9
$DIMBLK2
  1

  9
$DIMSTYLE
  2
ISO-25
  9
$DIMCLRD
 70
     0
  9
$DIMCLRE
 70
     0
  9
$DIMCLRT
 70
     0
  9
$DIMTFAC
 40
1.0
  9
$DIMGAP
 40
1.524
  9
$DIMJUST
 70
     0
  9
$DIMSD1
 70
     0
  9
$DIMSD2
 70
     0
  9
$DIMTOLJ
 70
     0
  9
$DIMTZIN
 70
     1
  9
$DIMALTZ
 70
     0
  9
$DIMALTTZ
 70
     0
  9
$DIMUPT
 70
     0
  9
$DIMDEC
 70
     2
  9
$DIMTDEC
 70
     2
  9
$DIMALTU
 70
     2
  9
$DIMALTTD
 70
     3
  9
$DIMTXSTY
  7
Standard
  9
$DIMAUNIT
 70
     0
  9
$DIMADEC
 70
     2
  9
$DIMALTRND
 40
0.0
  9
$DIMAZIN
 70
     0
  9
$DIMDSEP
 70
    44
  9
$DIMATFIT
 70
     3
  9
$DIMFRAC
 70
     0
  9
$DIMLDRBLK
  1

  9
$DIMLUNIT
 70
     2
  9
$DIMLWD
 70
    -2
  9
$DIMLWE
 70
    -2
  9
$DIMTMOVE
 70
     0
  9
$LUNITS
 70
     2
  9
$LUPREC
 70
     2
  9
$SKETCHINC
 40
1.0
  9
$FILLETRAD
 40
0.0
  9
$AUNITS
 70
     0
  9
$AUPREC
 70
     2
  9
$MENU
  1
.
  9
$ELEVATION
 40
0.0
  9
$PELEVATION
 40
0.0
  9
$THICKNESS
 40
0.0
  9
$LIMCHECK
 70
     0
  9
$CHAMFERA
 40
0.0
  9
$CHAMFERB
 40
0.0
  9
$CHAMFERC
 40
0.0
  9
$CHAMFERD
 40
0.0
  9
$SKPOLY
 70
     0
  9
$TDCREATE
 40
2459629.442529896
  9
$TDUCREATE
 40
2459629.442529896
  9
$TDUPDATE
 40
2459629.442530336
  9
$TDUUPDATE
 40
2459629.442530336
  9
$TDINDWG
 40
0.0000000116
  9
$TDUSRTIMER
 40
0.0000000116
  9
$USRTIMER
 70
     1
  9
$ANGBASE
 50
0.0
  9
$ANGDIR
 70
     0
  9
$PDMODE
 70
     0
  9
$PDSIZE
 40
-1.0
  9
$PLINEWID
 40
0.0
  9
$SPLFRAME
 70
     0
  9
$SPLINETYPE
 70
     6
  9
$SPLINESEGS
 70
     8
  9
$HANDSEED
  5
220
  9
$SURFTAB1
 70
     6
  9
$SURFTAB2
 70
     6
  9
$SURFTYPE
 70
     6
  9
$SURFU
 70
     6
  9
$SURFV
 70
     6
  9
$UCSBASE
  2

  9
$UCSNAME
  2

  9
$UCSORG
 10
0.0
 20
0.0
 30
0.0
  9
$UCSXDIR
 10
1.0
 20
0.0
 30
0.0
  9
$UCSYDIR
 10
0.0
 20
1.0
 30
0.0
  9
$UCSORTHOREF
  2

  9
$UCSORTHOVIEW
 70
     0
  9
$UCSORGTOP
 10
0.0
 20
0.0
 30
0.0
  9
$UCSORGBOTTOM
 10
0.0
 20
0.0
 30
0.0
  9
$UCSORGLEFT
 10
0.0
 20
0.0
 30
0.0
  9
$UCSORGRIGHT
 10
0.0
 20
0.0
 30
0.0
  9
$UCSORGFRONT
 10
0.0
 20
0.0
 30
0.0
  9
$UCSORGBACK
 10
0.0
 20
0.0
 30
0.0
  9
$PUCSBASE
  2

  9
$PUCSNAME
  2

  9
$PUCSORG
 10
0.0
 20
0.0
 30
0.0
  9
$PUCSXDIR
 10
1.0
 20
0.0
 30
0.0
  9
$PUCSYDIR
 10
0.0
 20
1.0
 30
0.0
  9
$PUCSORTHOREF
  2

  9
$PUCSORTHOVIEW
 70
     0
  9
$PUCSORGTOP
 10
0.0
 20
0.0
 30
0.0
  9
$PUCSORGBOTTOM
 10
0.0
 20
0.0
 30
0.0
  9
$PUCSORGLEFT
 10
0.0
 20
0.0
 30
0.0
  9
$PUCSORGRIGHT
 10
0.0
 20
0.0
 30
0.0
  9
$PUCSORGFRONT
 10
0.0
 20
0.0
 30
0.0
  9
$PUCSORGBACK
 10
0.0
 20
0.0
 30
0.0
  9
$USERI1
 70
     0
  9
$USERI2
 70
     0
  9
$USERI3
 70
     0
  9
$USERI4
 70
     0
  9
$USERI5
 70
     0
  9
$USERR1
 40
0.0
  9
$USERR2
 40
0.0
  9
$USERR3
 40
0.0
  9
$USERR4
 40
0.0
  9
$USERR5
 40
0.0
  9
$WORLDVIEW
 70
     1
  9
$SHADEDGE
 70
     3
  9
$SHADEDIF
 70
    70
  9
$TILEMODE
 70
     1
  9
$MAXACTVP
 70
    64
  9
$PINSBASE
 10
0.0
 20
0.0
 30
0.0
  9
$PLIMCHECK
 70
     0
  9
$PEXTMIN
 10
1.0000000000E+20
 20
1.0000000000E+20
 30
1.0000000000E+20
  9
$PEXTMAX
 10
-1.0000000000E+20
 20
-1.0000000000E+20
 30
-1.0000000000E+20
  9
$PLIMMIN
 10
0.0
 20
0.0
  9
$PLIMMAX
 10
420.0
 20
297.0
  9
$UNITMODE
 70
     0
  9
$VISRETAIN
 70
     1
  9
$PLINEGEN
 70
     0
  9
$PSLTSCALE
 70
     1
  9
$TREEDEPTH
 70
  3020
  9
$CMLSTYLE
  2
Standard
  9
$CMLJUST
 70
     0
  9
$CMLSCALE
 40
20.0
  9
$PROXYGRAPHICS
 70
     1
  9
$MEASUREMENT
 70
     1
  9
$CELWEIGHT
370
    -1
  9
$ENDCAPS
280
     0
  9
$JOINSTYLE
280
     0
  9
$LWDISPLAY
290
     1
  9
$INSUNITS
 70
     4
  9
$HYPERLINKBASE
  1

  9
$STYLESHEET
  1

  9
$XEDIT
290
     1
  9
$CEPSNTYPE
380
     0
  9
$PSTYLEMODE
290
     1
  9
$FINGERPRINTGUID
  2
{d134d75f-0164-42e6-8bf9-45ec5ec7709c}
  9
$VERSIONGUID
  2
{FAEB1C32-E019-11D5-929B-00C0DF256EC4}
  9
$EXTNAMES
290
     1
  9
$PSVPSCALE
 40
0.0
  9
$OLESTARTUP
290
     0
  0
ENDSEC
  0
SECTION
  2
CLASSES
  0
CLASS
  1
ACDBDICTIONARYWDFLT
  2
AcDbDictionaryWithDefault
  3
ObjectDBX Classes
 90
        0
280
     0
281
     0
  0
CLASS
  1
VISUALSTYLE
  2
AcDbVisualStyle
  3
ObjectDBX Classes
 90
     4095
280
     0
281
     0
  0
CLASS
  1
MATERIAL
  2
AcDbMaterial
  3
ObjectDBX Classes
 90
     1153
280
     0
281
     0
  0
CLASS
  1
SCALE
  2
AcDbScale
  3
ObjectDBX Classes
 90
     1153
280
     0
281
     0
  0
CLASS
  1
TABLESTYLE
  2
AcDbTableStyle
  3
ObjectDBX Classes
 90
     4095
280
     0
281
     0
  0
CLASS
  1
MLEADERSTYLE
  2
AcDbMLeaderStyle
  3
ACDB_MLEADERSTYLE_CLASS
 90
     4095
280
     0
281
     0
  0
CLASS
  1
SUN
  2
AcDbSun
  3
SCENEOE
 90
     1153
280
     0
281
     0
  0
CLASS
  1
ACDBPLACEHOLDER
  2
AcDbPlaceHolder
  3
ObjectDBX Classes
 90
        0
280
     0
281
     0
  0
CLASS
  1
LAYOUT
  2
AcDbLayout
  3
ObjectDBX Classes
 90
        0
280
     0
281
     0
  0
ENDSEC
  0
SECTION
  2
TABLES
  0
TABLE
  2
VPORT
  5
8
330
0
100
AcDbSymbolTable
 70
     1
  0
VPORT
  5
29
330
8
100
AcDbSymbolTableRecord
100
AcDbViewportTableRecord
  2
*Active
 70
     0
 10
0.0
 20
0.0
 11
1.0
 21
1.0
 12
250.0
 22
250.0
 13
0.0
 23
0.0
 14
10.0
 24
10.0
 15
10.0
 25
10.0
 16
0.0
 26
0.0
 36
1.0
 17
0.0
 27
0.0
 37
0.0
 40
500.0
 41
1.0
 42
50.0
 43
0.0
 44
0.0
 50
0.0
 51
0.0
 71
     0
 72
  2000
 73
     1
 74
     3
 75
     0
 76
     0
 77
     0
 78
     0
281
     0
 65
     1
110
0.0
120
0.0
130
0.0
111
1.0
121
0.0
131
0.0
112
0.0
122
1.0
132
0.0
 79
     0
146
0.0
  0
ENDTAB
  0
TABLE
  2
LTYPE
  5
5
330
0
100
AcDbSymbolTable
 70
     6
  0
LTYPE
  5
14
330
5
100
AcDbSymbolTableRecord
100
AcDbLinetypeTableRecord
  2
ByBlock
 70
     0
  3

 72
    65
 73
     0
 40
0.0
  0
LTYPE
  5
15
330
5
100
AcDbSymbolTableRecord
100
AcDbLinetypeTableRecord
  2
ByLayer
 70
     0
  3

 72
    65
 73
     0
 40
0.0
  0
LTYPE
  5
16
330
5
100
AcDbSymbolTableRecord
100
AcDbLinetypeTableRecord
  2
Continuous
 70
     0
  3
Solid line
 72
    65
 73
     0
 40
0.0
  0
LTYPE
  5
5E
330
5
100
AcDbSymbolTableRecord
100
AcDbLinetypeTableRecord
  2
HIDDEN
 70
     0
  3
Hidden __ __ __ __ __ __ __ __ __ __ __ __ __ __
 72
    65
 73
     2
 40
1.905
 49
1.27
 74
     0
 49
-0.635
 74
     0
  0
LTYPE
  5
5F
330
5
100
AcDbSymbolTableRecord
100
AcDbLinetypeTableRecord
  2
PHANTOM
 70
     0
  3
Phantom ______  __  __  ______  __  __  ______
 72
    65
 73
     6
 40
12.7
 49
6.35
 74
     0
 49
-1.27
 74
     0
 49
1.27
 74
     0
 49
-1.27
 74
     0
 49
1.27
 74
     0
 49
-1.27
 74
     0
  0
LTYPE
  5
60
330
5
100
AcDbSymbolTableRecord
100
AcDbLinetypeTableRecord
  2
CENTER
 70
     0
  3
Center ____ _ ____ _ ____ _ ____ _ ____ _ ____
 72
    65
 73
     4
 40
10.16
 49
6.35
 74
     0
 49
-1.27
 74
     0
 49
1.27
 74
     0
 49
-1.27
 74
     0
  0
LTYPE
  5
61
330
5
100
AcDbSymbolTableRecord
100
AcDbLinetypeTableRecord
  2
CENTERX2
 70
     0
  3
Center (2x) ________  __  ________  __  _____
 72
    65
 73
     4
 40
20.32
 49
12.7
 74
     0
 49
-2.54
 74
     0
 49
2.54
 74
     0
 49
-2.54
 74
     0
  0
LTYPE
  5
62
330
5
100
AcDbSymbolTableRecord
100
AcDbLinetypeTableRecord
  2
DOT2
 70
     0
  3
Dot (.5x) ........................................
 72
    65
 73
     2
 40
0.635
 49
0.0
 74
     0
 49
-0.635
 74
     0
  0
ENDTAB
  0
TABLE
  2
LAYER
  5
2
330
0
100
AcDbSymbolTable
 70
     1
  0
LAYER
  5
10
330
2
100
AcDbSymbolTableRecord
100
AcDbLayerTableRecord
  2
0
 70
     0
 62
     7
  6
Continuous
370
    -3
390
F
  0
ENDTAB
  0
TABLE
  2
STYLE
  5
3
330
0
100
AcDbSymbolTable
 70
     1
  0
STYLE
  5
11
330
3
100
AcDbSymbolTableRecord
100
AcDbTextStyleTableRecord
  2
Standard
 70
     0
 40
0.0
 41
1.0
 50
0.0
 71
     0
 42
3.5
  3
txt
  4

  0
ENDTAB
  0
TABLE
  2
VIEW
  5
6
330
0
100
AcDbSymbolTable
 70
     0
  0
ENDTAB
  0
TABLE
  2
UCS
  5
7
330
0
100
AcDbSymbolTable
 70
     0
  0
ENDTAB
  0
TABLE
  2
APPID
  5
9
330
0
100
AcDbSymbolTable
 70
     1
  0
APPID
  5
12
330
9
100
AcDbSymbolTableRecord
100
AcDbRegAppTableRecord
  2
ACAD
 70
     0
  0
ENDTAB
  0
TABLE
  2
DIMSTYLE
  5
A
330
0
100
AcDbSymbolTable
 70
     1
100
AcDbDimStyleTable
  0
DIMSTYLE
105
27
330
A
100
AcDbSymbolTableRecord
100
AcDbDimStyleTableRecord
  2
ISO-25
 70
     0
 41
2.5
 42
0.625
 43
3.75
 44
1.25
 73
     0
 74
     0
 77
     1
 78
     8
140
2.5
141
2.5
143
0.0393700787
147
0.625
171
     3
172
     1
178
     0
271
     2
272
     2
274
     3
278
    44
283
     0
284
     8
340
11
  0
ENDTAB
  0
TABLE
  2
BLOCK_RECORD
  5
1
330
0
100
AcDbSymbolTable
 70
     1
  0
BLOCK_RECORD
  5
1F
330
1
100
AcDbSymbolTableRecord
100
AcDbBlockTableRecord
  2
*Model_Space
340
22
  0
BLOCK_RECORD
  5
1B
330
1
100
AcDbSymbolTableRecord
100
AcDbBlockTableRecord
  2
*Paper_Space
340
1E
  0
BLOCK_RECORD
  5
23
330
1
100
AcDbSymbolTableRecord
100
AcDbBlockTableRecord
  2
*Paper_Space0
340
26
  0
ENDTAB
  0
ENDSEC
  0
SECTION
  2
BLOCKS
  0
BLOCK
  5
20
330
1F
100
AcDbEntity
  8
0
100
AcDbBlockBegin
  2
*Model_Space
 70
     0
 10
0.0
 20
0.0
 30
0.0
  3
*Model_Space
  1

  0
ENDBLK
  5
21
330
1F
100
AcDbEntity
  8
0
100
AcDbBlockEnd
  0
BLOCK
  5
1C
330
1B
100
AcDbEntity
 67
     1
  8
0
100
AcDbBlockBegin
  2
*Paper_Space
 70
     0
 10
0.0
 20
0.0
 30
0.0
  3
*Paper_Space
  1

  0
ENDBLK
  5
1D
330
1B
100
AcDbEntity
 67
     1
  8
0
100
AcDbBlockEnd
  0
BLOCK
  5
24
330
23
100
AcDbEntity
  8
0
100
AcDbBlockBegin
  2
*Paper_Space0
 70
     0
 10
0.0
 20
0.0
 30
0.0
  3
*Paper_Space0
  1

  0
ENDBLK
  5
25
330
23
100
AcDbEntity
  8
0
100
AcDbBlockEnd
  0
ENDSEC
  0
SECTION
  2
ENTITIES
  0
SPLINE
  5
63
330
1F
100
AcDbEntity
  8
0
  6
Continuous
 62
     7
370
    25
100
AcDbSpline
210
0.0
220
0.0
230
1.0
 70
     8
 71
     3
 72
    10
 73
     6
 74
     0
 42
0.00000001
 43
0.00000001
 40
0.0
 40
0.0
 40
0.0
 40
0.0
 40
0.2220202283608017
 40
0.8041959539725846
 40
1.0
 40
1.0
 40
1.0
 40
1.0
 10
129.2587247988758
 20
327.0918182751008
 30
0.0
 10
129.2700668121819
 20
327.0101800296755
 30
0.0
 10
129.3111495607139
 20
326.7144720793451
 30
0.0
 10
129.3333689586614
 20
326.3188850218908
 30
0.0
 10
129.3355058218291
 20
326.0133463662454
 30
0.0
 10
129.3360436333112
 20
325.9364475737908
 30
0.0
  0
SPLINE
  5
64
330
1F
100
AcDbEntity
  8
0
  6
Continuous
 62
     7
370
    25
100
AcDbSpline
210
0.0
220
0.0
230
1.0
 70
     8
 71
     3
 72
    10
 73
     6
 74
     0
 42
0.00000001
 43
0.00000001
 40
0.0
 40
0.0
 40
0.0
 40
0.0
 40
0.2778914286735839
 40
0.8229986761595297
 40
1.0
 40
1.0
 40
1.0
 40
1.0
 10
153.8763220659505
 20
325.9364475737908
 30
0.0
 10
153.8773641445999
 20
326.0455967768592
 30
0.0
 10
153.8804503475568
 20
326.3688512581431
 30
0.0
 10
153.9069078866815
 20
326.7623743180856
 30
0.0
 10
153.9444409067732
 20
327.0269630034188
 30
0.0
 10
153.953640900386
 20
327.0918182751008
 30
0.0
  0
LINE
  5
65
330
1F
100
AcDbEntity
  8
0
  6
Continuous
 62
     7
370
    25
100
AcDbLine
 10
129.3360436333
 20
325.9364475738
 30
0.0
 11
129.3360436333
 21
111.8706328759
 31
0.0
  0
LINE
  5
66
330
1F
100
AcDbEntity
  8
0
  6
Continuous
 62
     7
370
    25
100
AcDbLine
 10
153.876322066
 20
111.8706328759
 30
0.0
 11
153.876322066
 21
325.9364475738
 31
0.0
  0
SPLINE
  5
67
330
1F
100
AcDbEntity
  8
0
  6
Continuous
 62
     7
370
    25
100
AcDbSpline
210
0.0
220
0.0
230
1.0
 70
     8
 71
     3
 72
    10
 73
     6
 74
     0
 42
0.00000001
 43
0.00000001
 40
0.0
 40
0.0
 40
0.0
 40
0.0
 40
0.2778914426187024
 40
0.8229983142731413
 40
1.0
 40
1.0
 40
1.0
 40
1.0
 10
129.3360436333112
 20
111.8706328759176
 30
0.0
 10
129.3350015548055
 20
111.7614836817423
 30
0.0
 10
129.331915353786
 20
111.438229385158
 30
0.0
 10
129.3054578266365
 20
111.0447065225269
 30
0.0
 10
129.2679248375984
 20
110.7801181896348
 30
0.0
 10
129.2587248326099
 20
110.715262870491
 30
0.0
  0
SPLINE
  5
68
330
1F
100
AcDbEntity
  8
0
  6
Continuous
 62
     7
370
    25
100
AcDbSpline
210
0.0
220
0.0
230
1.0
 70
     8
 71
     3
 72
    10
 73
     6
 74
     0
 42
0.00000001
 43
0.00000001
 40
0.0
 40
0.0
 40
0.0
 40
0.0
 40
0.2220202137930565
 40
0.8041954061926201
 40
1.0
 40
1.0
 40
1.0
 40
1.0
 10
153.9536408666519
 20
110.7152628704909
 30
0.0
 10
153.9422988613282
 20
110.7969010041646
 30
0.0
 10
153.9012161669984
 20
111.0926083676922
 30
0.0
 10
153.8789967482012
 20
111.4881952509856
 30
0.0
 10
153.876859880155
 20
111.793733877183
 30
0.0
 10
153.8763220659505
 20
111.8706328759176
 30
0.0
  0
SPLINE
  5
69
330
1F
100
AcDbEntity
  8
0
  6
Continuous
 62
     7
370
    25
100
AcDbSpline
210
0.0
220
0.0
230
1.0
 70
     8
 71
     3
 72
     9
 73
     5
 74
     0
 42
0.00000001
 43
0.00000001
 40
0.0
 40
0.0
 40
0.0
 40
0.0
 40
0.2571977589780171
 40
1.0
 40
1.0
 40
1.0
 40
1.0
 10
129.2262162948444
 20
327.2102241540428
 30
0.0
 10
129.2307316146336
 20
327.1928424844552
 30
0.0
 10
129.2482874432968
 20
327.1252615317414
 30
0.0
 10
129.2636423668896
 20
327.0525259989896
 30
0.0
 10
129.2750480385451
 20
326.9984978822595
 30
0.0
  0
SPLINE
  5
6A
330
1F
100
AcDbEntity
  8
0
  6
Continuous
 62
     7
370
    25
100
AcDbSpline
210
0.0
220
0.0
230
1.0
 70
     8
 71
     3
 72
     9
 73
     5
 74
     0
 42
0.00000001
 43
0.00000001
 40
0.0
 40
0.0
 40
0.0
 40
0.0
 40
0.2430638477390219
 40
1.0
 40
1.0
 40
1.0
 40
1.0
 10
153.9373176607167
 20
326.9984978822594
 30
0.0
 10
153.9409393731075
 20
327.0163767501246
 30
0.0
 10
153.9558396243155
 20
327.0899330112943
 30
0.0
 10
153.9730911220793
 20
327.1583994393963
 30
0.0
 10
153.9861494044173
 20
327.2102241540428
 30
0.0
  0
SPLINE
  5
6B
330
1F
100
AcDbEntity
  8
0
  6
Continuous
 62
     7
370
    25
100
AcDbSpline
210
0.0
220
0.0
230
1.0
 70
     8
 71
     3
 72
     9
 73
     5
 74
     0
 42
0.00000001
 43
0.00000001
 40
0.0
 40
0.0
 40
0.0
 40
0.0
 40
0.2430638492742103
 40
1.0
 40
1.0
 40
1.0
 40
1.0
 10
129.2750481082576
 20
110.8085833890771
 30
0.0
 10
129.2714264015468
 20
110.7907045664966
 30
0.0
 10
129.2565261738019
 20
110.7171484920991
 30
0.0
 10
129.239274709105
 20
110.6486822775779
 30
0.0
 10
129.226216451823
 20
110.5968577247035
 30
0.0
  0
SPLINE
  5
6C
330
1F
100
AcDbEntity
  8
0
  6
Continuous
 62
     7
370
    25
100
AcDbSpline
210
0.0
220
0.0
230
1.0
 70
     8
 71
     3
 72
     9
 73
     5
 74
     0
 42
0.00000001
 43
0.00000001
 40
0.0
 40
0.0
 40
0.0
 40
0.0
 40
0.257197757662758
 40
1.0
 40
1.0
 40
1.0
 40
1.0
 10
153.9861492474387
 20
110.5968577247035
 30
0.0
 10
153.9816339365987
 20
110.6142393383661
 30
0.0
 10
153.9640781426408
 20
110.6818200739863
 30
0.0
 10
153.9487232440834
 20
110.7545554148136
 30
0.0
 10
153.9373175910042
 20
110.8085833890772
 30
0.0
  0
ARC
  5
6D
330
1F
100
AcDbEntity
  8
0
  6
Continuous
 62
     7
370
    25
100
AcDbCircle
 10
131.1601488001
 20
327.7200330056
 30
0.0
 40
2.000000000000011
100
AcDbArc
 50
181.3170931309
 51
194.7679220042
  0
ARC
  5
6E
330
1F
100
AcDbEntity
  8
0
  6
Continuous
 62
     7
370
    25
100
AcDbCircle
 10
152.0522168992
 20
327.7200330056
 30
0.0
 40
2.000000000000011
100
AcDbArc
 50
345.2320779958
 51
358.6829068691
  0
ARC
  5
6F
330
1F
100
AcDbEntity
  8
0
  6
Continuous
 62
     7
370
    25
100
AcDbCircle
 10
131.1601488001
 20
110.0870482777
 30
0.0
 40
2.000000000000009
100
AcDbArc
 50
165.2320603535
 51
178.6829014801
  0
ARC
  5
70
330
1F
100
AcDbEntity
  8
0
  6
Continuous
 62
     7
370
    25
100
AcDbCircle
 10
152.0522168992
 20
110.0870482777
 30
0.0
 40
2.000000000000006
100
AcDbArc
 50
1.31709852
 51
14.7679396465
  0
SPLINE
  5
71
330
1F
100
AcDbEntity
  8
0
  6
Continuous
 62
     7
370
    25
100
AcDbSpline
210
0.0
220
0.0
230
1.0
 70
     8
 71
     3
 72
     9
 73
     5
 74
     0
 42
0.00000001
 43
0.00000001
 40
0.0
 40
0.0
 40
0.0
 40
0.0
 40
0.577884443020361
 40
1.0
 40
1.0
 40
1.0
 40
1.0
 10
129.0044084741337
 20
329.2233064014244
 30
0.0
 10
129.0458872666214
 20
328.990019642827
 30
0.0
 10
129.1176642334333
 20
328.5863286256779
 30
0.0
 10
129.1478328684031
 20
327.9484816373334
 30
0.0
 10
129.1605675185566
 20
327.6792365005805
 30
0.0
  0
SPLINE
  5
72
330
1F
100
AcDbEntity
  8
0
  6
Continuous
 62
     7
370
    25
100
AcDbSpline
210
0.0
220
0.0
230
1.0
 70
     8
 71
     3
 72
     9
 73
     5
 74
     0
 42
0.00000001
 43
0.00000001
 40
0.0
 40
0.0
 40
0.0
 40
0.0
 40
0.4221155569796369
 40
1.0
 40
1.0
 40
1.0
 40
1.0
 10
154.0517981807051
 20
327.6792365005805
 30
0.0
 10
154.0645328308587
 20
327.9484816373334
 30
0.0
 10
154.0947014658284
 20
328.5863286256779
 30
0.0
 10
154.1664784326403
 20
328.990019642827
 30
0.0
 10
154.2079572251281
 20
329.2233064014244
 30
0.0
  0
SPLINE
  5
73
330
1F
100
AcDbEntity
  8
0
  6
Continuous
 62
     7
370
    25
100
AcDbSpline
210
0.0
220
0.0
230
1.0
 70
     8
 71
     3
 72
     9
 73
     5
 74
     0
 42
0.00000001
 43
0.00000001
 40
0.0
 40
0.0
 40
0.0
 40
0.0
 40
0.4221155624487495
 40
1.0
 40
1.0
 40
1.0
 40
1.0
 10
129.160567521118
 20
110.1278449065061
 30
0.0
 10
129.1478328896164
 20
109.8586015142349
 30
0.0
 10
129.1176642992243
 20
109.2207586668657
 30
0.0
 10
129.0458875338013
 20
108.817072131984
 30
0.0
 10
129.0044088580856
 20
108.5837879658268
 30
0.0
  0
SPLINE
  5
74
330
1F
100
AcDbEntity
  8
0
  6
Continuous
 62
     7
370
    25
100
AcDbSpline
210
0.0
220
0.0
230
1.0
 70
     8
 71
     3
 72
     9
 73
     5
 74
     0
 42
0.00000001
 43
0.00000001
 40
0.0
 40
0.0
 40
0.0
 40
0.0
 40
0.5778844375512466
 40
1.0
 40
1.0
 40
1.0
 40
1.0
 10
154.2079568411762
 20
108.5837879658268
 30
0.0
 10
154.1664781654604
 20
108.817072131984
 30
0.0
 10
154.0947014000374
 20
109.2207586668658
 30
0.0
 10
154.0645328096454
 20
109.858601514235
 30
0.0
 10
154.0517981781438
 20
110.1278449065061
 30
0.0
  0
LINE
  5
75
330
1F
100
AcDbEntity
  8
0
  6
Continuous
 62
     7
370
    25
100
AcDbLine
 10
126.8879265954
 20
340.3040451153
 30
0.0
 11
129.0068597598
 21
329.2102110274
 31
0.0
  0
LINE
  5
76
330
1F
100
AcDbEntity
  8
0
  6
Continuous
 62
     7
370
    25
100
AcDbLine
 10
154.2055059395
 20
329.2102110274
 30
0.0
 11
156.3244391039
 21
340.3040451153
 31
0.0
  0
LINE
  5
77
330
1F
100
AcDbEntity
  8
0
  6
Continuous
 62
     7
370
    25
100
AcDbLine
 10
129.0068603108
 20
108.5968841419
 30
0.0
 11
126.8879271464
 21
97.5031384595
 31
0.0
  0
LINE
  5
78
330
1F
100
AcDbEntity
  8
0
  6
Continuous
 62
     7
370
    25
100
AcDbLine
 10
156.3244385528
 20
97.5031384595
 30
0.0
 11
154.2055053885
 21
108.5968841419
 31
0.0
  0
ARC
  5
79
330
1F
100
AcDbEntity
  8
0
  6
Continuous
 62
     7
370
    25
100
AcDbCircle
 10
128.8524139821
 20
340.6792641281
 30
0.0
 40
2.0
100
AcDbArc
 50
165.1176814863
 51
180.0
  0
ARC
  5
7A
330
1F
100
AcDbEntity
  8
0
  6
Continuous
 62
     7
370
    25
100
AcDbCircle
 10
128.8524139821
 20
340.6792641281
 30
0.0
 40
2.000000000000015
100
AcDbArc
 50
180.0
 51
190.8133104829
  0
ARC
  5
7B
330
1F
100
AcDbEntity
  8
0
  6
Continuous
 62
     7
370
    25
100
AcDbCircle
 10
154.3599517172
 20
340.6792641281
 30
0.0
 40
2.000000000000046
100
AcDbArc
 50
349.1866895171
 51
14.8823185137
  0
ARC
  5
7C
330
1F
100
AcDbEntity
  8
0
  6
Continuous
 62
     7
370
    25
100
AcDbCircle
 10
128.8524139821
 20
97.1279165619
 30
0.0
 40
2.0
100
AcDbArc
 50
169.1866053781
 51
180.0
  0
ARC
  5
7D
330
1F
100
AcDbEntity
  8
0
  6
Continuous
 62
     7
370
    25
100
AcDbCircle
 10
128.8524139821
 20
97.1279165619
 30
0.0
 40
2.0
100
AcDbArc
 50
180.0
 51
194.8824919261
  0
ARC
  5
7E
330
1F
100
AcDbEntity
  8
0
  6
Continuous
 62
     7
370
    25
100
AcDbCircle
 10
154.3599517172
 20
97.1279165619
 30
0.0
 40
2.000000000000046
100
AcDbArc
 50
345.1175080739
 51
10.8133946219
  0
LINE
  5
7F
330
1F
100
AcDbEntity
  8
0
  6
Continuous
 62
     7
370
    25
100
AcDbLine
 10
127.0039621334
 20
341.510747867
 30
0.0
 11
126.919503213
 21
341.1929332423
 31
0.0
  0
LINE
  5
80
330
1F
100
AcDbEntity
  8
0
  6
Continuous
 62
     7
370
    25
100
AcDbLine
 10
156.2928624862
 20
341.1929332423
 30
0.0
 11
156.2084035658
 21
341.510747867
 31
0.0
  0
LINE
  5
81
330
1F
100
AcDbEntity
  8
0
  6
Continuous
 62
     7
370
    25
100
AcDbLine
 10
126.9195047677
 20
96.6142415975
 30
0.0
 11
127.0039637605
 21
96.2964305756
 31
0.0
  0
LINE
  5
82
330
1F
100
AcDbEntity
  8
0
  6
Continuous
 62
     7
370
    25
100
AcDbLine
 10
156.2084019388
 20
96.2964305756
 30
0.0
 11
156.2928609315
 21
96.6142415975
 31
0.0
  0
LINE
  5
83
330
1F
100
AcDbEntity
  8
0
  6
Continuous
 62
     7
370
    25
100
AcDbLine
 10
145.0998035669
 20
71.9035249024
 30
0.0
 11
138.1125621324
 21
71.9035249024
 31
0.0
  0
LINE
  5
84
330
1F
100
AcDbEntity
  8
0
  6
Continuous
 62
     7
370
    25
100
AcDbLine
 10
138.1125621324
 20
71.9035249024
 30
0.0
 11
137.9599928906
 21
71.9035266622
 31
0.0
  0
LINE
  5
85
330
1F
100
AcDbEntity
  8
0
  6
Continuous
 62
     7
370
    25
100
AcDbLine
 10
145.2523728086
 20
71.9035266622
 30
0.0
 11
145.0998035669
 21
71.9035249024
 31
0.0
  0
LINE
  5
86
330
1F
100
AcDbEntity
  8
0
  6
Continuous
 62
     7
370
    25
100
AcDbLine
 10
137.0215246903
 20
365.9035922825
 30
0.0
 11
137.9599928906
 21
365.9035266619
 31
0.0
  0
LINE
  5
87
330
1F
100
AcDbEntity
  8
0
  6
Continuous
 62
     7
370
    25
100
AcDbLine
 10
146.190841009
 20
365.9035922825
 30
0.0
 11
137.0215246903
 21
365.9035922825
 31
0.0
  0
LINE
  5
88
330
1F
100
AcDbEntity
  8
0
  6
Continuous
 62
     7
370
    25
100
AcDbLine
 10
145.2523728086
 20
365.9035266619
 30
0.0
 11
146.190841009
 21
365.9035922825
 31
0.0
  0
ELLIPSE
  5
89
330
1F
100
AcDbEntity
  8
0
  6
Continuous
 62
     7
370
    25
100
AcDbEllipse
 10
146.1908409628
 20
363.9035922825
 30
0.0
 11
-2.000330546307936
 21
-0.0001398692040197603
 31
0.0
210
0.0
220
0.0
230
1.0
 40
0.9998347517
 41
3.480763490505508
 42
4.712319045782643
  0
LINE
  5
8A
330
1F
100
AcDbEntity
  8
0
  6
Continuous
 62
     7
370
    25
100
AcDbLine
 10
156.1592962656
 20
341.6697709374
 30
0.0
 11
148.0771678638
 21
364.5691347423
 31
0.0
  0
LINE
  5
8B
330
1F
100
AcDbEntity
  8
0
  6
Continuous
 62
     7
370
    25
100
AcDbLine
 10
135.1351978354
 20
364.5691347423
 30
0.0
 11
127.0530694337
 21
341.6697709374
 31
0.0
  0
ELLIPSE
  5
8C
330
1F
100
AcDbEntity
  8
0
  6
Continuous
 62
     7
370
    25
100
AcDbEllipse
 10
137.0215247365
 20
363.9035922825
 30
0.0
 11
2.000330546307936
 21
-0.0001398692040197603
 31
0.0
210
0.0
220
0.0
230
1.0
 40
0.9998347517
 41
1.570866261396971
 42
2.802421816674052
  0
LINE
  5
8D
330
1F
100
AcDbEntity
  8
0
  6
Continuous
 62
     7
370
    25
100
AcDbLine
 10
135.1351978354
 20
73.2380498229
 30
0.0
 11
127.0530694337
 21
96.1374136278
 31
0.0
  0
ELLIPSE
  5
8E
330
1F
100
AcDbEntity
  8
0
  6
Continuous
 62
     7
370
    25
100
AcDbEllipse
 10
137.0215247365
 20
73.9035922827
 30
0.0
 11
2.000330546307936
 21
0.0001398692039913385
 31
3.556372973889666E-10
210
-1.777892640326783E-10
220
-1.243156681497204E-14
230
1.0
 40
0.9998347517
 41
3.480763490505558
 42
4.712319045782658
  0
LINE
  5
8F
330
1F
100
AcDbEntity
  8
0
  6
Continuous
 62
     7
370
    25
100
AcDbLine
 10
137.9599928906
 20
71.9035266622
 30
0.0
 11
137.0215246903
 21
71.9035922827
 31
0.0
  0
ELLIPSE
  5
90
330
1F
100
AcDbEntity
  8
0
  6
Continuous
 62
     7
370
    25
100
AcDbEllipse
 10
146.1908409628
 20
73.9035922827
 30
0.0
 11
-2.000330546307936
 21
0.0001398692039913385
 31
3.556372973889666E-10
210
1.777892640326783E-10
220
-1.243156681497204E-14
230
1.0
 40
0.9998347517
 41
1.570866261396942
 42
2.802421816674046
  0
LINE
  5
91
330
1F
100
AcDbEntity
  8
0
  6
Continuous
 62
     7
370
    25
100
AcDbLine
 10
146.190841009
 20
71.9035922827
 30
0.0
 11
145.2523728086
 21
71.9035266622
 31
0.0
  0
LINE
  5
92
330
1F
100
AcDbEntity
  8
0
  6
Continuous
 62
     7
370
    25
100
AcDbLine
 10
156.1592962656
 20
96.1374136278
 30
0.0
 11
148.0771678638
 21
73.2380498229
 31
0.0
  0
SPLINE
  5
93
330
1F
100
AcDbEntity
  8
0
  6
Continuous
 62
     7
370
    25
100
AcDbSpline
210
0.0
220
0.0
230
1.0
 70
     8
 71
     3
 72
    11
 73
     7
 74
     0
 42
0.00000001
 43
0.00000001
 40
0.0
 40
0.0
 40
0.0
 40
0.0
 40
0.0301863063097504
 40
0.1348834825815082
 40
0.7288811654022483
 40
1.0
 40
1.0
 40
1.0
 40
1.0
 10
129.4741189370863
 20
327.3894491056676
 30
0.0
 10
129.4695996805439
 20
327.3858665780278
 30
0.0
 10
129.4494059855993
 20
327.3698585312156
 30
0.0
 10
129.3503347082639
 20
327.2836875155974
 30
0.0
 10
129.2430917539981
 20
327.1646531444262
 30
0.0
 10
129.2843262315588
 20
327.079357497093
 30
0.0
 10
129.2972487030137
 20
327.0526266972116
 30
0.0
  0
SPLINE
  5
94
330
1F
100
AcDbEntity
  8
0
  6
Continuous
 62
     7
370
    25
100
AcDbSpline
210
0.0
220
0.0
230
1.0
 70
     8
 71
     3
 72
    11
 73
     7
 74
     0
 42
0.00000001
 43
0.00000001
 40
0.0
 40
0.0
 40
0.0
 40
0.0
 40
0.2764103486277549
 40
0.8668099662490757
 40
0.969797388422197
 40
1.0
 40
1.0
 40
1.0
 40
1.0
 10
153.914496522596
 20
327.0528971954969
 30
0.0
 10
153.9276185586498
 20
327.0801497967351
 30
0.0
 10
153.9687686519271
 20
327.1656126836233
 30
0.0
 10
153.8611158956983
 20
327.2845632871469
 30
0.0
 10
153.7626955880029
 20
327.3700680665668
 30
0.0
 10
153.7427660499837
 20
327.3858665821411
 30
0.0
 10
153.7382467621754
 20
327.3894491056676
 30
0.0
  0
SPLINE
  5
95
330
1F
100
AcDbEntity
  8
0
  6
Continuous
 62
     7
370
    25
100
AcDbSpline
210
0.0
220
0.0
230
1.0
 70
     8
 71
     3
 72
    11
 73
     7
 74
     0
 42
0.00000001
 43
0.00000001
 40
0.0
 40
0.0
 40
0.0
 40
0.0
 40
0.0302025889728924
 40
0.1331899340661822
 40
0.7235891098075953
 40
1.0
 40
1.0
 40
1.0
 40
1.0
 10
129.4741189370863
 20
110.4176294116294
 30
0.0
 10
129.4695996492876
 20
110.4212119568159
 30
0.0
 10
129.4496701113108
 20
110.4370105679086
 30
0.0
 10
129.3512498008127
 20
110.5225158774235
 30
0.0
 10
129.2435970124431
 20
110.6414673415243
 30
0.0
 10
129.2847471659685
 20
110.7269310142045
 30
0.0
 10
129.2978692454349
 20
110.7541839162797
 30
0.0
  0
SPLINE
  5
96
330
1F
100
AcDbEntity
  8
0
  6
Continuous
 62
     7
370
    25
100
AcDbSpline
210
0.0
220
0.0
230
1.0
 70
     8
 71
     3
 72
    11
 73
     7
 74
     0
 42
0.00000001
 43
0.00000001
 40
0.0
 40
0.0
 40
0.0
 40
0.0
 40
0.2711193776342459
 40
0.8651166179216092
 40
0.9698137161799473
 40
1.0
 40
1.0
 40
1.0
 40
1.0
 10
153.9151169266638
 20
110.7544544147152
 30
0.0
 10
153.9280394414032
 20
110.727723318622
 30
0.0
 10
153.9692739792809
 20
110.6424268870378
 30
0.0
 10
153.8620309937994
 20
110.5233916546017
 30
0.0
 10
153.7629597136139
 20
110.4372201044933
 30
0.0
 10
153.7427660187093
 20
110.4212119609234
 30
0.0
 10
153.7382467621754
 20
110.4176294116294
 30
0.0
  0
ELLIPSE
  5
97
330
1F
100
AcDbEntity
  8
0
  6
Continuous
 62
     7
370
    25
100
AcDbEllipse
 10
128.9368729025
 20
340.9970787528
 30
0.0
 11
-0.5254903306732216
 21
-1.977393405728207
 31
0.0
210
0.0
220
0.0
230
1.0
 40
0.9775044073
 41
4.631019162204558
 42
4.712388980384727
  0
ELLIPSE
  5
98
330
1F
100
AcDbEntity
  8
0
  6
Continuous
 62
     7
370
    25
100
AcDbEllipse
 10
154.2754927968
 20
340.9970787528
 30
0.0
 11
-0.5254903306731933
 21
1.977393405728264
 31
0.0
210
0.0
220
0.0
230
0.9999999999999999
 40
0.9775044073
 41
4.712388980384755
 42
4.79375879856487
  0
LINE
  5
99
330
1F
100
AcDbEntity
  8
0
  6
Continuous
 62
     7
370
    25
100
AcDbLine
 10
127.0530694337
 20
96.1374136278
 30
0.0
 11
127.0039637605
 21
96.2964305756
 31
0.0
  0
LINE
  5
9A
330
1F
100
AcDbEntity
  8
0
  6
Continuous
 62
     7
370
    25
100
AcDbLine
 10
156.2084019388
 20
96.2964305756
 30
0.0
 11
156.1592962656
 21
96.1374136278
 31
0.0
  0
LWPOLYLINE
  5
9B
330
1F
100
AcDbEntity
  8
0
  6
PHANTOM
 62
     8
370
    18
100
AcDbPolyline
 90
        9
 70
   128
 43
0.0
 10
138.1125621324
 20
363.9035223595
 10
137.7532791792
 20
363.9590071035
 10
137.405966896
 20
364.0126432791
 10
137.0821971113
 20
364.0626438242
 10
136.7927572593
 20
364.1073428094
 10
136.5472909619
 20
364.1452509439
 10
136.3539767202
 20
364.1751051959
 10
136.2192554215
 20
364.1959108748
 10
136.1476157402
 20
364.2069747723
  0
ARC
  5
9C
330
1F
100
AcDbEntity
  8
0
  6
PHANTOM
 62
     8
370
    18
100
AcDbCircle
 10
138.1173863637
 20
363.9117607743
 30
0.0
 40
1.991769970151956
100
AcDbArc
 50
90.1387752456
 51
171.4763917815
  0
LINE
  5
9D
330
1F
100
AcDbEntity
  8
0
  6
PHANTOM
 62
     8
370
    18
100
AcDbLine
 10
138.1125621324
 20
365.9035249021
 30
0.0
 11
138.1125621324
 21
363.9035223595
 31
0.0
  0
LINE
  5
9E
330
1F
100
AcDbEntity
  8
0
  6
PHANTOM
 62
     8
370
    18
100
AcDbLine
 10
138.1125621324
 20
365.9035249021
 30
0.0
 11
145.0998035669
 21
365.9035249021
 31
0.0
  0
LINE
  5
9F
330
1F
100
AcDbEntity
  8
0
  6
PHANTOM
 62
     8
370
    18
100
AcDbLine
 10
145.0998035669
 20
363.9035223595
 30
0.0
 11
145.0998035669
 21
365.9035249021
 31
0.0
  0
LINE
  5
A0
330
1F
100
AcDbEntity
  8
0
  6
PHANTOM
 62
     8
370
    18
100
AcDbLine
 10
145.0998035669
 20
363.9035223595
 30
0.0
 11
138.1125621324
 21
363.9035223595
 31
0.0
  0
LWPOLYLINE
  5
A1
330
1F
100
AcDbEntity
  8
0
  6
PHANTOM
 62
     8
370
    18
100
AcDbPolyline
 90
        9
 70
   128
 43
0.0
 10
147.0647499591
 20
364.2069747723
 10
146.9931102778
 20
364.1959108748
 10
146.858388979
 20
364.1751051959
 10
146.6650747374
 20
364.1452509439
 10
146.41960844
 20
364.1073428094
 10
146.130168588
 20
364.0626438242
 10
145.8063988033
 20
364.0126432791
 10
145.4590865201
 20
363.9590071035
 10
145.0998035669
 20
363.9035223595
  0
ARC
  5
A2
330
1F
100
AcDbEntity
  8
0
  6
PHANTOM
 62
     8
370
    18
100
AcDbCircle
 10
145.0949793355
 20
363.9117607743
 30
0.0
 40
1.991769970152121
100
AcDbArc
 50
8.5236082185
 51
89.8612247544
  0
LINE
  5
A3
330
1F
100
AcDbEntity
  8
0
  6
PHANTOM
 62
     8
370
    18
100
AcDbLine
 10
138.1125621324
 20
363.9035223595
 30
0.0
 11
137.8027842958
 21
361.8976019424
 31
0.0
  0
LWPOLYLINE
  5
A4
330
1F
100
AcDbEntity
  8
0
  6
PHANTOM
 62
     8
370
    18
100
AcDbPolyline
 90
        9
 70
   128
 43
0.0
 10
135.8378379036
 20
362.2010543552
 10
135.9094775849
 20
362.1899904577
 10
136.0441988836
 20
362.1691847788
 10
136.2375131253
 20
362.1393305268
 10
136.4829794227
 20
362.1014223923
 10
136.7724192747
 20
362.0567234072
 10
137.0961890594
 20
362.0067228621
 10
137.4435013426
 20
361.9530866864
 10
137.8027842958
 20
361.8976019424
  0
LINE
  5
A5
330
1F
100
AcDbEntity
  8
0
  6
PHANTOM
 62
     8
370
    18
100
AcDbLine
 10
135.8378379036
 20
362.2010543552
 30
0.0
 11
136.1476157402
 21
364.2069747723
 31
0.0
  0
LINE
  5
A6
330
1F
100
AcDbEntity
  8
0
  6
PHANTOM
 62
     8
370
    18
100
AcDbLine
 10
147.0647499591
 20
364.2069747723
 30
0.0
 11
147.3745277957
 21
362.2010543552
 31
0.0
  0
LWPOLYLINE
  5
A7
330
1F
100
AcDbEntity
  8
0
  6
PHANTOM
 62
     8
370
    18
100
AcDbPolyline
 90
        9
 70
   128
 43
0.0
 10
145.4095814035
 20
361.8976019424
 10
145.7688643567
 20
361.9530866864
 10
146.1161766399
 20
362.0067228621
 10
146.4399464246
 20
362.0567234072
 10
146.7293862766
 20
362.1014223923
 10
146.974852574
 20
362.1393305268
 10
147.1681668157
 20
362.1691847788
 10
147.3028881144
 20
362.1899904577
 10
147.3745277957
 20
362.2010543552
  0
LINE
  5
A8
330
1F
100
AcDbEntity
  8
0
  6
PHANTOM
 62
     8
370
    18
100
AcDbLine
 10
145.4095814035
 20
361.8976019424
 30
0.0
 11
145.0998035669
 21
363.9035223595
 31
0.0
  0
LINE
  5
A9
330
1F
100
AcDbEntity
  8
0
  6
PHANTOM
 62
     8
370
    18
100
AcDbLine
 10
137.8027842958
 20
75.9094427768
 30
0.0
 11
138.1125621324
 21
73.9035223597
 31
0.0
  0
LINE
  5
AA
330
1F
100
AcDbEntity
  8
0
  6
PHANTOM
 62
     8
370
    18
100
AcDbLine
 10
137.8027842958
 20
361.8976019424
 30
0.0
 11
137.8027842958
 21
75.9094427768
 31
0.0
  0
LINE
  5
AB
330
1F
100
AcDbEntity
  8
0
  6
PHANTOM
 62
     8
370
    18
100
AcDbLine
 10
145.4095814035
 20
75.9094427768
 30
0.0
 11
145.4095814035
 21
361.8976019424
 31
0.0
  0
LINE
  5
AC
330
1F
100
AcDbEntity
  8
0
  6
PHANTOM
 62
     8
370
    18
100
AcDbLine
 10
145.0998035669
 20
73.9035223597
 30
0.0
 11
145.4095814035
 21
75.9094427768
 31
0.0
  0
LINE
  5
AD
330
1F
100
AcDbEntity
  8
0
  6
PHANTOM
 62
     8
370
    18
100
AcDbLine
 10
138.1125621324
 20
73.9035223597
 30
0.0
 11
145.0998035669
 21
73.9035223597
 31
0.0
  0
LWPOLYLINE
  5
AE
330
1F
100
AcDbEntity
  8
0
  6
PHANTOM
 62
     8
370
    18
100
AcDbPolyline
 90
        9
 70
   128
 43
0.0
 10
137.8027842958
 20
361.8976019424
 10
137.5340153519
 20
361.8976019654
 10
137.2701222703
 20
361.8976020342
 10
137.0158924579
 20
361.8976021475
 10
136.7759380158
 20
361.8976023031
 10
136.554612069
 20
361.8976024983
 10
136.3559297944
 20
361.8976027296
 10
136.1834955793
 20
361.8976029927
 10
136.0404376329
 20
361.8976032829
  0
ARC
  5
AF
330
1F
100
AcDbEntity
  8
0
  6
PHANTOM
 62
     8
370
    18
100
AcDbCircle
 10
136.3610925461
 20
362.3310477899
 30
0.0
 40
0.5391601932240915
100
AcDbArc
 50
193.9516817072
 51
233.5065905333
  0
LWPOLYLINE
  5
B0
330
1F
100
AcDbEntity
  8
0
  6
PHANTOM
 62
     8
370
    18
100
AcDbPolyline
 90
        9
 70
   128
 43
0.0
 10
136.0404376329
 20
75.9094441173
 10
136.1834955793
 20
75.9094438271
 10
136.3559297944
 20
75.909443564
 10
136.554612069
 20
75.9094433327
 10
136.7759380158
 20
75.9094431375
 10
137.0158924579
 20
75.9094429818
 10
137.2701222703
 20
75.9094428686
 10
137.5340153519
 20
75.9094427998
 10
137.8027842958
 20
75.9094427768
  0
LINE
  5
B1
330
1F
100
AcDbEntity
  8
0
  6
PHANTOM
 62
     8
370
    18
100
AcDbLine
 10
136.0404376329
 20
75.9094441173
 30
0.0
 11
136.0404376329
 21
361.8976032829
 31
0.0
  0
LWPOLYLINE
  5
B2
330
1F
100
AcDbEntity
  8
0
  6
PHANTOM
 62
     8
370
    18
100
AcDbPolyline
 90
        9
 70
   128
 43
0.0
 10
147.1719280663
 20
361.8976032829
 10
147.02887012
 20
361.8976029927
 10
146.8564359049
 20
361.8976027296
 10
146.6577536302
 20
361.8976024983
 10
146.4364276835
 20
361.8976023031
 10
146.1964732414
 20
361.8976021475
 10
145.942243429
 20
361.8976020342
 10
145.6783503474
 20
361.8976019654
 10
145.4095814035
 20
361.8976019424
  0
ARC
  5
B3
330
1F
100
AcDbEntity
  8
0
  6
PHANTOM
 62
     8
370
    18
100
AcDbCircle
 10
146.8512731532
 20
362.3310477899
 30
0.0
 40
0.5391601932245781
100
AcDbArc
 50
306.4934094668
 51
346.0483182928
  0
LWPOLYLINE
  5
B4
330
1F
100
AcDbEntity
  8
0
  6
PHANTOM
 62
     8
370
    18
100
AcDbPolyline
 90
        9
 70
   128
 43
0.0
 10
145.4095814035
 20
75.9094427768
 10
145.6783503474
 20
75.9094427998
 10
145.942243429
 20
75.9094428686
 10
146.1964732414
 20
75.9094429818
 10
146.4364276835
 20
75.9094431375
 10
146.6577536302
 20
75.9094433327
 10
146.8564359049
 20
75.909443564
 10
147.02887012
 20
75.9094438271
 10
147.1719280663
 20
75.9094441173
  0
LINE
  5
B5
330
1F
100
AcDbEntity
  8
0
  6
PHANTOM
 62
     8
370
    18
100
AcDbLine
 10
147.1719280663
 20
361.8976032829
 30
0.0
 11
147.1719280663
 21
75.9094441173
 31
0.0
  0
LWPOLYLINE
  5
B6
330
1F
100
AcDbEntity
  8
0
  6
PHANTOM
 62
     8
370
    18
100
AcDbPolyline
 90
        9
 70
   128
 43
0.0
 10
136.1476157402
 20
73.6000744815
 10
136.2192554215
 20
73.6111374693
 10
136.3539767202
 20
73.6319422871
 10
136.5472909619
 20
73.6617957554
 10
136.7927572593
 20
73.6997032095
 10
137.0821971113
 20
73.7444016405
 10
137.405966896
 20
73.7944017761
 10
137.7532791792
 20
73.8480377004
 10
138.1125621324
 20
73.9035223597
  0
LINE
  5
B7
330
1F
100
AcDbEntity
  8
0
  6
PHANTOM
 62
     8
370
    18
100
AcDbLine
 10
136.1476157402
 20
73.6000744815
 30
0.0
 11
135.8378379036
 21
75.6059948986
 31
0.0
  0
LWPOLYLINE
  5
B8
330
1F
100
AcDbEntity
  8
0
  6
PHANTOM
 62
     8
370
    18
100
AcDbPolyline
 90
        9
 70
   128
 43
0.0
 10
137.8027842958
 20
75.9094427768
 10
137.4435013426
 20
75.8539581174
 10
137.0961890594
 20
75.8003221931
 10
136.7724192747
 20
75.7503220576
 10
136.4829794227
 20
75.7056236266
 10
136.2375131253
 20
75.6677161724
 10
136.0441988836
 20
75.6378627042
 10
135.9094775849
 20
75.6170578864
 10
135.8378379036
 20
75.6059948986
  0
ARC
  5
B9
330
1F
100
AcDbEntity
  8
0
  6
PHANTOM
 62
     8
370
    18
100
AcDbCircle
 10
136.3610892129
 20
75.4760010417
 30
0.0
 40
0.5391570601560681
100
AcDbArc
 50
126.4932151665
 51
166.0481893393
  0
LWPOLYLINE
  5
BA
330
1F
100
AcDbEntity
  8
0
  6
PHANTOM
 62
     8
370
    18
100
AcDbPolyline
 90
        9
 70
   128
 43
0.0
 10
147.3745277957
 20
75.6059948986
 10
147.3028881144
 20
75.6170578864
 10
147.1681668157
 20
75.6378627042
 10
146.974852574
 20
75.6677161724
 10
146.7293862766
 20
75.7056236266
 10
146.4399464246
 20
75.7503220576
 10
146.1161766399
 20
75.8003221931
 10
145.7688643567
 20
75.8539581174
 10
145.4095814035
 20
75.9094427768
  0
ARC
  5
BB
330
1F
100
AcDbEntity
  8
0
  6
PHANTOM
 62
     8
370
    18
100
AcDbCircle
 10
146.8512764864
 20
75.4760010417
 30
0.0
 40
0.5391570601616927
100
AcDbArc
 50
13.9518106608
 51
53.5067848332
  0
LWPOLYLINE
  5
BC
330
1F
100
AcDbEntity
  8
0
  6
PHANTOM
 62
     8
370
    18
100
AcDbPolyline
 90
        9
 70
   128
 43
0.0
 10
145.0998035669
 20
73.9035223597
 10
145.4590865201
 20
73.8480377004
 10
145.8063988033
 20
73.7944017761
 10
146.130168588
 20
73.7444016405
 10
146.41960844
 20
73.6997032095
 10
146.6650747374
 20
73.6617957554
 10
146.858388979
 20
73.6319422871
 10
146.9931102778
 20
73.6111374693
 10
147.0647499591
 20
73.6000744815
  0
LINE
  5
BD
330
1F
100
AcDbEntity
  8
0
  6
PHANTOM
 62
     8
370
    18
100
AcDbLine
 10
147.3745277957
 20
75.6059948986
 30
0.0
 11
147.0647499591
 21
73.6000744815
 31
0.0
  0
LINE
  5
BE
330
1F
100
AcDbEntity
  8
0
  6
PHANTOM
 62
     8
370
    18
100
AcDbLine
 10
138.1125621324
 20
73.9035223597
 30
0.0
 11
138.1125621324
 21
71.9035249024
 31
0.0
  0
ARC
  5
BF
330
1F
100
AcDbEntity
  8
0
  6
PHANTOM
 62
     8
370
    18
100
AcDbCircle
 10
138.1173856974
 20
73.8952883543
 30
0.0
 40
1.991769292660474
100
AcDbArc
 50
188.5236074973
 51
269.861243874
  0
LINE
  5
C0
330
1F
100
AcDbEntity
  8
0
  6
PHANTOM
 62
     8
370
    18
100
AcDbLine
 10
145.0998035669
 20
71.9035249024
 30
0.0
 11
145.0998035669
 21
73.9035223597
 31
0.0
  0
ARC
  5
C1
330
1F
100
AcDbEntity
  8
0
  6
PHANTOM
 62
     8
370
    18
100
AcDbCircle
 10
145.0949800018
 20
73.8952883543
 30
0.0
 40
1.991769292660588
100
AcDbArc
 50
270.138756126
 51
351.4763925027
  0
LINE
  5
C2
330
1F
100
AcDbEntity
  8
0
  6
PHANTOM
 62
     8
370
    18
100
AcDbLine
 10
136.0404376329
 20
361.8976032829
 30
0.0
 11
129.3978021373
 21
327.7200318034
 31
0.0
  0
ARC
  5
C3
330
1F
100
AcDbEntity
  8
0
  6
PHANTOM
 62
     8
370
    18
100
AcDbCircle
 10
129.7184570504
 20
328.1534763104
 30
0.0
 40
0.539160193224431
100
AcDbArc
 50
193.9516817072
 51
233.5065905332
  0
LINE
  5
C4
330
1F
100
AcDbEntity
  8
0
  6
PHANTOM
 62
     8
370
    18
100
AcDbLine
 10
129.1952024079
 20
328.0234828757
 30
0.0
 11
135.8378379036
 21
362.2010543552
 31
0.0
  0
LINE
  5
C5
330
1F
100
AcDbEntity
  8
0
  6
PHANTOM
 62
     8
370
    18
100
AcDbLine
 10
129.5736969705
 20
325.9364463716
 30
0.0
 11
129.5736969705
 21
111.8706316738
 31
0.0
  0
ELLIPSE
  5
C6
330
1F
100
AcDbEntity
  8
0
  6
PHANTOM
 62
     8
370
    18
100
AcDbEllipse
 10
127.193654008
 20
323.0547906278
 30
0.0
 11
1.240751645429071
 21
6.19369183400687
 31
0.0
210
0.0
220
0.0
230
1.0
 40
0.3279213894
 41
5.260779944398773
 42
5.551068769298363
  0
ELLIPSE
  5
C7
330
1F
100
AcDbEntity
  8
0
  6
PHANTOM
 62
     8
370
    18
100
AcDbEllipse
 10
126.5465616032
 20
326.7573374431
 30
0.0
 11
-0.7139641803099437
 21
4.00355605843464
 31
0.0
210
0.0
220
0.0
230
1.0
 40
0.7362506789
 41
4.73902884171375
 42
4.822570332285992
  0
LINE
  5
C8
330
1F
100
AcDbEntity
  8
0
  6
PHANTOM
 62
     8
370
    18
100
AcDbLine
 10
129.3978021373
 20
110.0870470755
 30
0.0
 11
136.0404376329
 21
75.9094441173
 31
0.0
  0
ELLIPSE
  5
C9
330
1F
100
AcDbEntity
  8
0
  6
PHANTOM
 62
     8
370
    18
100
AcDbEllipse
 10
126.5465616032
 20
111.0497549476
 30
0.0
 11
0.7139431066018035
 21
4.003556433150663
 31
0.0
210
0.0
220
0.0
230
0.9999999999999999
 40
0.736251885
 41
4.602200479093823
 42
4.685741969666074
  0
ELLIPSE
  5
CA
330
1F
100
AcDbEntity
  8
0
  6
PHANTOM
 62
     8
370
    18
100
AcDbEllipse
 10
127.193654008
 20
114.7522986963
 30
0.0
 11
-1.240754909038458
 21
6.193697060030247
 31
0.0
210
0.0
220
0.0
230
0.9999999999999999
 40
0.3279207908
 41
3.87370758460733
 42
4.163996409506868
  0
LINE
  5
CB
330
1F
100
AcDbEntity
  8
0
  6
PHANTOM
 62
     8
370
    18
100
AcDbLine
 10
153.814563562
 20
327.7200318034
 30
0.0
 11
147.1719280663
 21
361.8976032829
 31
0.0
  0
ELLIPSE
  5
CC
330
1F
100
AcDbEntity
  8
0
  6
PHANTOM
 62
     8
370
    18
100
AcDbEllipse
 10
156.665804096
 20
326.7573374431
 30
0.0
 11
0.7139641803099437
 21
4.00355605843464
 31
0.0
210
0.0
220
0.0
230
1.0
 40
0.7362506789
 41
1.460614974893606
 42
1.544156465465858
  0
ELLIPSE
  5
CD
330
1F
100
AcDbEntity
  8
0
  6
PHANTOM
 62
     8
370
    18
100
AcDbEllipse
 10
156.0187116913
 20
323.0547906278
 30
0.0
 11
-1.240751645429015
 21
6.19369183400687
 31
0.0
210
0.0
220
0.0
230
0.9999999999999999
 40
0.3279213894
 41
0.7321165378812504
 42
1.022405362780819
  0
LINE
  5
CE
330
1F
100
AcDbEntity
  8
0
  6
PHANTOM
 62
     8
370
    18
100
AcDbLine
 10
153.6386687288
 20
111.8706316738
 30
0.0
 11
153.6386687288
 21
325.9364463716
 31
0.0
  0
ELLIPSE
  5
CF
330
1F
100
AcDbEntity
  8
0
  6
PHANTOM
 62
     8
370
    18
100
AcDbEllipse
 10
156.0187116913
 20
114.7522986963
 30
0.0
 11
1.240754909038515
 21
6.193697060030246
 31
0.0
210
0.0
220
0.0
230
1.0
 40
0.3279207908
 41
2.119188897672744
 42
2.409477722572305
  0
ELLIPSE
  5
D0
330
1F
100
AcDbEntity
  8
0
  6
PHANTOM
 62
     8
370
    18
100
AcDbEllipse
 10
156.665804096
 20
111.0497549476
 30
0.0
 11
-0.7139431066017893
 21
4.003556433150663
 31
0.0
210
0.0
220
0.0
230
0.9999999999999999
 40
0.736251885
 41
1.597443337513521
 42
1.680984828085776
  0
LINE
  5
D1
330
1F
100
AcDbEntity
  8
0
  6
PHANTOM
 62
     8
370
    18
100
AcDbLine
 10
147.1719280663
 20
75.9094441173
 30
0.0
 11
153.814563562
 21
110.0870470755
 31
0.0
  0
LINE
  5
D2
330
1F
100
AcDbEntity
  8
0
  6
PHANTOM
 62
     8
370
    18
100
AcDbLine
 10
147.3745277957
 20
362.2010543552
 30
0.0
 11
154.0171632913
 21
328.0234828757
 31
0.0
  0
ARC
  5
D3
330
1F
100
AcDbEntity
  8
0
  6
PHANTOM
 62
     8
370
    18
100
AcDbCircle
 10
153.4939086488
 20
328.1534763104
 30
0.0
 40
0.5391601932244635
100
AcDbArc
 50
306.4934094668
 51
346.0483182928
  0
LINE
  5
D4
330
1F
100
AcDbEntity
  8
0
  6
PHANTOM
 62
     8
370
    18
100
AcDbLine
 10
135.8378379036
 20
75.6059948986
 30
0.0
 11
129.1952024079
 21
109.7835978568
 31
0.0
  0
ARC
  5
D5
330
1F
100
AcDbEntity
  8
0
  6
PHANTOM
 62
     8
370
    18
100
AcDbCircle
 10
129.7184537172
 20
109.6536039999
 30
0.0
 40
0.5391570601573498
100
AcDbArc
 50
126.4932151666
 51
166.0481893393
  0
ARC
  5
D6
330
1F
100
AcDbEntity
  8
0
  6
PHANTOM
 62
     8
370
    18
100
AcDbCircle
 10
153.493911982
 20
109.6536039999
 30
0.0
 40
0.5391570601581503
100
AcDbArc
 50
13.9518106608
 51
53.5067848334
  0
LINE
  5
D7
330
1F
100
AcDbEntity
  8
0
  6
PHANTOM
 62
     8
370
    18
100
AcDbLine
 10
154.0171632913
 20
109.7835978568
 30
0.0
 11
147.3745277957
 21
75.6059948986
 31
0.0
  0
LINE
  5
D8
330
1F
100
AcDbEntity
  8
0
  6
PHANTOM
 62
     8
370
    18
100
AcDbLine
 10
135.9950464985
 20
364.2069765321
 30
0.0
 11
126.8874675899
 21
340.9827139983
 31
0.0
  0
LINE
  5
D9
330
1F
100
AcDbEntity
  8
0
  6
PHANTOM
 62
     8
370
    18
100
AcDbLine
 10
136.1476157402
 20
364.2069747723
 30
0.0
 11
135.9950464985
 21
364.2069765321
 31
0.0
  0
ELLIPSE
  5
DA
330
1F
100
AcDbEntity
  8
0
  6
PHANTOM
 62
     8
370
    18
100
AcDbEllipse
 10
127.7284882212
 20
327.7233191134
 30
0.0
 11
0.0004034833279433769
 21
4.378397413913262
 31
0.0
210
0.0
220
0.0
230
1.0
 40
0.3357731878
 41
4.781029360241383
 42
5.229795887286713
  0
LINE
  5
DB
330
1F
100
AcDbEntity
  8
0
  6
PHANTOM
 62
     8
370
    18
100
AcDbLine
 10
126.8874675899
 20
340.9827139983
 30
0.0
 11
129.0064007543
 21
329.8888799104
 31
0.0
  0
ARC
  5
DC
330
1F
100
AcDbEntity
  8
0
  6
PHANTOM
 62
     8
370
    18
100
AcDbCircle
 10
137.964817122
 20
363.9117625341
 30
0.0
 40
1.991769970152157
100
AcDbArc
 50
90.1387752456
 51
171.4763917815
  0
LINE
  5
DD
330
1F
100
AcDbEntity
  8
0
  6
PHANTOM
 62
     8
370
    18
100
AcDbLine
 10
137.9599928906
 20
365.9035266619
 30
0.0
 11
138.1125621324
 21
365.9035249021
 31
0.0
  0
LINE
  5
DE
330
1F
100
AcDbEntity
  8
0
  6
PHANTOM
 62
     8
370
    18
100
AcDbLine
 10
145.0998035669
 20
365.9035249021
 30
0.0
 11
145.2523728086
 21
365.9035266619
 31
0.0
  0
ARC
  5
DF
330
1F
100
AcDbEntity
  8
0
  6
PHANTOM
 62
     8
370
    18
100
AcDbCircle
 10
145.2475485773
 20
363.9117625341
 30
0.0
 40
1.991769970152157
100
AcDbArc
 50
8.5236082185
 51
89.8612247544
  0
LINE
  5
E0
330
1F
100
AcDbEntity
  8
0
  6
PHANTOM
 62
     8
370
    18
100
AcDbLine
 10
147.2173192008
 20
364.2069765321
 30
0.0
 11
147.0647499591
 21
364.2069747723
 31
0.0
  0
LINE
  5
E1
330
1F
100
AcDbEntity
  8
0
  6
PHANTOM
 62
     8
370
    18
100
AcDbLine
 10
156.3248981094
 20
340.9827139983
 30
0.0
 11
147.2173192008
 21
364.2069765321
 31
0.0
  0
LINE
  5
E2
330
1F
100
AcDbEntity
  8
0
  6
PHANTOM
 62
     8
370
    18
100
AcDbLine
 10
154.205964945
 20
329.8888799104
 30
0.0
 11
156.3248981094
 21
340.9827139983
 31
0.0
  0
ELLIPSE
  5
E3
330
1F
100
AcDbEntity
  8
0
  6
PHANTOM
 62
     8
370
    18
100
AcDbEllipse
 10
155.483877478
 20
327.7233191134
 30
0.0
 11
-0.0004034833279433769
 21
4.378397413913262
 31
0.0
210
0.0
220
0.0
230
1.0
 40
0.3357731878
 41
1.053389419892879
 42
1.502155946938206
  0
LINE
  5
E4
330
1F
100
AcDbEntity
  8
0
  6
PHANTOM
 62
     8
370
    18
100
AcDbLine
 10
135.9950464985
 20
73.6000762413
 30
0.0
 11
136.1476157402
 21
73.6000744815
 31
0.0
  0
LINE
  5
E5
330
1F
100
AcDbEntity
  8
0
  6
PHANTOM
 62
     8
370
    18
100
AcDbLine
 10
126.8874675899
 20
96.824466141
 30
0.0
 11
135.9950464985
 21
73.6000762413
 31
0.0
  0
LINE
  5
E6
330
1F
100
AcDbEntity
  8
0
  6
PHANTOM
 62
     8
370
    18
100
AcDbLine
 10
129.0064007543
 20
107.9182118234
 30
0.0
 11
126.8874675899
 21
96.824466141
 31
0.0
  0
ELLIPSE
  5
E7
330
1F
100
AcDbEntity
  8
0
  6
PHANTOM
 62
     8
370
    18
100
AcDbEllipse
 10
127.7284882212
 20
110.0837943858
 30
0.0
 11
-0.0004163186410579556
 21
4.378381823557191
 31
0.0
210
0.0
220
0.0
230
1.0
 40
0.3357743826
 41
4.19497334285888
 42
4.643739869904194
  0
LINE
  5
E8
330
1F
100
AcDbEntity
  8
0
  6
PHANTOM
 62
     8
370
    18
100
AcDbLine
 10
147.0647499591
 20
73.6000744815
 30
0.0
 11
147.2173192008
 21
73.6000762413
 31
0.0
  0
ELLIPSE
  5
E9
330
1F
100
AcDbEntity
  8
0
  6
PHANTOM
 62
     8
370
    18
100
AcDbEllipse
 10
155.483877478
 20
110.0837943858
 30
0.0
 11
0.0004163186410437448
 21
4.378381823557191
 31
0.0
210
0.0
220
0.0
230
1.0
 40
0.3357743826
 41
1.639445437275405
 42
2.088211964320724
  0
LINE
  5
EA
330
1F
100
AcDbEntity
  8
0
  6
PHANTOM
 62
     8
370
    18
100
AcDbLine
 10
156.3248981094
 20
96.824466141
 30
0.0
 11
154.205964945
 21
107.9182118234
 31
0.0
  0
LINE
  5
EB
330
1F
100
AcDbEntity
  8
0
  6
PHANTOM
 62
     8
370
    18
100
AcDbLine
 10
147.2173192008
 20
73.6000762413
 30
0.0
 11
156.3248981094
 21
96.824466141
 31
0.0
  0
ARC
  5
EC
330
1F
100
AcDbEntity
  8
0
  6
PHANTOM
 62
     8
370
    18
100
AcDbCircle
 10
137.9648164557
 20
73.8952901141
 30
0.0
 40
1.991769292660631
100
AcDbArc
 50
188.5236074973
 51
269.861243874
  0
ARC
  5
ED
330
1F
100
AcDbEntity
  8
0
  6
PHANTOM
 62
     8
370
    18
100
AcDbCircle
 10
145.2475492436
 20
73.8952901141
 30
0.0
 40
1.991769292660551
100
AcDbArc
 50
270.138756126
 51
351.4763925027
  0
ARC
  5
EE
330
1F
100
AcDbEntity
  8
0
  6
PHANTOM
 62
     8
370
    18
100
AcDbCircle
 10
137.602563271
 20
364.0448935626
 30
0.0
 40
1.615667373866507
100
AcDbArc
 50
161.0687841424
 51
174.2424300601
  0
ARC
  5
EF
330
1F
100
AcDbEntity
  8
0
  6
PHANTOM
 62
     8
370
    18
100
AcDbCircle
 10
128.4949843624
 20
340.8206310288
 30
0.0
 40
1.615667373865295
100
AcDbArc
 50
161.0687841424
 51
174.2424300601
  0
LINE
  5
F0
330
1F
100
AcDbEntity
  8
0
  6
PHANTOM
 62
     8
370
    18
100
AcDbLine
 10
126.9667104695
 20
341.3448065443
 30
0.0
 11
136.074289378
 21
364.5690690782
 31
0.0
  0
ARC
  5
F1
330
1F
100
AcDbEntity
  8
0
  6
PHANTOM
 62
     8
370
    18
100
AcDbCircle
 10
137.9600872519
 20
363.9038337831
 30
0.0
 40
1.999692881095961
100
AcDbArc
 50
90.0027036648
 51
160.5691630601
  0
ARC
  5
F2
330
1F
100
AcDbEntity
  8
0
  6
PHANTOM
 62
     8
370
    18
100
AcDbCircle
 10
145.2522784474
 20
363.9038337831
 30
0.0
 40
1.999692881095847
100
AcDbArc
 50
19.4308369399
 51
89.9972963352
  0
ARC
  5
F3
330
1F
100
AcDbEntity
  8
0
  6
PHANTOM
 62
     8
370
    18
100
AcDbCircle
 10
145.6098024283
 20
364.0448935626
 30
0.0
 40
1.615667373862665
100
AcDbArc
 50
5.7575699399
 51
18.9312158576
  0
LINE
  5
F4
330
1F
100
AcDbEntity
  8
0
  6
PHANTOM
 62
     8
370
    18
100
AcDbLine
 10
147.1380763212
 20
364.5690690782
 30
0.0
 11
156.2456552298
 21
341.3448065443
 31
0.0
  0
ARC
  5
F5
330
1F
100
AcDbEntity
  8
0
  6
PHANTOM
 62
     8
370
    18
100
AcDbCircle
 10
154.7173813368
 20
340.8206310288
 30
0.0
 40
1.615667373868985
100
AcDbArc
 50
5.7575699399
 51
18.9312158576
  0
ARC
  5
F6
330
1F
100
AcDbEntity
  8
0
  6
PHANTOM
 62
     8
370
    18
100
AcDbCircle
 10
137.6025592709
 20
73.7621590064
 30
0.0
 40
1.615663373471694
100
AcDbArc
 50
185.7575769572
 51
198.931239474
  0
LINE
  5
F7
330
1F
100
AcDbEntity
  8
0
  6
PHANTOM
 62
     8
370
    18
100
AcDbLine
 10
136.074289378
 20
73.2379841588
 30
0.0
 11
126.9667104695
 21
96.4623740585
 31
0.0
  0
ARC
  5
F8
330
1F
100
AcDbEntity
  8
0
  6
PHANTOM
 62
     8
370
    18
100
AcDbCircle
 10
128.4949803624
 20
96.9865489061
 30
0.0
 40
1.615663373473943
100
AcDbArc
 50
185.7575769573
 51
198.931239474
  0
ARC
  5
F9
330
1F
100
AcDbEntity
  8
0
  6
PHANTOM
 62
     8
370
    18
100
AcDbCircle
 10
137.9600871415
 20
73.9032194285
 30
0.0
 40
1.999692768569125
100
AcDbArc
 50
199.4308373072
 51
269.9972994977
  0
ARC
  5
FA
330
1F
100
AcDbEntity
  8
0
  6
PHANTOM
 62
     8
370
    18
100
AcDbCircle
 10
145.6098064283
 20
73.7621590064
 30
0.0
 40
1.615663373468358
100
AcDbArc
 50
341.068760526
 51
354.2424230428
  0
ARC
  5
FB
330
1F
100
AcDbEntity
  8
0
  6
PHANTOM
 62
     8
370
    18
100
AcDbCircle
 10
145.2522785578
 20
73.9032194285
 30
0.0
 40
1.999692768569265
100
AcDbArc
 50
270.0027005023
 51
340.5691626928
  0
ARC
  5
FC
330
1F
100
AcDbEntity
  8
0
  6
PHANTOM
 62
     8
370
    18
100
AcDbCircle
 10
154.7173853369
 20
96.9865489061
 30
0.0
 40
1.615663373472249
100
AcDbArc
 50
341.068760526
 51
354.2424230428
  0
LINE
  5
FD
330
1F
100
AcDbEntity
  8
0
  6
PHANTOM
 62
     8
370
    18
100
AcDbLine
 10
156.2456552298
 20
96.4623740585
 30
0.0
 11
147.1380763212
 21
73.2379841588
 31
0.0
  0
LINE
  5
FE
330
1F
100
AcDbEntity
  8
0
  6
PHANTOM
 62
     8
370
    18
100
AcDbLine
 10
148.0771678638
 20
364.5691347423
 30
0.0
 11
147.1380763212
 21
364.5690690782
 31
0.0
  0
LINE
  5
FF
330
1F
100
AcDbEntity
  8
0
  6
PHANTOM
 62
     8
370
    18
100
AcDbLine
 10
156.2456552298
 20
341.3448065443
 30
0.0
 11
156.1592962656
 21
341.6697709374
 31
0.0
  0
LINE
  5
100
330
1F
100
AcDbEntity
  8
0
  6
PHANTOM
 62
     8
370
    18
100
AcDbLine
 10
136.074289378
 20
364.5690690782
 30
0.0
 11
135.1351978354
 21
364.5691347423
 31
0.0
  0
LINE
  5
101
330
1F
100
AcDbEntity
  8
0
  6
PHANTOM
 62
     8
370
    18
100
AcDbLine
 10
127.0530694337
 20
341.6697709374
 30
0.0
 11
126.9667104695
 21
341.3448065443
 31
0.0
  0
LINE
  5
102
330
1F
100
AcDbEntity
  8
0
  6
PHANTOM
 62
     8
370
    18
100
AcDbLine
 10
135.1351978354
 20
73.2380498229
 30
0.0
 11
136.074289378
 21
73.2379841588
 31
0.0
  0
LINE
  5
103
330
1F
100
AcDbEntity
  8
0
  6
PHANTOM
 62
     8
370
    18
100
AcDbLine
 10
126.9667104695
 20
96.4623740585
 30
0.0
 11
127.0530694337
 21
96.1374136278
 31
0.0
  0
LINE
  5
104
330
1F
100
AcDbEntity
  8
0
  6
PHANTOM
 62
     8
370
    18
100
AcDbLine
 10
147.1380763212
 20
73.2379841588
 30
0.0
 11
148.0771678638
 21
73.2380498229
 31
0.0
  0
LINE
  5
105
330
1F
100
AcDbEntity
  8
0
  6
PHANTOM
 62
     8
370
    18
100
AcDbLine
 10
156.1592962656
 20
96.1374136278
 30
0.0
 11
156.2456552298
 21
96.4623740585
 31
0.0
  0
LWPOLYLINE
  5
106
330
1F
100
AcDbEntity
  8
0
  6
PHANTOM
 62
     8
370
    18
100
AcDbPolyline
 90
        6
 70
   128
 43
0.0
 10
129.5736969705
 20
325.9364463716
 10
129.476987473
 20
325.9364466362
 10
129.4047485907
 20
325.9364469131
 10
129.3579311984
 20
325.9364471986
 10
129.3371515499
 20
325.9364474892
 10
129.3360437305
 20
325.9364475746
  0
LWPOLYLINE
  5
107
330
1F
100
AcDbEntity
  8
0
  6
PHANTOM
 62
     8
370
    18
100
AcDbPolyline
 90
        6
 70
   128
 43
0.0
 10
153.8763193485
 20
325.936447578
 10
153.8752141494
 20
325.9364474892
 10
153.8544345009
 20
325.9364471986
 10
153.8076171086
 20
325.9364469131
 10
153.7353782262
 20
325.9364466362
 10
153.6386687288
 20
325.9364463716
  0
LWPOLYLINE
  5
108
330
1F
100
AcDbEntity
  8
0
  6
PHANTOM
 62
     8
370
    18
100
AcDbPolyline
 90
        6
 70
   128
 43
0.0
 10
129.5736969705
 20
111.8706316738
 10
129.476987473
 20
111.8706319383
 10
129.4047485907
 20
111.8706322152
 10
129.3579311984
 20
111.8706325008
 10
129.3371515499
 20
111.8706327913
 10
129.3360436333
 20
111.8706328759
  0
LWPOLYLINE
  5
109
330
1F
100
AcDbEntity
  8
0
  6
PHANTOM
 62
     8
370
    18
100
AcDbPolyline
 90
        6
 70
   128
 43
0.0
 10
153.876322066
 20
111.8706328759
 10
153.8752141494
 20
111.8706327913
 10
153.8544345009
 20
111.8706325008
 10
153.8076171086
 20
111.8706322152
 10
153.7353782262
 20
111.8706319383
 10
153.6386687288
 20
111.8706316738
  0
ARC
  5
10A
330
1F
100
AcDbEntity
  8
0
  6
PHANTOM
 62
     8
370
    18
100
AcDbCircle
 10
129.8003709728
 20
327.3007407354
 30
0.0
 40
0.5812629930344397
100
AcDbArc
 50
133.8343741355
 51
188.9425168072
  0
ARC
  5
10B
330
1F
100
AcDbEntity
  8
0
  6
PHANTOM
 62
     8
370
    18
100
AcDbCircle
 10
153.4115904911
 20
327.3004937757
 30
0.0
 40
0.581721112322054
100
AcDbArc
 50
351.1818426406
 51
46.1537519996
  0
ARC
  5
10C
330
1F
100
AcDbEntity
  8
0
  6
PHANTOM
 62
     8
370
    18
100
AcDbCircle
 10
129.8009015923
 20
110.5066615842
 30
0.0
 40
0.5818638212647823
100
AcDbArc
 50
171.2193605836
 51
226.1499936114
  0
ARC
  5
10D
330
1F
100
AcDbEntity
  8
0
  6
PHANTOM
 62
     8
370
    18
100
AcDbCircle
 10
153.4114891156
 20
110.5066463073
 30
0.0
 40
0.5818354789711673
100
AcDbArc
 50
313.8492725872
 51
8.7883131861
  0
ARC
  5
10E
330
1F
100
AcDbEntity
  8
0
  6
PHANTOM
 62
     8
370
    18
100
AcDbCircle
 10
130.613299256
 20
327.7069489747
 30
0.0
 40
1.452994281116756
100
AcDbArc
 50
167.4172520227
 51
181.2969462228
  0
ARC
  5
10F
330
1F
100
AcDbEntity
  8
0
  6
PHANTOM
 62
     8
370
    18
100
AcDbCircle
 10
152.5990664433
 20
327.7069489747
 30
0.0
 40
1.452994281118459
100
AcDbArc
 50
358.7030537772
 51
12.5827479772
  0
ARC
  5
110
330
1F
100
AcDbEntity
  8
0
  6
PHANTOM
 62
     8
370
    18
100
AcDbCircle
 10
130.6133037452
 20
110.1001322531
 30
0.0
 40
1.452998770384359
100
AcDbArc
 50
178.7030481762
 51
192.582728468
  0
ARC
  5
111
330
1F
100
AcDbEntity
  8
0
  6
PHANTOM
 62
     8
370
    18
100
AcDbCircle
 10
152.5990619541
 20
110.1001322531
 30
0.0
 40
1.452998770405555
100
AcDbArc
 50
347.4172715321
 51
1.2969518238
  0
ARC
  5
112
330
1F
100
AcDbEntity
  8
0
  6
PHANTOM
 62
     8
370
    18
100
AcDbCircle
 10
130.7943680716
 20
329.5507382241
 30
0.0
 40
1.819661212438272
100
AcDbArc
 50
169.2906638438
 51
190.3669461927
  0
ARC
  5
113
330
1F
100
AcDbEntity
  8
0
  6
PHANTOM
 62
     8
370
    18
100
AcDbCircle
 10
152.4179757231
 20
329.5507362071
 30
0.0
 40
1.819683110227436
100
AcDbArc
 50
349.6845951216
 51
10.7092703961
  0
ARC
  5
114
330
1F
100
AcDbEntity
  8
0
  6
PHANTOM
 62
     8
370
    18
100
AcDbCircle
 10
130.7943709694
 20
108.2563537813
 30
0.0
 40
1.81966411019663
100
AcDbArc
 50
169.6329962198
 51
190.7093276063
  0
ARC
  5
115
330
1F
100
AcDbEntity
  8
0
  6
PHANTOM
 62
     8
370
    18
100
AcDbCircle
 10
152.4179728259
 20
108.2563557984
 30
0.0
 40
1.819686007509974
100
AcDbArc
 50
349.2907381523
 51
10.3154632059
  0
ARC
  5
116
330
1F
100
AcDbEntity
  8
0
  6
PHANTOM
 62
     8
370
    18
100
AcDbCircle
 10
128.6752587662
 20
340.644588542
 30
0.0
 40
1.819485123386733
100
AcDbArc
 50
169.2901353008
 51
190.7873666292
  0
ARC
  5
117
330
1F
100
AcDbEntity
  8
0
  6
PHANTOM
 62
     8
370
    18
100
AcDbCircle
 10
154.5371069331
 20
340.644588542
 30
0.0
 40
1.819485123386569
100
AcDbArc
 50
349.2126333708
 51
10.7098646992
  0
ARC
  5
118
330
1F
100
AcDbEntity
  8
0
  6
PHANTOM
 62
     8
370
    18
100
AcDbCircle
 10
128.6752616543
 20
97.1625918681
 30
0.0
 40
1.819488011464651
100
AcDbArc
 50
169.2125492486
 51
190.7098561772
  0
ARC
  5
119
330
1F
100
AcDbEntity
  8
0
  6
PHANTOM
 62
     8
370
    18
100
AcDbCircle
 10
154.537104045
 20
97.1625918681
 30
0.0
 40
1.819488011464396
100
AcDbArc
 50
349.2901438228
 51
10.7874507514
  0
LINE
  5
11A
330
1F
100
AcDbEntity
  8
0
  6
PHANTOM
 62
     8
370
    18
100
AcDbLine
 10
126.9667104695
 20
341.3448065443
 30
0.0
 11
126.919503213
 21
341.1929332423
 31
0.0
  0
LINE
  5
11B
330
1F
100
AcDbEntity
  8
0
  6
PHANTOM
 62
     8
370
    18
100
AcDbLine
 10
156.2928624862
 20
341.1929332423
 30
0.0
 11
156.2456552298
 21
341.3448065443
 31
0.0
  0
LINE
  5
11C
330
1F
100
AcDbEntity
  8
0
  6
PHANTOM
 62
     8
370
    18
100
AcDbLine
 10
126.9667104695
 20
96.4623740585
 30
0.0
 11
126.9195047677
 21
96.6142415975
 31
0.0
  0
LINE
  5
11D
330
1F
100
AcDbEntity
  8
0
  6
PHANTOM
 62
     8
370
    18
100
AcDbLine
 10
156.2456552298
 20
96.4623740585
 30
0.0
 11
156.2928609315
 21
96.6142415975
 31
0.0
  0
LINE
  5
11E
330
1F
100
AcDbEntity
  8
0
  6
Continuous
 62
     7
370
    25
100
AcDbLine
 10
241.2512523636
 20
339.494802489
 30
0.0
 11
241.2512523636
 21
341.6697709374
 31
0.0
  0
LINE
  5
11F
330
1F
100
AcDbEntity
  8
0
  6
Continuous
 62
     7
370
    25
100
AcDbLine
 10
241.2509402114
 20
96.1374136278
 30
0.0
 11
241.2509457416
 21
98.3123820761
 31
0.0
  0
LINE
  5
120
330
1F
100
AcDbEntity
  8
0
  6
Continuous
 62
     7
370
    25
100
AcDbLine
 10
241.2512523636
 20
364.5691347423
 30
0.0
 11
241.2512523636
 21
341.6697709374
 31
0.0
  0
LINE
  5
121
330
1F
100
AcDbEntity
  8
0
  6
Continuous
 62
     7
370
    25
100
AcDbLine
 10
241.2508819862
 20
73.2380498229
 30
0.0
 11
241.2509402114
 21
96.1374136278
 31
0.0
  0
LINE
  5
122
330
1F
100
AcDbEntity
  8
0
  6
Continuous
 62
     7
370
    25
100
AcDbLine
 10
241.2512523636
 20
339.494802489
 30
0.0
 11
241.2512523636
 21
331.45399486
 31
0.0
  0
LINE
  5
123
330
1F
100
AcDbEntity
  8
0
  6
Continuous
 62
     7
370
    25
100
AcDbLine
 10
241.2509457416
 20
98.3123820761
 30
0.0
 11
241.2509661866
 21
106.3531897051
 31
0.0
  0
SPLINE
  5
124
330
1F
100
AcDbEntity
  8
0
  6
Continuous
 62
     7
370
    25
100
AcDbSpline
210
0.0
220
0.0
230
1.0
 70
     8
 71
     3
 72
    11
 73
     7
 74
     0
 42
0.00000001
 43
0.00000001
 40
0.0
 40
0.0
 40
0.0
 40
0.0
 40
0.0207629885118794
 40
0.0915623847146397
 40
0.4974365736573251
 40
1.0
 40
1.0
 40
1.0
 40
1.0
 10
282.9584724021025
 20
110.4176294116294
 30
0.0
 10
282.9499530600934
 20
110.4212114113242
 30
0.0
 10
282.91238374438
 20
110.4370076168613
 30
0.0
 10
282.7041331091967
 20
110.5226727533895
 30
0.0
 10
282.2538290796869
 20
110.6931196018799
 30
0.0
 10
281.8238072511343
 20
110.8212586629397
 30
0.0
 10
281.5859117259786
 20
110.8921474113699
 30
0.0
  0
LINE
  5
125
330
1F
100
AcDbEntity
  8
0
  6
Continuous
 62
     7
370
    25
100
AcDbLine
 10
281.585911726
 20
110.8921474114
 30
0.0
 11
281.5748077208
 21
110.8956909549
 31
0.0
  0
SPLINE
  5
126
330
1F
100
AcDbEntity
  8
0
  6
Continuous
 62
     7
370
    25
100
AcDbSpline
210
0.0
220
0.0
230
1.0
 70
     8
 71
     3
 72
    11
 73
     7
 74
     0
 42
0.00000001
 43
0.00000001
 40
0.0
 40
0.0
 40
0.0
 40
0.0
 40
0.020762226912753
 40
0.0927732410651071
 40
0.5013265284340268
 40
1.0
 40
1.0
 40
1.0
 40
1.0
 10
282.9587482444742
 20
327.3894491056676
 30
0.0
 10
282.9502288719857
 20
327.3858671279056
 30
0.0
 10
282.9121611925925
 20
327.3698615381492
 30
0.0
 10
282.7022251126864
 20
327.2835258150814
 30
0.0
 10
282.2515153601883
 20
327.1130978417174
 30
0.0
 10
281.8221788697879
 20
326.9852231921782
 30
0.0
 10
281.5861863618186
 20
326.9149345958784
 30
0.0
  0
LINE
  5
127
330
1F
100
AcDbEntity
  8
0
  6
Continuous
 62
     7
370
    25
100
AcDbLine
 10
281.5750823476
 20
326.9113910806
 30
0.0
 11
281.5861863618
 21
326.9149345959
 31
0.0
  0
ELLIPSE
  5
128
330
1F
100
AcDbEntity
  8
0
  6
Continuous
 62
     7
370
    25
100
AcDbEllipse
 10
280.9664963722
 20
326.3715486531
 30
0.0
 11
4.312796758440356
 21
1.61224910087202
 31
0.0
210
0.0
220
0.0
230
1.0
 40
0.0644224088
 41
1.405175088168926
 42
1.456442428275525
  0
ELLIPSE
  5
129
330
1F
100
AcDbEntity
  8
0
  6
Continuous
 62
     7
370
    25
100
AcDbEllipse
 10
280.966223118
 20
111.4355349299
 30
0.0
 11
4.312792659031345
 21
-1.612260066826252
 31
0.0
210
0.0
220
0.0
230
0.9999999999999999
 40
0.0644224088
 41
4.826742878904101
 42
4.878010219010743
  0
SPLINE
  5
12A
330
1F
100
AcDbEntity
  8
0
  6
Continuous
 62
     7
370
    25
100
AcDbSpline
210
0.0
220
0.0
230
1.0
 70
     8
 71
     3
 72
    10
 73
     6
 74
     0
 42
0.00000001
 43
0.00000001
 40
0.0
 40
0.0
 40
0.0
 40
0.0
 40
0.1624573301410306
 40
0.690619567905287
 40
1.0
 40
1.0
 40
1.0
 40
1.0
 10
257.4981236243703
 20
329.406887484712
 30
0.0
 10
257.4703465649671
 20
329.4169711049736
 30
0.0
 10
257.3522639844762
 20
329.4598374100021
 30
0.0
 10
257.1663892911698
 20
329.5063027672015
 30
0.0
 10
257.0187089741619
 20
329.5227980361278
 30
0.0
 10
256.9641572457163
 20
329.5288912342556
 30
0.0
  0
SPLINE
  5
12B
330
1F
100
AcDbEntity
  8
0
  6
Continuous
 62
     7
370
    25
100
AcDbSpline
210
0.0
220
0.0
230
1.0
 70
     8
 71
     3
 72
    10
 73
     6
 74
     0
 42
0.00000001
 43
0.00000001
 40
0.0
 40
0.0
 40
0.0
 40
0.0
 40
0.1662224908359153
 40
0.6854668035659837
 40
1.0
 40
1.0
 40
1.0
 40
1.0
 10
256.9638759635628
 20
108.2782533783563
 30
0.0
 10
256.9929665010131
 20
108.2811983119973
 30
0.0
 10
257.1129297961111
 20
108.293342602697
 30
0.0
 10
257.2991848874188
 20
108.3307685815565
 30
0.0
 10
257.4434284058927
 20
108.3812225699984
 30
0.0
 10
257.4978426524175
 20
108.4002557702024
 30
0.0
  0
SPLINE
  5
12C
330
1F
100
AcDbEntity
  8
0
  6
Continuous
 62
     7
370
    25
100
AcDbSpline
210
0.0
220
0.0
230
1.0
 70
     8
 71
     3
 72
     9
 73
     5
 74
     0
 42
0.00000001
 43
0.00000001
 40
0.0
 40
0.0
 40
0.0
 40
0.0
 40
0.734509545800694
 40
1.0
 40
1.0
 40
1.0
 40
1.0
 10
258.204059322594
 20
328.9507154004453
 30
0.0
 10
258.052609521371
 20
329.082423885387
 30
0.0
 10
257.8464177814693
 20
329.2617387570516
 30
0.0
 10
257.5711931395581
 20
329.3764363647489
 30
0.0
 10
257.4981236243703
 20
329.406887484712
 30
0.0
  0
SPLINE
  5
12D
330
1F
100
AcDbEntity
  8
0
  6
Continuous
 62
     7
370
    25
100
AcDbSpline
210
0.0
220
0.0
230
1.0
 70
     8
 71
     3
 72
     9
 73
     5
 74
     0
 42
0.00000001
 43
0.00000001
 40
0.0
 40
0.0
 40
0.0
 40
0.0
 40
0.5703302647147366
 40
1.0
 40
1.0
 40
1.0
 40
1.0
 10
257.4978426524175
 20
108.4002557702024
 30
0.0
 10
257.6504918364553
 20
108.4702392999859
 30
0.0
 10
257.9181423426303
 20
108.5929463245174
 30
0.0
 10
258.1179347568214
 20
108.7772404509858
 30
0.0
 10
258.2037795105389
 20
108.8564260595201
 30
0.0
  0
LINE
  5
12E
330
1F
100
AcDbEntity
  8
0
  6
Continuous
 62
     7
370
    25
100
AcDbLine
 10
258.2037795105
 20
108.8564260595
 30
0.0
 11
259.4504705429
 21
110.1031107521
 31
0.0
  0
LINE
  5
12F
330
1F
100
AcDbEntity
  8
0
  6
Continuous
 62
     7
370
    25
100
AcDbLine
 10
259.450747185
 20
327.704027538
 30
0.0
 11
258.2040593226
 21
328.9507154004
 31
0.0
  0
LINE
  5
130
330
1F
100
AcDbEntity
  8
0
  6
Continuous
 62
     7
370
    25
100
AcDbLine
 10
256.9641572457
 20
329.5288912343
 30
0.0
 11
241.2512523636
 21
330.9035922825
 31
0.0
  0
SPLINE
  5
131
330
1F
100
AcDbEntity
  8
0
  6
Continuous
 62
     7
370
    25
100
AcDbSpline
210
0.0
220
0.0
230
1.0
 70
    24
 71
     3
 72
    10
 73
     6
 74
     0
 42
0.00000001
 43
0.00000001
 40
0.0
 40
0.0
 40
0.0
 40
0.0
 40
0.4945172565877405
 40
0.9439482702162649
 40
1.0
 40
1.0
 40
1.0
 40
1.0
 10
241.2512523635816
 20
330.9035922825036
 30
0.0
 10
241.2512523635816
 20
330.930437817731
 30
0.0
 10
241.2512523635816
 20
330.9816813207704
 30
0.0
 10
241.2512523635816
 20
331.2607564716852
 30
0.0
 10
241.2512523635816
 20
331.4347060247655
 30
0.0
 10
241.2512523635816
 20
331.4539948599875
 30
0.0
  0
LINE
  5
132
330
1F
100
AcDbEntity
  8
0
  6
Continuous
 62
     7
370
    25
100
AcDbLine
 10
241.2509675861
 20
106.9035922826
 30
0.0
 11
256.9638759636
 21
108.2782533784
 31
0.0
  0
SPLINE
  5
133
330
1F
100
AcDbEntity
  8
0
  6
Continuous
 62
     7
370
    25
100
AcDbSpline
210
0.0
220
0.0
230
1.0
 70
    24
 71
     3
 72
    10
 73
     6
 74
     0
 42
0.00000001
 43
0.00000001
 40
0.0
 40
0.0
 40
0.0
 40
0.0
 40
0.4950096122318673
 40
0.9340655836119842
 40
1.0
 40
1.0
 40
1.0
 40
1.0
 10
241.2509661866023
 20
106.3531897051456
 30
0.0
 10
241.2509665771779
 20
106.506798982091
 30
0.0
 10
241.2509673141802
 20
106.7966542401966
 30
0.0
 10
241.2509675740144
 20
106.89884431282
 30
0.0
 10
241.2509675846926
 20
106.903043953643
 30
0.0
 10
241.2509675860868
 20
106.9035922826279
 30
0.0
  0
LINE
  5
134
330
1F
100
AcDbEntity
  8
0
  6
Continuous
 62
     7
370
    25
100
AcDbLine
 10
270.6654648728
 20
316.4893098503
 30
0.0
 11
259.450747185
 21
327.704027538
 31
0.0
  0
LINE
  5
135
330
1F
100
AcDbEntity
  8
0
  6
Continuous
 62
     7
370
    25
100
AcDbLine
 10
259.4504705429
 20
110.1031107521
 30
0.0
 11
270.6652167457
 21
121.3177999246
 31
0.0
  0
SPLINE
  5
136
330
1F
100
AcDbEntity
  8
0
  6
Continuous
 62
     7
370
    25
100
AcDbSpline
210
0.0
220
0.0
230
1.0
 70
     8
 71
     3
 72
     9
 73
     5
 74
     0
 42
0.00000001
 43
0.00000001
 40
0.0
 40
0.0
 40
0.0
 40
0.0
 40
0.7456107204570104
 40
1.0
 40
1.0
 40
1.0
 40
1.0
 10
271.133032687988
 20
122.0552760106596
 30
0.0
 10
271.1805370592694
 20
122.2191384579562
 30
0.0
 10
271.2442490875144
 20
122.4389078936696
 30
0.0
 10
271.2496363240056
 20
122.6725727146697
 30
0.0
 10
271.2510067792152
 20
122.7320145401384
 30
0.0
  0
SPLINE
  5
137
330
1F
100
AcDbEntity
  8
0
  6
Continuous
 62
     7
370
    25
100
AcDbSpline
210
0.0
220
0.0
230
1.0
 70
     8
 71
     3
 72
     9
 73
     5
 74
     0
 42
0.00000001
 43
0.00000001
 40
0.0
 40
0.0
 40
0.0
 40
0.0
 40
0.7454763822265942
 40
1.0
 40
1.0
 40
1.0
 40
1.0
 10
271.251251310377
 20
315.0750937452584
 30
0.0
 10
271.23924404797
 20
315.2501402059402
 30
0.0
 10
271.2231372165622
 20
315.4849517504171
 30
0.0
 10
271.1515098072208
 20
315.6976865451268
 30
0.0
 10
271.1332789398635
 20
315.7518325747026
 30
0.0
  0
SPLINE
  5
138
330
1F
100
AcDbEntity
  8
0
  6
Continuous
 62
     7
370
    25
100
AcDbSpline
210
0.0
220
0.0
230
1.0
 70
     8
 71
     3
 72
     9
 73
     5
 74
     0
 42
0.00000001
 43
0.00000001
 40
0.0
 40
0.0
 40
0.0
 40
0.0
 40
0.6345395605468124
 40
0.9999999999999999
 40
0.9999999999999999
 40
0.9999999999999999
 40
0.9999999999999999
 10
271.1332789398635
 20
315.7518325747026
 30
0.0
 10
271.0792716033027
 20
315.8807312807592
 30
0.0
 10
270.9941589642825
 20
316.0838686642591
 30
0.0
 10
270.8587462225215
 20
316.2634907720478
 30
0.0
 10
270.80925822241
 20
316.3291355464958
 30
0.0
  0
LINE
  5
139
330
1F
100
AcDbEntity
  8
0
  6
Continuous
 62
     7
370
    25
100
AcDbLine
 10
271.2510067792
 20
122.7320145401
 30
0.0
 11
271.2512513104
 21
315.0750937453
 31
0.0
  0
SPLINE
  5
13A
330
1F
100
AcDbEntity
  8
0
  6
Continuous
 62
     7
370
    25
100
AcDbSpline
210
0.0
220
0.0
230
1.0
 70
     8
 71
     3
 72
     9
 73
     5
 74
     0
 42
0.00000001
 43
0.00000001
 40
0.0
 40
0.0
 40
0.0
 40
0.0
 40
0.6129596921626125
 40
1.0
 40
1.0
 40
1.0
 40
1.0
 10
270.8090105026524
 20
121.4779738627416
 30
0.0
 10
270.890126008467
 20
121.5907632688771
 30
0.0
 10
271.0224601682032
 20
121.7747711368946
 30
0.0
 10
271.1021784858036
 20
121.9770038133207
 30
0.0
 10
271.1330326879879
 20
122.0552760106596
 30
0.0
  0
LINE
  5
13B
330
1F
100
AcDbEntity
  8
0
  6
Continuous
 62
     7
370
    25
100
AcDbLine
 10
270.6652167457
 20
121.3177999246
 30
0.0
 11
270.8090105027
 21
121.4779738627
 31
0.0
  0
LINE
  5
13C
330
1F
100
AcDbEntity
  8
0
  6
Continuous
 62
     7
370
    25
100
AcDbLine
 10
270.8092582224
 20
316.3291355465
 30
0.0
 11
270.6654648728
 21
316.4893098503
 31
0.0
  0
LINE
  5
13D
330
1F
100
AcDbEntity
  8
0
  6
Continuous
 62
     7
370
    25
100
AcDbLine
 10
241.2512523636
 20
365.9035922825
 30
0.0
 11
292.8670033846
 21
365.9035266619
 31
0.0
  0
LINE
  5
13E
330
1F
100
AcDbEntity
  8
0
  6
Continuous
 62
     7
370
    25
100
AcDbLine
 10
241.2512523636
 20
364.5691347423
 30
0.0
 11
241.2512523636
 21
365.9035922825
 31
0.0
  0
LINE
  5
13F
330
1F
100
AcDbEntity
  8
0
  6
Continuous
 62
     7
370
    25
100
AcDbLine
 10
292.8666296141
 20
71.9035266622
 30
0.0
 11
241.2508785931
 21
71.9035922827
 31
0.0
  0
LINE
  5
140
330
1F
100
AcDbEntity
  8
0
  6
Continuous
 62
     7
370
    25
100
AcDbLine
 10
241.2508785931
 20
71.9035922827
 30
0.0
 11
241.2508819862
 21
73.2380498229
 31
0.0
  0
LINE
  5
141
330
1F
100
AcDbEntity
  8
0
  6
Continuous
 62
     7
370
    25
100
AcDbLine
 10
296.2512498209
 20
363.9035223595
 30
0.0
 11
296.2512472707
 21
361.8976019424
 31
0.0
  0
LINE
  5
142
330
1F
100
AcDbEntity
  8
0
  6
Continuous
 62
     7
370
    25
100
AcDbLine
 10
296.250883686
 20
75.9094427768
 30
0.0
 11
296.2508811358
 21
73.9035223597
 31
0.0
  0
LINE
  5
143
330
1F
100
AcDbEntity
  8
0
  6
Continuous
 62
     7
370
    25
100
AcDbLine
 10
292.8670033846
 20
365.9035266619
 30
0.0
 11
294.2512523636
 21
365.9035249021
 31
0.0
  0
LINE
  5
144
330
1F
100
AcDbEntity
  8
0
  6
Continuous
 62
     7
370
    25
100
AcDbLine
 10
294.2508785931
 20
71.9035249024
 30
0.0
 11
292.8666296141
 21
71.9035266622
 31
0.0
  0
LINE
  5
145
330
1F
100
AcDbEntity
  8
0
  6
Continuous
 62
     7
370
    25
100
AcDbLine
 10
296.2512472707
 20
361.8976019424
 30
0.0
 11
296.250883686
 21
75.9094427768
 31
0.0
  0
ARC
  5
146
330
1F
100
AcDbEntity
  8
0
  6
Continuous
 62
     7
370
    25
100
AcDbCircle
 10
294.2512498209
 20
363.9035249021
 30
0.0
 40
1.999999999999968
100
AcDbArc
 50
359.9999271583
 51
89.9999271583
  0
ARC
  5
147
330
1F
100
AcDbEntity
  8
0
  6
Continuous
 62
     7
370
    25
100
AcDbCircle
 10
294.2508811358
 20
73.9035249024
 30
0.0
 40
2.00000000000001
100
AcDbArc
 50
269.9999271583
 51
359.9999271583
  0
ARC
  5
148
330
1F
100
AcDbEntity
  8
0
  6
PHANTOM
 62
     8
370
    18
100
AcDbCircle
 10
217.0260892125
 20
348.8633199875
 30
0.0
 40
27.13534137936842
100
AcDbArc
 50
339.2614458766
 51
343.1169854632
  0
ARC
  5
149
330
1F
100
AcDbEntity
  8
0
  6
PHANTOM
 62
     8
370
    18
100
AcDbCircle
 10
272.3759560497
 20
334.5119108376
 30
0.0
 40
30.34563698484488
100
AcDbArc
 50
166.9871858249
 51
171.0084746827
  0
ARC
  5
14A
330
1F
100
AcDbEntity
  8
0
  6
PHANTOM
 62
     8
370
    18
100
AcDbCircle
 10
232.558781536
 20
335.9573517742
 30
0.0
 40
11.58032874664839
100
AcDbArc
 50
25.7189310054
 51
27.7247641144
  0
ARC
  5
14B
330
1F
100
AcDbEntity
  8
0
  6
PHANTOM
 62
     8
370
    18
100
AcDbCircle
 10
272.3756620974
 20
103.2951945881
 30
0.0
 40
30.34563698485154
100
AcDbArc
 50
188.9913796339
 51
193.0126684917
  0
ARC
  5
14C
330
1F
100
AcDbEntity
  8
0
  6
PHANTOM
 62
     8
370
    18
100
AcDbCircle
 10
217.0257587697
 20
88.943926174
 30
0.0
 40
27.13534137933106
100
AcDbArc
 50
16.8828688533
 51
20.7384084399
  0
ARC
  5
14D
330
1F
100
AcDbEntity
  8
0
  6
PHANTOM
 62
     8
370
    18
100
AcDbCircle
 10
232.5584839086
 20
101.8498548929
 30
0.0
 40
11.58032874664771
100
AcDbArc
 50
332.2750902021
 51
334.2809233112
  0
LINE
  5
14E
330
1F
100
AcDbEntity
  8
0
  6
PHANTOM
 62
     8
370
    18
100
AcDbLine
 10
242.4032223904
 20
339.254581077
 30
0.0
 11
241.2512523636
 21
339.494802489
 31
0.0
  0
LINE
  5
14F
330
1F
100
AcDbEntity
  8
0
  6
PHANTOM
 62
     8
370
    18
100
AcDbLine
 10
241.2512523636
 20
341.6697709374
 30
0.0
 11
242.8096032094
 21
341.3448065443
 31
0.0
  0
LINE
  5
150
330
1F
100
AcDbEntity
  8
0
  6
PHANTOM
 62
     8
370
    18
100
AcDbLine
 10
241.2509457416
 20
98.3123820761
 30
0.0
 11
242.4029163792
 21
98.5526005591
 31
0.0
  0
LINE
  5
151
330
1F
100
AcDbEntity
  8
0
  6
PHANTOM
 62
     8
370
    18
100
AcDbLine
 10
242.8092918835
 20
96.4623740585
 30
0.0
 11
241.2509402114
 21
96.1374136278
 31
0.0
  0
LINE
  5
152
330
1F
100
AcDbEntity
  8
0
  6
PHANTOM
 62
     8
370
    18
100
AcDbLine
 10
242.9918898167
 20
340.9827139983
 30
0.0
 11
277.7608294799
 21
329.8888799104
 31
0.0
  0
ARC
  5
153
330
1F
100
AcDbEntity
  8
0
  6
PHANTOM
 62
     8
370
    18
100
AcDbCircle
 10
251.7950288757
 20
337.7694858996
 30
0.0
 40
27.13534137932785
100
AcDbArc
 50
339.2614458766
 51
343.1169854632
  0
LINE
  5
154
330
1F
100
AcDbEntity
  8
0
  6
PHANTOM
 62
     8
370
    18
100
AcDbLine
 10
277.1721620535
 20
328.1607469892
 30
0.0
 11
242.4032223904
 21
339.254581077
 31
0.0
  0
LINE
  5
155
330
1F
100
AcDbEntity
  8
0
  6
PHANTOM
 62
     8
370
    18
100
AcDbLine
 10
242.4029163792
 20
98.5526005591
 30
0.0
 11
277.17188425
 21
109.6463462414
 31
0.0
  0
ARC
  5
156
330
1F
100
AcDbEntity
  8
0
  6
PHANTOM
 62
     8
370
    18
100
AcDbCircle
 10
251.7947266406
 20
100.0376718564
 30
0.0
 40
27.13534137928644
100
AcDbArc
 50
16.8828688533
 51
20.7384084399
  0
LINE
  5
157
330
1F
100
AcDbEntity
  8
0
  6
PHANTOM
 62
     8
370
    18
100
AcDbLine
 10
277.7605472824
 20
107.9182118234
 30
0.0
 11
242.9915794115
 21
96.824466141
 31
0.0
  0
ARC
  5
158
330
1F
100
AcDbEntity
  8
0
  6
PHANTOM
 62
     8
370
    18
100
AcDbCircle
 10
282.6504655329
 20
359.181614308
 30
0.0
 40
11.58032874680594
100
AcDbArc
 50
25.7189310054
 51
27.7247641144
  0
LINE
  5
159
330
1F
100
AcDbEntity
  8
0
  6
PHANTOM
 62
     8
370
    18
100
AcDbLine
 10
293.0835738138
 20
364.2069765321
 30
0.0
 11
242.9918898167
 21
340.9827139983
 31
0.0
  0
LINE
  5
15A
330
1F
100
AcDbEntity
  8
0
  6
PHANTOM
 62
     8
370
    18
100
AcDbLine
 10
242.8096032094
 20
341.3448065443
 30
0.0
 11
292.9012872065
 21
364.5690690782
 31
0.0
  0
LINE
  5
15B
330
1F
100
AcDbEntity
  8
0
  6
PHANTOM
 62
     8
370
    18
100
AcDbLine
 10
294.4678227928
 20
364.2069747723
 30
0.0
 11
293.0835738138
 21
364.2069765321
 31
0.0
  0
LINE
  5
15C
330
1F
100
AcDbEntity
  8
0
  6
PHANTOM
 62
     8
370
    18
100
AcDbLine
 10
294.4678202426
 20
362.2010543552
 30
0.0
 11
294.4678227928
 21
364.2069747723
 31
0.0
  0
LINE
  5
15D
330
1F
100
AcDbEntity
  8
0
  6
PHANTOM
 62
     8
370
    18
100
AcDbLine
 10
282.0874987235
 20
328.0234828757
 30
0.0
 11
294.4678202426
 21
362.2010543552
 31
0.0
  0
ELLIPSE
  5
15E
330
1F
100
AcDbEntity
  8
0
  6
PHANTOM
 62
     8
370
    18
100
AcDbEllipse
 10
269.2007101678
 20
327.7233191134
 30
0.0
 11
14.67092232299376
 21
-1.969827309612356
 31
0.0
210
0.0
220
0.0
230
1.0
 40
0.2665313963
 41
0.5352593004892656
 42
0.9840258275345787
  0
ARC
  5
15F
330
1F
100
AcDbEntity
  8
0
  6
PHANTOM
 62
     8
370
    18
100
AcDbCircle
 10
282.6501088544
 20
78.6254649931
 30
0.0
 40
11.5803287463532
100
AcDbArc
 50
332.2750902021
 51
334.2809233112
  0
LINE
  5
160
330
1F
100
AcDbEntity
  8
0
  6
PHANTOM
 62
     8
370
    18
100
AcDbLine
 10
292.9009168291
 20
73.2379841588
 30
0.0
 11
242.8092918835
 21
96.4623740585
 31
0.0
  0
LINE
  5
161
330
1F
100
AcDbEntity
  8
0
  6
PHANTOM
 62
     8
370
    18
100
AcDbLine
 10
242.9915794115
 20
96.824466141
 30
0.0
 11
293.083204357
 21
73.6000762413
 31
0.0
  0
LINE
  5
162
330
1F
100
AcDbEntity
  8
0
  6
PHANTOM
 62
     8
370
    18
100
AcDbLine
 10
294.4674558862
 20
75.6059948986
 30
0.0
 11
282.087221269
 21
109.7835978568
 31
0.0
  0
LINE
  5
163
330
1F
100
AcDbEntity
  8
0
  6
PHANTOM
 62
     8
370
    18
100
AcDbLine
 10
294.467453336
 20
73.6000744815
 30
0.0
 11
294.4674558862
 21
75.6059948986
 31
0.0
  0
LINE
  5
164
330
1F
100
AcDbEntity
  8
0
  6
PHANTOM
 62
     8
370
    18
100
AcDbLine
 10
293.083204357
 20
73.6000762413
 30
0.0
 11
294.467453336
 21
73.6000744815
 31
0.0
  0
ELLIPSE
  5
165
330
1F
100
AcDbEntity
  8
0
  6
PHANTOM
 62
     8
370
    18
100
AcDbEllipse
 10
269.2004334766
 20
110.0837943858
 30
0.0
 11
14.67092733153999
 21
1.969790006494265
 31
0.0
210
0.0
220
0.0
230
0.9999999999999999
 40
0.2665313963
 41
5.299159479645026
 42
5.747926006690366
  0
LINE
  5
166
330
1F
100
AcDbEntity
  8
0
  6
PHANTOM
 62
     8
370
    18
100
AcDbLine
 10
292.9012872065
 20
364.5690690782
 30
0.0
 11
241.2512523636
 21
364.5691347423
 31
0.0
  0
LINE
  5
167
330
1F
100
AcDbEntity
  8
0
  6
PHANTOM
 62
     8
370
    18
100
AcDbLine
 10
241.2508819862
 20
73.2380498229
 30
0.0
 11
292.9009168291
 21
73.2379841588
 31
0.0
  0
LINE
  5
168
330
1F
100
AcDbEntity
  8
0
  6
PHANTOM
 62
     8
370
    18
100
AcDbLine
 10
257.834307034
 20
329.8525900803
 30
0.0
 11
277.1721620535
 21
328.1607469892
 31
0.0
  0
SPLINE
  5
169
330
1F
100
AcDbEntity
  8
0
  6
PHANTOM
 62
     8
370
    18
100
AcDbSpline
210
0.0
220
0.0
230
1.0
 70
     8
 71
     3
 72
     9
 73
     5
 74
     0
 42
0.00000001
 43
0.00000001
 40
0.0
 40
0.0
 40
0.0
 40
0.0
 40
0.8374007042211526
 40
1.0
 40
1.0
 40
1.0
 40
1.0
 10
256.7663742766711
 20
330.0965975793696
 30
0.0
 10
257.0714348088507
 20
330.051883944242
 30
0.0
 10
257.435729382096
 20
329.9984881984514
 30
0.0
 10
257.7785625949915
 20
329.8729951599708
 30
0.0
 10
257.8343070339778
 20
329.8525900802888
 30
0.0
  0
LINE
  5
16A
330
1F
100
AcDbEntity
  8
0
  6
PHANTOM
 62
     8
370
    18
100
AcDbLine
 10
241.2512523636
 20
331.45399486
 30
0.0
 11
256.7663742767
 21
330.0965975794
 31
0.0
  0
LINE
  5
16B
330
1F
100
AcDbEntity
  8
0
  6
PHANTOM
 62
     8
370
    18
100
AcDbLine
 10
256.766091551
 20
107.7105475361
 30
0.0
 11
241.2509661866
 21
106.3531897051
 31
0.0
  0
SPLINE
  5
16C
330
1F
100
AcDbEntity
  8
0
  6
PHANTOM
 62
     8
370
    18
100
AcDbSpline
210
0.0
220
0.0
230
1.0
 70
     8
 71
     3
 72
     9
 73
     5
 74
     0
 42
0.00000001
 43
0.00000001
 40
0.0
 40
0.0
 40
0.0
 40
0.0
 40
0.8374070271914023
 40
1.0
 40
1.0
 40
1.0
 40
1.0
 10
257.8340249287419
 20
107.9545523198303
 30
0.0
 10
257.5380852237776
 20
107.8621129140251
 30
0.0
 10
257.1846851502711
 20
107.7517252497188
 30
0.0
 10
256.8246334305128
 20
107.716306393297
 30
0.0
 10
256.7660915510325
 20
107.710547536138
 30
0.0
  0
LINE
  5
16D
330
1F
100
AcDbEntity
  8
0
  6
PHANTOM
 62
     8
370
    18
100
AcDbLine
 10
277.17188425
 20
109.6463462414
 30
0.0
 11
257.8340249287
 21
107.9545523198
 31
0.0
  0
ELLIPSE
  5
16E
330
1F
100
AcDbEntity
  8
0
  6
PHANTOM
 62
     8
370
    18
100
AcDbEllipse
 10
268.984137196
 20
327.4198692433
 30
0.0
 11
14.35029492966095
 21
-1.588257137098424
 31
0.0
210
0.0
220
0.0
230
1.0
 40
0.1366440104
 41
0.5300167472371246
 42
0.9787832742824459
  0
ARC
  5
16F
330
1F
100
AcDbEntity
  8
0
  6
PHANTOM
 62
     8
370
    18
100
AcDbCircle
 10
147.8090786435
 20
411.0030892445
 30
0.0
 40
157.8490075112703
100
AcDbArc
 50
327.8650683451
 51
328.2853110441
  0
ELLIPSE
  5
170
330
1F
100
AcDbEntity
  8
0
  6
PHANTOM
 62
     8
370
    18
100
AcDbEllipse
 10
268.9838612763
 20
110.3872448067
 30
0.0
 11
14.35029896800643
 21
1.588220649226898
 31
0.0
210
0.0
220
0.0
230
0.9999999999999999
 40
0.1366440104
 41
5.304402032897174
 42
5.753168559942534
  0
ARC
  5
171
330
1F
100
AcDbEntity
  8
0
  6
PHANTOM
 62
     8
370
    18
100
AcDbCircle
 10
147.8085902051
 20
26.8043329149
 30
0.0
 40
157.8490075062122
100
AcDbArc
 50
31.7145432724
 51
32.1347859714
  0
LINE
  5
172
330
1F
100
AcDbEntity
  8
0
  6
PHANTOM
 62
     8
370
    18
100
AcDbLine
 10
283.1440638009
 20
111.8706316738
 30
0.0
 11
281.3722245763
 21
111.8706339264
 31
0.0
  0
ELLIPSE
  5
173
330
1F
100
AcDbEntity
  8
0
  6
PHANTOM
 62
     8
370
    18
100
AcDbEllipse
 10
278.708238687
 20
114.7522986963
 30
0.0
 11
-3.023830012529118
 21
5.986672946563303
 31
0.0
210
0.0
220
0.0
230
1.0
 40
0.5421137674
 41
3.672037054957484
 42
3.962325879857037
  0
ELLIPSE
  5
174
330
1F
100
AcDbEntity
  8
0
  6
PHANTOM
 62
     8
370
    18
100
AcDbEllipse
 10
277.7626519696
 20
114.7522998985
 30
0.0
 11
-3.519261301164932
 21
4.845825888910469
 31
0.0
210
0.0
220
0.0
230
1.0
 40
0.3064306651
 41
3.60375409847707
 42
3.874108477162605
  0
ELLIPSE
  5
175
330
1F
100
AcDbEntity
  8
0
  6
PHANTOM
 62
     8
370
    18
100
AcDbEllipse
 10
276.5566223479
 20
111.0497561497
 30
0.0
 11
5.29107009408284
 21
0.5775083988885966
 31
0.0
210
0.0
220
0.0
230
1.0
 40
0.3752372387
 41
5.862568773628593
 42
5.923820993915974
  0
ELLIPSE
  5
176
330
1F
100
AcDbEntity
  8
0
  6
PHANTOM
 62
     8
370
    18
100
AcDbEllipse
 10
277.5022090652
 20
111.0497549476
 30
0.0
 11
5.620473859249331
 21
0.8560078837922449
 31
0.0
210
0.0
220
0.0
230
1.0
 40
0.7021007899
 41
5.828836400621767
 42
5.912377891194017
  0
ARC
  5
177
330
1F
100
AcDbEntity
  8
0
  6
PHANTOM
 62
     8
370
    18
100
AcDbCircle
 10
278.4111324607
 20
103.0519374397
 30
0.0
 40
8.300464016849851
100
AcDbArc
 50
57.9468534212
 51
68.3386899482
  0
ELLIPSE
  5
178
330
1F
100
AcDbEntity
  8
0
  6
PHANTOM
 62
     8
370
    18
100
AcDbEllipse
 10
278.7085035078
 20
323.0547906278
 30
0.0
 11
3.023845234570445
 21
5.986665257983817
 31
0.0
210
0.0
220
0.0
230
1.0
 40
0.5421137674
 41
5.462452080912352
 42
5.752740905811942
  0
LINE
  5
179
330
1F
100
AcDbEntity
  8
0
  6
PHANTOM
 62
     8
370
    18
100
AcDbLine
 10
283.1443359488
 20
325.9364463716
 30
0.0
 11
281.3724967242
 21
325.9364486242
 31
0.0
  0
ELLIPSE
  5
17A
330
1F
100
AcDbEntity
  8
0
  6
PHANTOM
 62
     8
370
    18
100
AcDbEllipse
 10
277.7629167904
 20
323.05479183
 30
0.0
 11
3.519273622422873
 21
4.845816940623251
 31
0.0
210
0.0
220
0.0
230
1.0
 40
0.3064306651
 41
5.550669483606884
 42
5.82102386229247
  0
ARC
  5
17B
330
1F
100
AcDbEntity
  8
0
  6
PHANTOM
 62
     8
370
    18
100
AcDbCircle
 10
278.4114270315
 20
334.7551526399
 30
0.0
 40
8.300464016843303
100
AcDbArc
 50
291.6611643684
 51
302.0530008954
  0
ELLIPSE
  5
17C
330
1F
100
AcDbEntity
  8
0
  6
PHANTOM
 62
     8
370
    18
100
AcDbEllipse
 10
277.5024833003
 20
326.7573374431
 30
0.0
 11
5.620471682697428
 21
-0.8560221747221136
 31
0.0
210
0.0
220
0.0
230
1.0
 40
0.7021007899
 41
0.3708074159855761
 42
0.4543489065578176
  0
ELLIPSE
  5
17D
330
1F
100
AcDbEntity
  8
0
  6
PHANTOM
 62
     8
370
    18
100
AcDbEllipse
 10
276.556896583
 20
326.7573386453
 30
0.0
 11
5.29106862566033
 21
-0.5775218522589399
 31
0.0
210
0.0
220
0.0
230
1.0
 40
0.3752372387
 41
0.3593643132636192
 42
0.4206165335510164
  0
ARC
  5
17E
330
1F
100
AcDbEntity
  8
0
  6
PHANTOM
 62
     8
370
    18
100
AcDbCircle
 10
278.6173805279
 20
318.6594175636
 30
0.0
 40
9.986362674252247
100
AcDbArc
 50
65.1346860052
 51
69.6663939854
  0
ARC
  5
17F
330
1F
100
AcDbEntity
  8
0
  6
PHANTOM
 62
     8
370
    18
100
AcDbCircle
 10
278.617126883
 20
119.1476719923
 30
0.0
 40
9.986362674238213
100
AcDbArc
 50
290.3334603312
 51
294.8651683113
  0
ARC
  5
180
330
1F
100
AcDbEntity
  8
0
  6
PHANTOM
 62
     8
370
    18
100
AcDbCircle
 10
290.997702047
 20
352.836989043
 30
0.0
 40
9.986362674292355
100
AcDbArc
 50
65.1346860053
 51
69.6663939854
  0
LINE
  5
181
330
1F
100
AcDbEntity
  8
0
  6
PHANTOM
 62
     8
370
    18
100
AcDbLine
 10
295.1968339881
 20
361.8976032829
 30
0.0
 11
282.816512469
 21
327.7200318034
 31
0.0
  0
ARC
  5
182
330
1F
100
AcDbEntity
  8
0
  6
PHANTOM
 62
     8
370
    18
100
AcDbCircle
 10
290.9973615002
 20
84.9700690343
 30
0.0
 40
9.986362674508293
100
AcDbArc
 50
290.3334603312
 51
294.8651683112
  0
LINE
  5
183
330
1F
100
AcDbEntity
  8
0
  6
PHANTOM
 62
     8
370
    18
100
AcDbLine
 10
282.816235786
 20
110.0870470755
 30
0.0
 11
295.1964704033
 21
75.9094441173
 31
0.0
  0
LINE
  5
184
330
1F
100
AcDbEntity
  8
0
  6
PHANTOM
 62
     8
370
    18
100
AcDbLine
 10
281.3554207171
 20
326.8315401623
 30
0.0
 11
260.4760364026
 21
328.6582495912
 31
0.0
  0
LINE
  5
185
330
1F
100
AcDbEntity
  8
0
  6
PHANTOM
 62
     8
370
    18
100
AcDbLine
 10
259.2231154825
 20
329.3366743717
 30
0.0
 11
260.4760364026
 21
328.6582495912
 31
0.0
  0
SPLINE
  5
186
330
1F
100
AcDbEntity
  8
0
  6
PHANTOM
 62
     8
370
    18
100
AcDbSpline
210
0.0
220
0.0
230
1.0
 70
     8
 71
     3
 72
     9
 73
     5
 74
     0
 42
0.00000001
 43
0.00000001
 40
0.0
 40
0.0
 40
0.0
 40
0.0
 40
0.2939133654229808
 40
1.0
 40
1.0
 40
1.0
 40
1.0
 10
257.8343070339778
 20
329.8525900802888
 30
0.0
 10
257.9757999944201
 20
329.8171821172824
 30
0.0
 10
258.4572104271802
 20
329.6967113691916
 30
0.0
 10
258.9061354933257
 20
329.4856804694974
 30
0.0
 10
259.2231154824577
 20
329.3366743717406
 30
0.0
  0
SPLINE
  5
187
330
1F
100
AcDbEntity
  8
0
  6
PHANTOM
 62
     8
370
    18
100
AcDbSpline
210
0.0
220
0.0
230
1.0
 70
     8
 71
     3
 72
     9
 73
     5
 74
     0
 42
0.00000001
 43
0.00000001
 40
0.0
 40
0.0
 40
0.0
 40
0.0
 40
0.3962923837983944
 40
0.9999999999999999
 40
0.9999999999999999
 40
0.9999999999999999
 40
0.9999999999999999
 10
259.2228346890382
 20
108.4704644971164
 30
0.0
 10
259.0475113737559
 20
108.3825451882791
 30
0.0
 10
258.605102378655
 20
108.1606905364318
 30
0.0
 10
258.1242931325535
 20
108.0321520082618
 30
0.0
 10
257.8340249287419
 20
107.9545523198303
 30
0.0
  0
LINE
  5
188
330
1F
100
AcDbEntity
  8
0
  6
PHANTOM
 62
     8
370
    18
100
AcDbLine
 10
260.4757573342
 20
109.1488860919
 30
0.0
 11
259.222834689
 21
108.4704644971
 31
0.0
  0
LINE
  5
189
330
1F
100
AcDbEntity
  8
0
  6
PHANTOM
 62
     8
370
    18
100
AcDbLine
 10
260.4757573342
 20
109.1488860919
 30
0.0
 11
281.3551462933
 21
110.9755424318
 31
0.0
  0
LINE
  5
18A
330
1F
100
AcDbEntity
  8
0
  6
PHANTOM
 62
     8
370
    18
100
AcDbLine
 10
283.1443359488
 20
325.9364463716
 30
0.0
 11
283.1440638009
 21
111.8706316738
 31
0.0
  0
LINE
  5
18B
330
1F
100
AcDbEntity
  8
0
  6
PHANTOM
 62
     8
370
    18
100
AcDbLine
 10
281.3722245763
 20
111.8706339264
 30
0.0
 11
281.3724967242
 21
325.9364486242
 31
0.0
  0
SPLINE
  5
18C
330
1F
100
AcDbEntity
  8
0
  6
PHANTOM
 62
     8
370
    18
100
AcDbSpline
210
0.0
220
0.0
230
1.0
 70
     8
 71
     3
 72
     9
 73
     5
 74
     0
 42
0.00000001
 43
0.00000001
 40
0.0
 40
0.0
 40
0.0
 40
0.0
 40
0.7353565098868616
 40
1.0
 40
1.0
 40
1.0
 40
1.0
 10
271.9783407896061
 20
317.123183295878
 30
0.0
 10
272.055106411468
 20
316.9591401210665
 30
0.0
 10
272.1594987991463
 20
316.7360603324116
 30
0.0
 10
272.1828692297875
 20
316.492916376912
 30
0.0
 10
272.1890540621179
 20
316.4285699119286
 30
0.0
  0
LINE
  5
18D
330
1F
100
AcDbEntity
  8
0
  6
PHANTOM
 62
     8
370
    18
100
AcDbLine
 10
271.9783407896
 20
317.1231832959
 30
0.0
 11
281.3554207171
 21
326.8315401623
 31
0.0
  0
LINE
  5
18E
330
1F
100
AcDbEntity
  8
0
  6
PHANTOM
 62
     8
370
    18
100
AcDbLine
 10
281.3724967242
 20
325.9364486242
 30
0.0
 11
272.1890540621
 21
316.4285699119
 31
0.0
  0
LINE
  5
18F
330
1F
100
AcDbEntity
  8
0
  6
PHANTOM
 62
     8
370
    18
100
AcDbLine
 10
281.3551462933
 20
110.9755424318
 30
0.0
 11
271.9780910509
 21
120.6839231408
 31
0.0
  0
SPLINE
  5
190
330
1F
100
AcDbEntity
  8
0
  6
PHANTOM
 62
     8
370
    18
100
AcDbSpline
210
0.0
220
0.0
230
1.0
 70
     8
 71
     3
 72
     9
 73
     5
 74
     0
 42
0.00000001
 43
0.00000001
 40
0.0
 40
0.0
 40
0.0
 40
0.0
 40
0.6832040391141961
 40
0.9999999999999999
 40
0.9999999999999999
 40
0.9999999999999999
 40
0.9999999999999999
 10
272.1888060895285
 20
121.3785359889626
 30
0.0
 10
272.1659492713098
 20
121.2111763238298
 30
0.0
 10
272.1324939389198
 20
120.9662133910143
 30
0.0
 10
272.015237437038
 20
120.751836783998
 30
0.0
 10
271.9780910508543
 20
120.6839231407868
 30
0.0
  0
LINE
  5
191
330
1F
100
AcDbEntity
  8
0
  6
PHANTOM
 62
     8
370
    18
100
AcDbLine
 10
272.1888060895
 20
121.378535989
 30
0.0
 11
281.3722245763
 21
111.8706339264
 31
0.0
  0
LINE
  5
192
330
1F
100
AcDbEntity
  8
0
  6
PHANTOM
 62
     8
370
    18
100
AcDbLine
 10
295.1964704033
 20
75.9094441173
 30
0.0
 11
295.1968339881
 21
361.8976032829
 31
0.0
  0
LINE
  5
193
330
1F
100
AcDbEntity
  8
0
  6
PHANTOM
 62
     8
370
    18
100
AcDbLine
 10
271.6907540903
 20
317.4435319035
 30
0.0
 11
271.9783407896
 21
317.1231832959
 31
0.0
  0
LINE
  5
194
330
1F
100
AcDbEntity
  8
0
  6
PHANTOM
 62
     8
370
    18
100
AcDbLine
 10
260.4760364026
 20
328.6582495912
 30
0.0
 11
271.6907540903
 21
317.4435319035
 31
0.0
  0
LINE
  5
195
330
1F
100
AcDbEntity
  8
0
  6
PHANTOM
 62
     8
370
    18
100
AcDbLine
 10
271.690503537
 20
120.3635752644
 30
0.0
 11
260.4757573342
 21
109.1488860919
 31
0.0
  0
LINE
  5
196
330
1F
100
AcDbEntity
  8
0
  6
PHANTOM
 62
     8
370
    18
100
AcDbLine
 10
271.9780910509
 20
120.6839231408
 30
0.0
 11
271.690503537
 21
120.3635752644
 31
0.0
  0
LINE
  5
197
330
1F
100
AcDbEntity
  8
0
  6
PHANTOM
 62
     8
370
    18
100
AcDbLine
 10
272.424754272
 20
122.7320130479
 30
0.0
 11
272.1888060895
 21
121.378535989
 31
0.0
  0
LINE
  5
198
330
1F
100
AcDbEntity
  8
0
  6
PHANTOM
 62
     8
370
    18
100
AcDbLine
 10
272.4249988031
 20
315.075092253
 30
0.0
 11
272.424754272
 21
122.7320130479
 31
0.0
  0
LINE
  5
199
330
1F
100
AcDbEntity
  8
0
  6
PHANTOM
 62
     8
370
    18
100
AcDbLine
 10
272.1890540621
 20
316.4285699119
 30
0.0
 11
272.4249988031
 21
315.075092253
 31
0.0
  0
LWPOLYLINE
  5
19A
330
1F
100
AcDbEntity
  8
0
  6
PHANTOM
 62
     8
370
    18
100
AcDbPolyline
 90
        9
 70
   128
 43
0.0
 10
256.9641572457
 20
329.5288912343
 10
256.9311405291
 20
329.5407975951
 10
256.8999863365
 20
329.5704955405
 10
256.8709745403
 20
329.6177182801
 10
256.8443657667
 20
329.6820415904
 10
256.8203990545
 20
329.7628876258
 10
256.7992897076
 20
329.8595301095
 10
256.7812273608
 20
329.9711008576
 10
256.7663742767
 20
330.0965975794
  0
ARC
  5
19B
330
1F
100
AcDbEntity
  8
0
  6
PHANTOM
 62
     8
370
    18
100
AcDbCircle
 10
257.059704373
 20
330.0872163095
 30
0.0
 40
0.8093569977461472
100
AcDbArc
 50
302.7986458203
 51
343.1485015003
  0
ARC
  5
19C
330
1F
100
AcDbEntity
  8
0
  6
PHANTOM
 62
     8
370
    18
100
AcDbCircle
 10
257.0594216712
 20
107.7199280601
 30
0.0
 40
0.8093569977855218
100
AcDbArc
 50
16.8513528166
 51
57.2012084939
  0
LWPOLYLINE
  5
19D
330
1F
100
AcDbEntity
  8
0
  6
PHANTOM
 62
     8
370
    18
100
AcDbPolyline
 90
        9
 70
   128
 43
0.0
 10
256.9638759636
 20
108.2782533784
 10
256.9308592167
 20
108.2663471014
 10
256.8997049486
 20
108.2366492353
 10
256.8706930323
 20
108.1894265695
 10
256.8440840952
 20
108.1251033268
 10
256.8201171774
 20
108.0442573523
 10
256.7990075847
 20
107.9476149224
 10
256.7809449543
 20
107.8360442201
 10
256.766091551
 20
107.7105475361
  0
LWPOLYLINE
  5
19E
330
1F
100
AcDbEntity
  8
0
  6
PHANTOM
 62
     8
370
    18
100
AcDbPolyline
 90
        9
 70
   128
 43
0.0
 10
258.2040593226
 20
328.9507154004
 10
258.2637147536
 20
328.9150843796
 10
258.3463811789
 20
328.9040830624
 10
258.4506542758
 20
328.9178983373
 10
258.5747626714
 20
328.9562955129
 10
258.7165980342
 20
329.0186223047
 10
258.87375089
 20
329.1038199162
 10
259.043551554
 20
329.2104410254
 10
259.2231154825
 20
329.3366743717
  0
LWPOLYLINE
  5
19F
330
1F
100
AcDbEntity
  8
0
  6
PHANTOM
 62
     8
370
    18
100
AcDbPolyline
 90
        9
 70
   128
 43
0.0
 10
258.2037795105
 20
108.8564260595
 10
258.2634350322
 20
108.8920569287
 10
258.3461014854
 20
108.9030580357
 10
258.4503745472
 20
108.8892424956
 10
258.5744828452
 20
108.8508450045
 10
258.7163180495
 20
108.788517852
 10
258.8734706887
 20
108.703319841
 10
259.0432710816
 20
108.5966983
 10
259.222834689
 20
108.4704644971
  0
ARC
  5
1A0
330
1F
100
AcDbEntity
  8
0
  6
PHANTOM
 62
     8
370
    18
100
AcDbCircle
 10
252.0504317002
 20
101.1240502735
 30
0.0
 40
11.63546741438988
100
AcDbArc
 50
43.6053726997
 51
50.5065636117
  0
ARC
  5
1A1
330
1F
100
AcDbEntity
  8
0
  6
PHANTOM
 62
     8
370
    18
100
AcDbCircle
 10
252.0507311731
 20
336.6831068323
 30
0.0
 40
11.63546741441066
100
AcDbArc
 50
309.4932907049
 51
316.3944816168
  0
ARC
  5
1A2
330
1F
100
AcDbEntity
  8
0
  6
PHANTOM
 62
     8
370
    18
100
AcDbCircle
 10
263.2654488608
 20
325.4683891446
 30
0.0
 40
11.6354674143732
100
AcDbArc
 50
309.4932907048
 51
316.3944816168
  0
ARC
  5
1A3
330
1F
100
AcDbEntity
  8
0
  6
PHANTOM
 62
     8
370
    18
100
AcDbCircle
 10
263.2651779033
 20
112.3387394462
 30
0.0
 40
11.63546741408025
100
AcDbArc
 50
43.6053726996
 51
50.5065636117
  0
LINE
  5
1A4
330
1F
100
AcDbEntity
  8
0
  6
PHANTOM
 62
     8
370
    18
100
AcDbLine
 10
271.2510067792
 20
122.7320145401
 30
0.0
 11
272.424754272
 21
122.7320130479
 31
0.0
  0
ARC
  5
1A5
330
1F
100
AcDbEntity
  8
0
  6
PHANTOM
 62
     8
370
    18
100
AcDbCircle
 10
272.636062479
 20
123.2382141897
 30
0.0
 40
1.912705227733995
100
AcDbArc
 50
218.2040104517
 51
256.4770719952
  0
ARC
  5
1A6
330
1F
100
AcDbEntity
  8
0
  6
PHANTOM
 62
     8
370
    18
100
AcDbCircle
 10
272.6363057231
 20
314.568890574
 30
0.0
 40
1.912705227733932
100
AcDbArc
 50
103.5227823213
 51
141.7958438649
  0
LINE
  5
1A7
330
1F
100
AcDbEntity
  8
0
  6
PHANTOM
 62
     8
370
    18
100
AcDbLine
 10
271.2512513104
 20
315.0750937453
 30
0.0
 11
272.4249988031
 21
315.075092253
 31
0.0
  0
ARC
  5
1A8
330
1F
100
AcDbEntity
  8
0
  6
PHANTOM
 62
     8
370
    18
100
AcDbCircle
 10
268.4739393929
 20
321.0250917708
 30
0.0
 40
5.244589487816387
100
AcDbArc
 50
296.4413523568
 51
311.9278025288
  0
ARC
  5
1A9
330
1F
100
AcDbEntity
  8
0
  6
PHANTOM
 62
     8
370
    18
100
AcDbCircle
 10
268.4736797329
 20
116.7820235764
 30
0.0
 40
5.244589487818874
100
AcDbArc
 50
48.0720517877
 51
63.5585019597
  0
ARC
  5
1AA
330
1F
100
AcDbEntity
  8
0
  6
PHANTOM
 62
     8
370
    18
100
AcDbCircle
 10
277.1768372949
 20
364.8327582175
 30
0.0
 40
15.72666070672533
100
AcDbArc
 50
359.0392758472
 51
3.9040718009
  0
ARC
  5
1AB
330
1F
100
AcDbEntity
  8
0
  6
PHANTOM
 62
     8
370
    18
100
AcDbCircle
 10
277.1764662471
 20
72.9743350013
 30
0.0
 40
15.72666070663533
100
AcDbArc
 50
356.0957825156
 51
0.9605784694
  0
ARC
  5
1AC
330
1F
100
AcDbEntity
  8
0
  6
PHANTOM
 62
     8
370
    18
100
AcDbCircle
 10
294.8677419612
 20
359.159007482
 30
0.0
 40
3.068222051903904
100
AcDbArc
 50
63.1976380502
 51
97.4894219255
  0
LINE
  5
1AD
330
1F
100
AcDbEntity
  8
0
  6
PHANTOM
 62
     8
370
    18
100
AcDbLine
 10
296.2512472707
 20
361.8976019424
 30
0.0
 11
295.1968339881
 21
361.8976032829
 31
0.0
  0
ARC
  5
1AE
330
1F
100
AcDbEntity
  8
0
  6
PHANTOM
 62
     8
370
    18
100
AcDbCircle
 10
294.8677445114
 20
361.1649278991
 30
0.0
 40
3.068222051901333
100
AcDbArc
 50
63.1976380501
 51
97.4894219255
  0
LINE
  5
1AF
330
1F
100
AcDbEntity
  8
0
  6
PHANTOM
 62
     8
370
    18
100
AcDbLine
 10
295.1964704033
 20
75.9094441173
 30
0.0
 11
296.250883686
 21
75.9094427768
 31
0.0
  0
ARC
  5
1B0
330
1F
100
AcDbEntity
  8
0
  6
PHANTOM
 62
     8
370
    18
100
AcDbCircle
 10
294.8673853398
 20
78.6480407549
 30
0.0
 40
3.06822205186421
100
AcDbArc
 50
262.5104323908
 51
296.8022162666
  0
ARC
  5
1B1
330
1F
100
AcDbEntity
  8
0
  6
PHANTOM
 62
     8
370
    18
100
AcDbCircle
 10
294.8673827896
 20
76.6421203378
 30
0.0
 40
3.068222051901456
100
AcDbArc
 50
262.510432391
 51
296.8022162664
  0
ARC
  5
1B2
330
1F
100
AcDbEntity
  8
0
  6
PHANTOM
 62
     8
370
    18
100
AcDbCircle
 10
290.6484535543
 20
364.5815172633
 30
0.0
 40
3.837689859445979
100
AcDbArc
 50
354.3992561401
 51
20.1500600269
  0
ARC
  5
1B3
330
1F
100
AcDbEntity
  8
0
  6
PHANTOM
 62
     8
370
    18
100
AcDbCircle
 10
289.2642045753
 20
364.5815190231
 30
0.0
 40
3.837689859444378
100
AcDbArc
 50
354.3992561401
 51
20.1500600269
  0
ARC
  5
1B4
330
1F
100
AcDbEntity
  8
0
  6
PHANTOM
 62
     8
370
    18
100
AcDbCircle
 10
290.6480831453
 20
73.2255417018
 30
0.0
 40
3.837689859444458
100
AcDbArc
 50
339.8497942896
 51
5.6005981764
  0
ARC
  5
1B5
330
1F
100
AcDbEntity
  8
0
  6
PHANTOM
 62
     8
370
    18
100
AcDbCircle
 10
289.2638341663
 20
73.2255434617
 30
0.0
 40
3.83768985944272
100
AcDbArc
 50
339.8497942896
 51
5.6005981764
  0
LINE
  5
1B6
330
1F
100
AcDbEntity
  8
0
  6
Continuous
 62
     7
370
    25
100
AcDbLine
 10
126.9338042245
 20
464.8129039029
 30
0.0
 11
126.8554779589
 21
463.3995034143
 31
0.0
  0
LINE
  5
1B7
330
1F
100
AcDbEntity
  8
0
  6
Continuous
 62
     7
370
    25
100
AcDbLine
 10
156.3568877404
 20
463.3995034143
 30
0.0
 11
156.2785614748
 21
464.8129039029
 31
0.0
  0
ARC
  5
1B8
330
1F
100
AcDbEntity
  8
0
  6
Continuous
 62
     7
370
    25
100
AcDbCircle
 10
128.8524139821
 20
463.2888394216
 30
0.0
 40
2.000000000000001
100
AcDbArc
 50
176.8280901965
 51
183.4874793053
  0
ARC
  5
1B9
330
1F
100
AcDbEntity
  8
0
  6
Continuous
 62
     7
370
    25
100
AcDbCircle
 10
154.3599517172
 20
463.2888394216
 30
0.0
 40
2.000000000000044
100
AcDbArc
 50
356.5125206947
 51
3.1719098035
  0
LINE
  5
1BA
330
1F
100
AcDbEntity
  8
0
  6
Continuous
 62
     7
370
    25
100
AcDbLine
 10
126.8561177514
 20
463.167178585
 30
0.0
 11
128.9750509157
 21
428.3982389218
 31
0.0
  0
LINE
  5
1BB
330
1F
100
AcDbEntity
  8
0
  6
Continuous
 62
     7
370
    25
100
AcDbLine
 10
154.2373147836
 20
428.3982389218
 30
0.0
 11
156.3562479479
 21
463.167178585
 31
0.0
  0
SPLINE
  5
1BC
330
1F
100
AcDbEntity
  8
0
  6
Continuous
 62
     7
370
    25
100
AcDbSpline
210
0.0
220
0.0
230
1.0
 70
     8
 71
     3
 72
     9
 73
     5
 74
     0
 42
0.00000001
 43
0.00000001
 40
0.0
 40
0.0
 40
0.0
 40
0.0
 40
0.5782745612500094
 40
1.0
 40
1.0
 40
1.0
 40
1.0
 10
128.9781264767724
 20
428.4452026294414
 30
0.0
 10
129.0271099008455
 20
427.5964564708066
 30
0.0
 10
129.1118160721963
 20
426.1287347076356
 30
0.0
 10
129.1459167348977
 20
424.7518453062723
 30
0.0
 10
129.1602978518371
 20
424.1711760193722
 30
0.0
  0
SPLINE
  5
1BD
330
1F
100
AcDbEntity
  8
0
  6
Continuous
 62
     7
370
    25
100
AcDbSpline
210
0.0
220
0.0
230
1.0
 70
     8
 71
     3
 72
     9
 73
     5
 74
     0
 42
0.00000001
 43
0.00000001
 40
0.0
 40
0.0
 40
0.0
 40
0.0
 40
0.4217254387499904
 40
1.0
 40
1.0
 40
1.0
 40
1.0
 10
154.0520678474246
 20
424.1711760193722
 30
0.0
 10
154.066448964364
 20
424.7518453062723
 30
0.0
 10
154.1005496270655
 20
426.1287347076356
 30
0.0
 10
154.1852557984163
 20
427.5964564708066
 30
0.0
 10
154.2342392224893
 20
428.4452026294414
 30
0.0
  0
ARC
  5
1BE
330
1F
100
AcDbEntity
  8
0
  6
Continuous
 62
     7
370
    25
100
AcDbCircle
 10
152.0522168992
 20
424.1932305149
 30
0.0
 40
1.999999999999999
100
AcDbArc
 50
331.7843109723
 51
359.1817116174
  0
ARC
  5
1BF
330
1F
100
AcDbEntity
  8
0
  6
Continuous
 62
     7
370
    25
100
AcDbCircle
 10
131.1601488001
 20
424.1932305149
 30
0.0
 40
2.000000000000016
100
AcDbArc
 50
180.8182883826
 51
208.2158345714
  0
LINE
  5
1C0
330
1F
100
AcDbEntity
  8
0
  6
Continuous
 62
     7
370
    25
100
AcDbLine
 10
126.9338042245
 20
464.813214286
 30
0.0
 11
126.8554779557
 21
463.3998129894
 31
0.0
  0
ARC
  5
1C1
330
1F
100
AcDbEntity
  8
0
  6
Continuous
 62
     7
370
    25
100
AcDbCircle
 10
128.8524139821
 20
463.2891490553
 30
0.0
 40
1.999999999999986
100
AcDbArc
 50
176.8280918748
 51
183.4874764829
  0
ARC
  5
1C2
330
1F
100
AcDbEntity
  8
0
  6
Continuous
 62
     7
370
    25
100
AcDbCircle
 10
154.3599517172
 20
463.2891490553
 30
0.0
 40
2.000000000000043
100
AcDbArc
 50
356.5125235171
 51
3.1719081252
  0
LINE
  5
1C3
330
1F
100
AcDbEntity
  8
0
  6
Continuous
 62
     7
370
    25
100
AcDbLine
 10
156.3568877436
 20
463.3998129894
 30
0.0
 11
156.2785614748
 21
464.813214286
 31
0.0
  0
LINE
  5
1C4
330
1F
100
AcDbEntity
  8
0
  6
Continuous
 62
     7
370
    25
100
AcDbLine
 10
135.1351978354
 20
464.8129039029
 30
0.0
 11
137.0215246903
 21
464.8129039029
 31
0.0
  0
LINE
  5
1C5
330
1F
100
AcDbEntity
  8
0
  6
Continuous
 62
     7
370
    25
100
AcDbLine
 10
146.190841009
 20
464.8129039029
 30
0.0
 11
137.0215246903
 21
464.8129039029
 31
0.0
  0
LINE
  5
1C6
330
1F
100
AcDbEntity
  8
0
  6
Continuous
 62
     7
370
    25
100
AcDbLine
 10
146.190841009
 20
464.8129039029
 30
0.0
 11
148.0771678638
 21
464.8129039029
 31
0.0
  0
LINE
  5
1C7
330
1F
100
AcDbEntity
  8
0
  6
Continuous
 62
     7
370
    25
100
AcDbLine
 10
145.0998035669
 20
409.8129064456
 30
0.0
 11
138.1125621324
 21
409.8129064456
 31
0.0
  0
LINE
  5
1C8
330
1F
100
AcDbEntity
  8
0
  6
Continuous
 62
     7
370
    25
100
AcDbLine
 10
135.1351978354
 20
464.8129039029
 30
0.0
 11
127.0530694337
 21
464.8129039029
 31
0.0
  0
LINE
  5
1C9
330
1F
100
AcDbEntity
  8
0
  6
Continuous
 62
     7
370
    25
100
AcDbLine
 10
156.1592962656
 20
464.8129039029
 30
0.0
 11
148.0771678638
 21
464.8129039029
 31
0.0
  0
LINE
  5
1CA
330
1F
100
AcDbEntity
  8
0
  6
Continuous
 62
     7
370
    25
100
AcDbLine
 10
138.1125621324
 20
409.8129064456
 30
0.0
 11
137.8027842958
 21
409.8129089958
 31
0.0
  0
LINE
  5
1CB
330
1F
100
AcDbEntity
  8
0
  6
Continuous
 62
     7
370
    25
100
AcDbLine
 10
145.4095814035
 20
409.8129089958
 30
0.0
 11
145.0998035669
 21
409.8129064456
 31
0.0
  0
LINE
  5
1CC
330
1F
100
AcDbEntity
  8
0
  6
Continuous
 62
     7
370
    25
100
AcDbLine
 10
153.814563562
 20
423.2476437976
 30
0.0
 11
147.1719280663
 21
410.8673222784
 31
0.0
  0
LINE
  5
1CD
330
1F
100
AcDbEntity
  8
0
  6
Continuous
 62
     7
370
    25
100
AcDbLine
 10
136.0404376329
 20
410.8673222784
 30
0.0
 11
129.3978021373
 21
423.2476437976
 31
0.0
  0
ARC
  5
1CE
330
1F
100
AcDbEntity
  8
0
  6
Continuous
 62
     7
370
    25
100
AcDbCircle
 10
145.4095814035
 20
411.8129089958
 30
0.0
 40
1.999999999999617
100
AcDbArc
 50
270.0
 51
331.7842271958
  0
ARC
  5
1CF
330
1F
100
AcDbEntity
  8
0
  6
Continuous
 62
     7
370
    25
100
AcDbCircle
 10
137.8027842958
 20
411.8129089958
 30
0.0
 40
1.999999999999619
100
AcDbArc
 50
208.2157728042
 51
270.0
  0
LINE
  5
1D0
330
1F
100
AcDbEntity
  8
0
  6
Continuous
 62
     7
370
    25
100
AcDbLine
 10
126.9338042245
 20
464.8129039029
 30
0.0
 11
127.0530694337
 21
464.8129039029
 31
0.0
  0
LINE
  5
1D1
330
1F
100
AcDbEntity
  8
0
  6
Continuous
 62
     7
370
    25
100
AcDbLine
 10
156.1592962656
 20
464.8129039029
 30
0.0
 11
156.2785614748
 21
464.8129039029
 31
0.0
  0
LWPOLYLINE
  5
1D2
330
1F
100
AcDbEntity
  8
0
  6
Continuous
 62
     7
370
    25
100
AcDbPolyline
 90
        4
 70
   128
 43
0.0
 10
153.6386687288
 20
422.9198203177
 10
153.6498022884
 20
422.9405699422
 10
153.6830988043
 20
423.0026260377
 10
153.7382467622
 20
423.105408022
  0
LWPOLYLINE
  5
1D3
330
1F
100
AcDbEntity
  8
0
  6
Continuous
 62
     7
370
    25
100
AcDbPolyline
 90
        4
 70
   128
 43
0.0
 10
129.4741189371
 20
423.105408022
 10
129.529266895
 20
423.0026260377
 10
129.5625634109
 20
422.9405699422
 10
129.5736969705
 20
422.9198203177
  0
LINE
  5
1D4
330
1F
100
AcDbEntity
  8
0
  6
Continuous
 62
     7
370
    25
100
AcDbLine
 10
147.1855539838
 20
464.8131900799
 30
0.0
 11
155.6495620144
 21
464.8132105249
 31
0.0
  0
LINE
  5
1D5
330
1F
100
AcDbEntity
  8
0
  6
Continuous
 62
     7
370
    25
100
AcDbLine
 10
127.5628036849
 20
464.8132105249
 30
0.0
 11
136.0268117154
 21
464.8131900799
 31
0.0
  0
LINE
  5
1D6
330
1F
100
AcDbEntity
  8
0
  6
Continuous
 62
     7
370
    25
100
AcDbLine
 10
137.4164212415
 20
464.8131886804
 30
0.0
 11
145.7959444578
 21
464.8131886804
 31
0.0
  0
SPLINE
  5
1D7
330
1F
100
AcDbEntity
  8
0
  6
Continuous
 62
     7
370
    25
100
AcDbSpline
210
0.0
220
0.0
230
1.0
 70
     8
 71
     3
 72
    10
 73
     6
 74
     0
 42
0.00000001
 43
0.00000001
 40
0.0
 40
0.0
 40
0.0
 40
0.0
 40
0.4950096122318673
 40
0.9340655836119842
 40
1.0
 40
1.0
 40
1.0
 40
1.0
 10
136.0268117154371
 20
464.8131900799136
 30
0.0
 10
136.2293463867967
 20
464.813189689338
 30
0.0
 10
136.6115221291062
 20
464.8131889523357
 30
0.0
 10
137.1267536402504
 20
464.8131886925015
 30
0.0
 10
137.3829683872965
 20
464.8131886818232
 30
0.0
 10
137.4164212415006
 20
464.8131886804291
 30
0.0
  0
SPLINE
  5
1D8
330
1F
100
AcDbEntity
  8
0
  6
Continuous
 62
     7
370
    25
100
AcDbSpline
210
0.0
220
0.0
230
1.0
 70
     8
 71
     3
 72
    10
 73
     6
 74
     0
 42
0.00000001
 43
0.00000001
 40
0.0
 40
0.0
 40
0.0
 40
0.0
 40
0.4945172565877839
 40
0.9439482702164452
 40
0.9999999999999999
 40
0.9999999999999999
 40
0.9999999999999999
 40
0.9999999999999999
 10
145.7959444577613
 20
464.8131886804291
 30
0.0
 10
146.0483210751982
 20
464.813188748688
 30
0.0
 10
146.5300645700895
 20
464.8131888789827
 30
0.0
 10
146.9761393848055
 20
464.8131895885748
 30
0.0
 10
147.1646504577238
 20
464.8131900308687
 30
0.0
 10
147.1855539838246
 20
464.8131900799136
 30
0.0
  0
LWPOLYLINE
  5
1D9
330
1F
100
AcDbEntity
  8
0
  6
Continuous
 62
     7
370
    25
100
AcDbPolyline
 90
        7
 70
   128
 43
0.0
 10
127.0530694337
 20
464.8132160551
 10
126.9572671205
 20
464.8132150794
 10
126.9354388276
 20
464.8132140763
 10
126.9884002361
 20
464.8132130831
 10
127.1141722809
 20
464.8132121371
 10
127.3080551053
 20
464.8132112737
 10
127.5628036849
 20
464.8132105249
  0
LINE
  5
1DA
330
1F
100
AcDbEntity
  8
0
  6
Continuous
 62
     7
370
    25
100
AcDbLine
 10
127.771527876
 20
464.813221231
 30
0.0
 11
127.0530694337
 21
464.8132160551
 31
0.0
  0
LWPOLYLINE
  5
1DB
330
1F
100
AcDbEntity
  8
0
  6
Continuous
 62
     7
370
    25
100
AcDbPolyline
 90
        8
 70
   128
 43
0.0
 10
137.0215246903
 20
464.8132776734
 10
136.6714063039
 20
464.8132775949
 10
136.3320974367
 20
464.8132773618
 10
136.0140738741
 20
464.8132769813
 10
135.7271542418
 20
464.8132764652
 10
135.4801968658
 20
464.8132758294
 10
135.2808262816
 20
464.8132750936
 10
135.1351978354
 20
464.8132742803
  0
LWPOLYLINE
  5
1DC
330
1F
100
AcDbEntity
  8
0
  6
Continuous
 62
     7
370
    25
100
AcDbPolyline
 90
        8
 70
   128
 43
0.0
 10
148.0771678638
 20
464.8132742803
 10
147.9315394177
 20
464.8132750936
 10
147.7321688335
 20
464.8132758294
 10
147.4852114574
 20
464.8132764652
 10
147.1982918251
 20
464.8132769813
 10
146.8802682626
 20
464.8132773618
 10
146.5409593953
 20
464.8132775949
 10
146.190841009
 20
464.8132776734
  0
LINE
  5
1DD
330
1F
100
AcDbEntity
  8
0
  6
Continuous
 62
     7
370
    25
100
AcDbLine
 10
156.1592962656
 20
464.8132160551
 30
0.0
 11
155.4408378233
 21
464.813221231
 31
0.0
  0
LWPOLYLINE
  5
1DE
330
1F
100
AcDbEntity
  8
0
  6
Continuous
 62
     7
370
    25
100
AcDbPolyline
 90
        7
 70
   128
 43
0.0
 10
155.6495620144
 20
464.8132105249
 10
155.904310594
 20
464.8132112737
 10
156.0981934184
 20
464.8132121371
 10
156.2239654632
 20
464.8132130831
 10
156.2769268717
 20
464.8132140763
 10
156.2550985788
 20
464.8132150794
 10
156.1592962656
 20
464.8132160551
  0
LINE
  5
1DF
330
1F
100
AcDbEntity
  8
0
  6
Continuous
 62
     7
370
    25
100
AcDbLine
 10
155.4408378232
 20
464.8132135902
 30
0.0
 11
146.8985119062
 21
464.8132751307
 31
0.0
  0
LINE
  5
1E0
330
1F
100
AcDbEntity
  8
0
  6
Continuous
 62
     7
370
    25
100
AcDbLine
 10
146.8985119062
 20
464.8132751307
 30
0.0
 11
136.3138537931
 21
464.8132751307
 31
0.0
  0
LINE
  5
1E1
330
1F
100
AcDbEntity
  8
0
  6
Continuous
 62
     7
370
    25
100
AcDbLine
 10
136.3138537931
 20
464.8132751307
 30
0.0
 11
127.771527876
 21
464.8132135902
 31
0.0
  0
LINE
  5
1E2
330
1F
100
AcDbEntity
  8
0
  6
Continuous
 62
     7
370
    25
100
AcDbLine
 10
137.0272367156
 20
464.8131912328
 30
0.0
 11
146.1851289837
 21
464.8131912328
 31
0.0
  0
LINE
  5
1E3
330
1F
100
AcDbEntity
  8
0
  6
Continuous
 62
     7
370
    25
100
AcDbLine
 10
146.1851289837
 20
464.8131912328
 30
0.0
 11
155.4408378232
 21
464.8132135902
 31
0.0
  0
LINE
  5
1E4
330
1F
100
AcDbEntity
  8
0
  6
Continuous
 62
     7
370
    25
100
AcDbLine
 10
127.771527876
 20
464.8132135902
 30
0.0
 11
137.0272367156
 21
464.8131912328
 31
0.0
  0
LWPOLYLINE
  5
1E5
330
1F
100
AcDbEntity
  8
0
  6
Continuous
 62
     7
370
    25
100
AcDbPolyline
 90
       30
 70
   128
 43
0.0
 10
141.6061828496
 20
464.8132020293
 10
140.330574775
 20
464.8132022981
 10
139.0897619633
 20
464.813203097
 10
137.9175905536
 20
464.8132044044
 10
136.8460343263
 20
464.8132061844
 10
135.9043225419
 20
464.8132083887
 10
135.1181426431
 20
464.813210957
 10
134.5089395681
 20
464.8132138193
 10
134.0933307886
 20
464.8132168975
 10
133.8826530288
 20
464.8132201076
 10
133.8826530288
 20
464.8132233622
 10
134.0933307886
 20
464.8132265723
 10
134.5089395681
 20
464.8132296506
 10
135.1181426431
 20
464.8132325128
 10
135.9043225419
 20
464.8132350811
 10
136.8460343263
 20
464.8132372854
 10
137.9175905536
 20
464.8132390655
 10
139.0897619633
 20
464.8132403728
 10
140.330574775
 20
464.8132411717
 10
141.6061828496
 20
464.8132414405
 10
142.8817909243
 20
464.8132411717
 10
144.122603736
 20
464.8132403728
 10
145.2947751457
 20
464.8132390655
 10
146.366331373
 20
464.8132372854
 10
147.3080431573
 20
464.8132350811
 10
148.0942230562
 20
464.8132325128
 10
148.7034261312
 20
464.8132296506
 10
149.1190349107
 20
464.8132265723
 10
149.3297126704
 20
464.8132233622
 10
149.3561828496
 20
464.8132217349
  0
LINE
  5
1E6
330
1F
100
AcDbEntity
  8
0
  6
PHANTOM
 62
     8
370
    18
100
AcDbLine
 10
137.0215246903
 20
464.8129039029
 30
0.0
 11
137.9599928906
 21
413.1971528819
 31
0.0
  0
LWPOLYLINE
  5
1E7
330
1F
100
AcDbEntity
  8
0
  6
PHANTOM
 62
     8
370
    18
100
AcDbPolyline
 90
        9
 70
   128
 43
0.0
 10
136.074289378
 20
413.16286906
 10
136.1986253214
 20
413.1651293559
 10
136.364621352
 20
413.1681471364
 10
136.568351311
 20
413.1718510245
 10
136.8049965517
 20
413.1761534155
 10
137.0689599111
 20
413.1809525487
 10
137.3539980946
 20
413.1861349143
 10
137.6533693433
 20
413.1915779384
 10
137.9599928906
 20
413.1971528819
  0
LINE
  5
1E8
330
1F
100
AcDbEntity
  8
0
  6
PHANTOM
 62
     8
370
    18
100
AcDbLine
 10
136.074289378
 20
413.16286906
 30
0.0
 11
135.1351978354
 21
464.8129039029
 31
0.0
  0
LINE
  5
1E9
330
1F
100
AcDbEntity
  8
0
  6
PHANTOM
 62
     8
370
    18
100
AcDbLine
 10
137.9599928906
 20
413.1971528819
 30
0.0
 11
138.1125621324
 21
411.8129039029
 31
0.0
  0
LINE
  5
1EA
330
1F
100
AcDbEntity
  8
0
  6
PHANTOM
 62
     8
370
    18
100
AcDbLine
 10
145.2523728086
 20
413.1971528819
 30
0.0
 11
146.190841009
 21
464.8129039029
 31
0.0
  0
LINE
  5
1EB
330
1F
100
AcDbEntity
  8
0
  6
PHANTOM
 62
     8
370
    18
100
AcDbLine
 10
145.0998035669
 20
411.8129039029
 30
0.0
 11
145.2523728086
 21
413.1971528819
 31
0.0
  0
LINE
  5
1EC
330
1F
100
AcDbEntity
  8
0
  6
PHANTOM
 62
     8
370
    18
100
AcDbLine
 10
138.1125621324
 20
411.8129039029
 30
0.0
 11
145.0998035669
 21
411.8129039029
 31
0.0
  0
LINE
  5
1ED
330
1F
100
AcDbEntity
  8
0
  6
PHANTOM
 62
     8
370
    18
100
AcDbLine
 10
148.0771678638
 20
464.8129039029
 30
0.0
 11
147.1380763212
 21
413.16286906
 31
0.0
  0
LWPOLYLINE
  5
1EE
330
1F
100
AcDbEntity
  8
0
  6
PHANTOM
 62
     8
370
    18
100
AcDbPolyline
 90
        9
 70
   128
 43
0.0
 10
145.2523728086
 20
413.1971528819
 10
145.558996356
 20
413.1915779384
 10
145.8583676047
 20
413.1861349143
 10
146.1434057882
 20
413.1809525487
 10
146.4073691476
 20
413.1761534155
 10
146.6440143883
 20
413.1718510245
 10
146.8477443472
 20
413.1681471364
 10
147.0137403779
 20
413.1651293559
 10
147.1380763212
 20
413.16286906
  0
LWPOLYLINE
  5
1EF
330
1F
100
AcDbEntity
  8
0
  6
PHANTOM
 62
     8
370
    18
100
AcDbPolyline
 90
        9
 70
   128
 43
0.0
 10
147.0647499591
 20
411.5963334738
 10
146.9807416484
 20
411.6055922698
 10
146.8377533486
 20
411.6213517519
 10
146.6402686991
 20
411.6431177548
 10
146.3944801646
 20
411.6702077687
 10
146.1080948596
 20
411.7017723406
 10
145.7900928787
 20
411.73682171
 10
145.450445711
 20
411.7742568447
 10
145.0998035669
 20
411.8129039029
  0
LWPOLYLINE
  5
1F0
330
1F
100
AcDbEntity
  8
0
  6
PHANTOM
 62
     8
370
    18
100
AcDbPolyline
 90
        9
 70
   128
 43
0.0
 10
147.2173192008
 20
412.9805824528
 10
147.1333108902
 20
412.9898412488
 10
146.9903225904
 20
413.0056007309
 10
146.7928379409
 20
413.0273667338
 10
146.5470494064
 20
413.0544567477
 10
146.2606641013
 20
413.0860213196
 10
145.9426621204
 20
413.121070689
 10
145.6030149527
 20
413.1585058237
 10
145.2523728086
 20
413.1971528819
  0
LINE
  5
1F1
330
1F
100
AcDbEntity
  8
0
  6
PHANTOM
 62
     8
370
    18
100
AcDbLine
 10
147.2173192008
 20
412.9805824528
 30
0.0
 11
147.0647499591
 21
411.5963334738
 31
0.0
  0
LWPOLYLINE
  5
1F2
330
1F
100
AcDbEntity
  8
0
  6
PHANTOM
 62
     8
370
    18
100
AcDbPolyline
 90
        9
 70
   128
 43
0.0
 10
138.1125621324
 20
411.8129039029
 10
137.7619199883
 20
411.7742568447
 10
137.4222728206
 20
411.73682171
 10
137.1042708397
 20
411.7017723406
 10
136.8178855346
 20
411.6702077687
 10
136.5720970001
 20
411.6431177548
 10
136.3746123506
 20
411.6213517519
 10
136.2316240508
 20
411.6055922698
 10
136.1476157402
 20
411.5963334738
  0
LINE
  5
1F3
330
1F
100
AcDbEntity
  8
0
  6
PHANTOM
 62
     8
370
    18
100
AcDbLine
 10
136.1476157402
 20
411.5963334738
 30
0.0
 11
135.9950464985
 21
412.9805824528
 31
0.0
  0
LWPOLYLINE
  5
1F4
330
1F
100
AcDbEntity
  8
0
  6
PHANTOM
 62
     8
370
    18
100
AcDbPolyline
 90
        9
 70
   128
 43
0.0
 10
137.9599928906
 20
413.1971528819
 10
137.6093507465
 20
413.1585058237
 10
137.2697035788
 20
413.121070689
 10
136.9517015979
 20
413.0860213196
 10
136.6653162929
 20
413.0544567477
 10
136.4195277584
 20
413.0273667338
 10
136.2220431089
 20
413.0056007309
 10
136.0790548091
 20
412.9898412488
 10
135.9950464985
 20
412.9805824528
  0
ARC
  5
1F5
330
1F
100
AcDbEntity
  8
0
  6
PHANTOM
 62
     8
370
    18
100
AcDbCircle
 10
146.6912404492
 20
412.8602550469
 30
0.0
 40
0.5396642822359429
100
AcDbArc
 50
12.8833678924
 51
34.1073306709
  0
ARC
  5
1F6
330
1F
100
AcDbEntity
  8
0
  6
PHANTOM
 62
     8
370
    18
100
AcDbCircle
 10
136.5211252501
 20
412.8602550469
 30
0.0
 40
0.5396642822374573
100
AcDbArc
 50
145.8926693291
 51
167.1166321075
  0
ARC
  5
1F7
330
1F
100
AcDbEntity
  8
0
  6
PHANTOM
 62
     8
370
    18
100
AcDbCircle
 10
145.0897175902
 20
411.7982030078
 30
0.0
 40
1.985322182173405
100
AcDbArc
 50
270.2910793973
 51
354.1640221495
  0
LINE
  5
1F8
330
1F
100
AcDbEntity
  8
0
  6
PHANTOM
 62
     8
370
    18
100
AcDbLine
 10
145.0998035669
 20
409.8129064456
 30
0.0
 11
145.0998035669
 21
411.8129039029
 31
0.0
  0
ARC
  5
1F9
330
1F
100
AcDbEntity
  8
0
  6
PHANTOM
 62
     8
370
    18
100
AcDbCircle
 10
138.1226481091
 20
411.7982030078
 30
0.0
 40
1.985322182173308
100
AcDbArc
 50
185.8359778505
 51
269.7089206027
  0
LINE
  5
1FA
330
1F
100
AcDbEntity
  8
0
  6
PHANTOM
 62
     8
370
    18
100
AcDbLine
 10
138.1125621324
 20
411.8129039029
 30
0.0
 11
138.1125621324
 21
409.8129064456
 31
0.0
  0
LINE
  5
1FB
330
1F
100
AcDbEntity
  8
0
  6
PHANTOM
 62
     8
370
    18
100
AcDbLine
 10
126.9667104695
 20
463.2545530571
 30
0.0
 11
136.074289378
 21
413.16286906
 31
0.0
  0
LINE
  5
1FC
330
1F
100
AcDbEntity
  8
0
  6
PHANTOM
 62
     8
370
    18
100
AcDbLine
 10
127.0530694337
 20
464.8129039029
 30
0.0
 11
126.9667104695
 21
463.2545530571
 31
0.0
  0
LINE
  5
1FD
330
1F
100
AcDbEntity
  8
0
  6
PHANTOM
 62
     8
370
    18
100
AcDbLine
 10
156.2456552298
 20
463.2545530571
 30
0.0
 11
156.1592962656
 21
464.8129039029
 31
0.0
  0
LINE
  5
1FE
330
1F
100
AcDbEntity
  8
0
  6
PHANTOM
 62
     8
370
    18
100
AcDbLine
 10
147.1380763212
 20
413.16286906
 30
0.0
 11
156.2456552298
 21
463.2545530571
 31
0.0
  0
ARC
  5
1FF
330
1F
100
AcDbEntity
  8
0
  6
PHANTOM
 62
     8
370
    18
100
AcDbCircle
 10
155.7988193577
 20
462.9519390439
 30
0.0
 40
0.5396642822395464
100
AcDbArc
 50
12.8833678925
 51
34.1073306708
  0
LINE
  5
200
330
1F
100
AcDbEntity
  8
0
  6
PHANTOM
 62
     8
370
    18
100
AcDbLine
 10
156.3248981094
 20
463.0722664498
 30
0.0
 11
147.2173192008
 21
412.9805824528
 31
0.0
  0
LINE
  5
201
330
1F
100
AcDbEntity
  8
0
  6
PHANTOM
 62
     8
370
    18
100
AcDbLine
 10
135.9950464985
 20
412.9805824528
 30
0.0
 11
126.8874675899
 21
463.0722664498
 31
0.0
  0
ARC
  5
202
330
1F
100
AcDbEntity
  8
0
  6
PHANTOM
 62
     8
370
    18
100
AcDbCircle
 10
127.4135463415
 20
462.9519390439
 30
0.0
 40
0.5396642822379928
100
AcDbArc
 50
145.8926693291
 51
167.1166321075
  0
LINE
  5
203
330
1F
100
AcDbEntity
  8
0
  6
PHANTOM
 62
     8
370
    18
100
AcDbLine
 10
135.8378379036
 20
411.5963360239
 30
0.0
 11
136.1476157402
 21
411.5963334738
 31
0.0
  0
LINE
  5
204
330
1F
100
AcDbEntity
  8
0
  6
PHANTOM
 62
     8
370
    18
100
AcDbLine
 10
129.1952024079
 20
423.9766575431
 30
0.0
 11
135.8378379036
 21
411.5963360239
 31
0.0
  0
ELLIPSE
  5
205
330
1F
100
AcDbEntity
  8
0
  6
PHANTOM
 62
     8
370
    18
100
AcDbEllipse
 10
127.7284882212
 20
436.8634460987
 30
0.0
 11
-1.337940480171056
 21
14.68020861335077
 31
0.0
210
0.0
220
0.0
230
1.0
 40
0.0415051633
 41
3.637298005004861
 42
4.086064532050012
  0
LINE
  5
206
330
1F
100
AcDbEntity
  8
0
  6
PHANTOM
 62
     8
370
    18
100
AcDbLine
 10
126.8874675899
 20
463.0722664498
 30
0.0
 11
129.0064007543
 21
428.3033267866
 31
0.0
  0
LINE
  5
207
330
1F
100
AcDbEntity
  8
0
  6
PHANTOM
 62
     8
370
    18
100
AcDbLine
 10
147.0647499591
 20
411.5963334738
 30
0.0
 11
147.3745277957
 21
411.5963360239
 31
0.0
  0
LINE
  5
208
330
1F
100
AcDbEntity
  8
0
  6
PHANTOM
 62
     8
370
    18
100
AcDbLine
 10
154.205964945
 20
428.3033267866
 30
0.0
 11
156.3248981094
 21
463.0722664498
 31
0.0
  0
ELLIPSE
  5
209
330
1F
100
AcDbEntity
  8
0
  6
PHANTOM
 62
     8
370
    18
100
AcDbEllipse
 10
155.483877478
 20
436.8634460987
 30
0.0
 11
1.337940480171056
 21
14.68020861335071
 31
0.0
210
0.0
220
0.0
230
1.0
 40
0.0415051633
 41
2.197120775129688
 42
2.64588730217503
  0
LINE
  5
20A
330
1F
100
AcDbEntity
  8
0
  6
PHANTOM
 62
     8
370
    18
100
AcDbLine
 10
147.3745277957
 20
411.5963360239
 30
0.0
 11
154.0171632913
 21
423.9766575431
 31
0.0
  0
ARC
  5
20B
330
1F
100
AcDbEntity
  8
0
  6
PHANTOM
 62
     8
370
    18
100
AcDbCircle
 10
137.8128702725
 20
411.798205558
 30
0.0
 40
1.985322182173321
100
AcDbArc
 50
185.8359778505
 51
269.7089206027
  0
ARC
  5
20C
330
1F
100
AcDbEntity
  8
0
  6
PHANTOM
 62
     8
370
    18
100
AcDbCircle
 10
145.3994954268
 20
411.798205558
 30
0.0
 40
1.985322182173321
100
AcDbArc
 50
270.2910793973
 51
354.1640221495
  0
ARC
  5
20D
330
1F
100
AcDbEntity
  8
0
  6
PHANTOM
 62
     8
370
    18
100
AcDbCircle
 10
145.644637222
 20
411.6844297213
 30
0.0
 40
1.732132182120927
100
AcDbArc
 50
331.8530192524
 51
357.0847631745
  0
ARC
  5
20E
330
1F
100
AcDbEntity
  8
0
  6
PHANTOM
 62
     8
370
    18
100
AcDbCircle
 10
152.2872727177
 20
424.0647512405
 30
0.0
 40
1.73213218212141
100
AcDbArc
 50
331.8530192524
 51
357.0847631744
  0
ARC
  5
20F
330
1F
100
AcDbEntity
  8
0
  6
PHANTOM
 62
     8
370
    18
100
AcDbCircle
 10
137.5677284772
 20
411.6844297213
 30
0.0
 40
1.732132182121607
100
AcDbArc
 50
182.9152368256
 51
208.1469807476
  0
ARC
  5
210
330
1F
100
AcDbEntity
  8
0
  6
PHANTOM
 62
     8
370
    18
100
AcDbCircle
 10
130.9250929816
 20
424.0647512405
 30
0.0
 40
1.732132182120499
100
AcDbArc
 50
182.9152368255
 51
208.1469807476
  0
ARC
  5
211
330
1F
100
AcDbEntity
  8
0
  6
PHANTOM
 62
     8
370
    18
100
AcDbCircle
 10
127.027918933
 20
463.4166775958
 30
0.0
 40
0.1732940912660599
100
AcDbArc
 50
185.687591754
 51
249.3164831527
  0
ARC
  5
212
330
1F
100
AcDbEntity
  8
0
  6
PHANTOM
 62
     8
370
    18
100
AcDbCircle
 10
156.1844467662
 20
463.4166775958
 30
0.0
 40
0.1732940912660749
100
AcDbArc
 50
290.6835168473
 51
354.312408246
  0
LWPOLYLINE
  5
213
330
1F
100
AcDbEntity
  8
0
  6
PHANTOM
 62
     8
370
    18
100
AcDbPolyline
 90
        3
 70
   128
 43
0.0
 10
126.8874675899
 20
463.0722664498
 10
126.8585655221
 20
463.1464325123
 10
126.8561177514
 20
463.167178585
  0
LWPOLYLINE
  5
214
330
1F
100
AcDbEntity
  8
0
  6
PHANTOM
 62
     8
370
    18
100
AcDbPolyline
 90
        3
 70
   128
 43
0.0
 10
156.3562479479
 20
463.167178585
 10
156.3538001772
 20
463.1464325123
 10
156.3248981094
 20
463.0722664498
  0
LWPOLYLINE
  5
215
330
1F
100
AcDbEntity
  8
0
  6
PHANTOM
 62
     8
370
    18
100
AcDbPolyline
 90
        3
 70
   128
 43
0.0
 10
129.0064007543
 20
428.3033267866
 10
128.9774986865
 20
428.3774928492
 10
128.9750509157
 20
428.3982389218
  0
LWPOLYLINE
  5
216
330
1F
100
AcDbEntity
  8
0
  6
PHANTOM
 62
     8
370
    18
100
AcDbPolyline
 90
        3
 70
   128
 43
0.0
 10
154.2373147836
 20
428.3982389218
 10
154.2348670128
 20
428.3774928492
 10
154.205964945
 20
428.3033267866
  0
ARC
  5
217
330
1F
100
AcDbEntity
  8
0
  6
PHANTOM
 62
     8
370
    18
100
AcDbCircle
 10
129.7344730327
 20
424.173791714
 30
0.0
 40
0.5741730472090054
100
AcDbArc
 50
179.870411589
 51
200.0802407658
  0
ARC
  5
218
330
1F
100
AcDbEntity
  8
0
  6
PHANTOM
 62
     8
370
    18
100
AcDbCircle
 10
153.4777711223
 20
424.1738230028
 30
0.0
 40
0.5742979457749181
100
AcDbArc
 50
339.9209907205
 51
359.9700755878
  0
LINE
  5
219
330
1F
100
AcDbEntity
  8
0
  6
PHANTOM
 62
     8
370
    18
100
AcDbLine
 10
147.1855539838
 20
464.8131900799
 30
0.0
 11
147.1856063055
 21
464.8129039029
 31
0.0
  0
LINE
  5
21A
330
1F
100
AcDbEntity
  8
0
  6
PHANTOM
 62
     8
370
    18
100
AcDbLine
 10
155.6495790064
 20
464.8129039029
 30
0.0
 11
155.6495620144
 21
464.8132105249
 31
0.0
  0
LINE
  5
21B
330
1F
100
AcDbEntity
  8
0
  6
PHANTOM
 62
     8
370
    18
100
AcDbLine
 10
136.0267593938
 20
464.8129039029
 30
0.0
 11
136.0268117154
 21
464.8131900799
 31
0.0
  0
LINE
  5
21C
330
1F
100
AcDbEntity
  8
0
  6
PHANTOM
 62
     8
370
    18
100
AcDbLine
 10
127.5628036849
 20
464.8132105249
 30
0.0
 11
127.5627866928
 21
464.8129039029
 31
0.0
  0
LINE
  5
21D
330
1F
100
AcDbEntity
  8
0
  6
PHANTOM
 62
     8
370
    18
100
AcDbLine
 10
137.4164212415
 20
464.8131886804
 30
0.0
 11
137.4163691757
 21
464.8129039029
 31
0.0
  0
LINE
  5
21E
330
1F
100
AcDbEntity
  8
0
  6
PHANTOM
 62
     8
370
    18
100
AcDbLine
 10
145.7959965236
 20
464.8129039029
 30
0.0
 11
145.7959444578
 21
464.8131886804
 31
0.0
  0
ENDSEC
  0
SECTION
  2
OBJECTS
  0
DICTIONARY
  5
C
330
0
100
AcDbDictionary
281
     1
  3
ACAD_GROUP
350
D
  3
ACAD_LAYOUT
350
1A
  3
ACAD_MLINESTYLE
350
17
  3
ACAD_PLOTSETTINGS
350
19
  3
ACAD_PLOTSTYLENAME
350
E
  3
ACAD_SCALELIST
350
47
  3
DWGPROPS
350
21F
  0
DICTIONARY
  5
D
102
{ACAD_REACTORS
330
C
102
}
330
C
100
AcDbDictionary
281
     1
  0
DICTIONARY
  5
1A
102
{ACAD_REACTORS
330
C
102
}
330
C
100
AcDbDictionary
281
     1
  3
Layout1
350
1E
  3
Layout2
350
26
  3
Model
350
22
  0
DICTIONARY
  5
17
102
{ACAD_REACTORS
330
C
102
}
330
C
100
AcDbDictionary
281
     1
  3
Standard
350
18
  0
DICTIONARY
  5
19
102
{ACAD_REACTORS
330
C
102
}
330
C
100
AcDbDictionary
281
     1
  0
ACDBDICTIONARYWDFLT
  5
E
102
{ACAD_REACTORS
330
C
102
}
330
C
100
AcDbDictionary
281
     1
  3
Normal
350
F
100
AcDbDictionaryWithDefault
340
F
  0
DICTIONARY
  5
47
102
{ACAD_REACTORS
330
C
102
}
330
C
100
AcDbDictionary
281
     1
  3
A0
350
48
  3
A1
350
49
  3
A2
350
4A
  3
A3
350
4B
  3
A4
350
4C
  3
A5
350
4D
  3
A6
350
4E
  3
A7
350
4F
  3
A8
350
50
  3
A9
350
51
  3
B0
350
52
  3
B1
350
53
  3
B2
350
54
  3
B3
350
55
  3
B4
350
56
  3
B5
350
57
  3
B6
350
58
  0
XRECORD
  5
21F
102
{ACAD_REACTORS
330
C
102
}
330
C
100
AcDbXrecord
280
     1
  1
DWGPROPS COOKIE
  2

  3

  4

  6

  7

  8
Christian
  9

300
=
301
=
302
=
303
=
304
=
305
=
306
=
307
=
308
=
309
=
 40
0.0
 41
2459629.442529896
 42
2459629.442530336
  1

 90
        0
  0
LAYOUT
  5
1E
102
{ACAD_REACTORS
330
1A
102
}
330
1A
100
AcDbPlotSettings
  1

  2
none_device
  4

  6

 40
0.0
 41
0.0
 42
0.0
 43
0.0
 44
0.0
 45
0.0
 46
0.0
 47
0.0
 48
0.0
 49
0.0
140
0.0
141
0.0
142
1.0
143
1.0
 70
   688
 72
     1
 73
     0
 74
     5
  7

 75
    16
147
1.0
148
0.0
149
0.0
100
AcDbLayout
  1
Layout1
 70
     1
 71
     1
 10
0.0
 20
0.0
 11
420.0
 21
297.0
 12
0.0
 22
0.0
 32
0.0
 14
1.0000000000E+20
 24
1.0000000000E+20
 34
1.0000000000E+20
 15
-1.0000000000E+20
 25
-1.0000000000E+20
 35
-1.0000000000E+20
146
0.0
 13
0.0
 23
0.0
 33
0.0
 16
1.0
 26
0.0
 36
0.0
 17
0.0
 27
1.0
 37
0.0
 76
     0
330
1B
  0
LAYOUT
  5
26
102
{ACAD_REACTORS
330
1A
102
}
330
1A
100
AcDbPlotSettings
  1

  2
none_device
  4

  6

 40
0.0
 41
0.0
 42
0.0
 43
0.0
 44
0.0
 45
0.0
 46
0.0
 47
0.0
 48
0.0
 49
0.0
140
0.0
141
0.0
142
1.0
143
1.0
 70
   688
 72
     1
 73
     0
 74
     5
  7

 75
    16
147
1.0
148
0.0
149
0.0
100
AcDbLayout
  1
Layout2
 70
     1
 71
     2
 10
0.0
 20
0.0
 11
0.0
 21
0.0
 12
0.0
 22
0.0
 32
0.0
 14
0.0
 24
0.0
 34
0.0
 15
0.0
 25
0.0
 35
0.0
146
0.0
 13
0.0
 23
0.0
 33
0.0
 16
1.0
 26
0.0
 36
0.0
 17
0.0
 27
1.0
 37
0.0
 76
     0
330
23
  0
LAYOUT
  5
22
102
{ACAD_REACTORS
330
1A
102
}
330
1A
100
AcDbPlotSettings
  1

  2
none_device
  4
Letter_(8.50_x_11.00_Inches)
  6

 40
6.35
 41
6.35
 42
6.35000508
 43
6.35000508
 44
215.9
 45
279.4
 46
0.0
 47
0.0
 48
0.0
 49
0.0
140
0.0
141
0.0
142
1.0
143
1.0
 70
  1712
 72
     1
 73
     0
 74
     0
  7

 75
     0
147
1.0
148
0.0
149
0.0
100
AcDbLayout
  1
Model
 70
     1
 71
     0
 10
0.0
 20
0.0
 11
500.0
 21
500.0
 12
0.0
 22
0.0
 32
0.0
 14
0.0
 24
0.0
 34
0.0
 15
500.0
 25
500.0
 35
0.0
146
0.0
 13
0.0
 23
0.0
 33
0.0
 16
1.0
 26
0.0
 36
0.0
 17
0.0
 27
1.0
 37
0.0
 76
     0
330
1F
331
29
  0
MLINESTYLE
  5
18
102
{ACAD_REACTORS
330
17
102
}
330
17
100
AcDbMlineStyle
  2
Standard
 70
     0
  3

 62
   256
 51
90.0
 52
90.0
 71
     2
 49
0.5
 62
   256
  6
BYLAYER
 49
-0.5
 62
   256
  6
BYLAYER
  0
ACDBPLACEHOLDER
  5
F
102
{ACAD_REACTORS
330
E
102
}
330
E
  0
SCALE
  5
48
102
{ACAD_REACTORS
330
47
102
}
330
47
100
AcDbScale
 70
     0
300
1:1
140
1.0
141
1.0
290
     1
  0
SCALE
  5
49
102
{ACAD_REACTORS
330
47
102
}
330
47
100
AcDbScale
 70
     0
300
1:2
140
1.0
141
2.0
290
     0
  0
SCALE
  5
4A
102
{ACAD_REACTORS
330
47
102
}
330
47
100
AcDbScale
 70
     0
300
1:4
140
1.0
141
4.0
290
     0
  0
SCALE
  5
4B
102
{ACAD_REACTORS
330
47
102
}
330
47
100
AcDbScale
 70
     0
300
1:5
140
1.0
141
5.0
290
     0
  0
SCALE
  5
4C
102
{ACAD_REACTORS
330
47
102
}
330
47
100
AcDbScale
 70
     0
300
1:8
140
1.0
141
8.0
290
     0
  0
SCALE
  5
4D
102
{ACAD_REACTORS
330
47
102
}
330
47
100
AcDbScale
 70
     0
300
1:10
140
1.0
141
10.0
290
     0
  0
SCALE
  5
4E
102
{ACAD_REACTORS
330
47
102
}
330
47
100
AcDbScale
 70
     0
300
1:16
140
1.0
141
16.0
290
     0
  0
SCALE
  5
4F
102
{ACAD_REACTORS
330
47
102
}
330
47
100
AcDbScale
 70
     0
300
1:20
140
1.0
141
20.0
290
     0
  0
SCALE
  5
50
102
{ACAD_REACTORS
330
47
102
}
330
47
100
AcDbScale
 70
     0
300
1:30
140
1.0
141
30.0
290
     0
  0
SCALE
  5
51
102
{ACAD_REACTORS
330
47
102
}
330
47
100
AcDbScale
 70
     0
300
1:40
140
1.0
141
40.0
290
     0
  0
SCALE
  5
52
102
{ACAD_REACTORS
330
47
102
}
330
47
100
AcDbScale
 70
     0
300
1:50
140
1.0
141
50.0
290
     0
  0
SCALE
  5
53
102
{ACAD_REACTORS
330
47
102
}
330
47
100
AcDbScale
 70
     0
300
1:100
140
1.0
141
100.0
290
     0
  0
SCALE
  5
54
102
{ACAD_REACTORS
330
47
102
}
330
47
100
AcDbScale
 70
     0
300
2:1
140
2.0
141
1.0
290
     0
  0
SCALE
  5
55
102
{ACAD_REACTORS
330
47
102
}
330
47
100
AcDbScale
 70
     0
300
4:1
140
4.0
141
1.0
290
     0
  0
SCALE
  5
56
102
{ACAD_REACTORS
330
47
102
}
330
47
100
AcDbScale
 70
     0
300
8:1
140
8.0
141
1.0
290
     0
  0
SCALE
  5
57
102
{ACAD_REACTORS
330
47
102
}
330
47
100
AcDbScale
 70
     0
300
10:1
140
10.0
141
1.0
290
     0
  0
SCALE
  5
58
102
{ACAD_REACTORS
330
47
102
}
330
47
100
AcDbScale
 70
     0
300
100:1
140
100.0
141
1.0
290
     0
  0
ENDSEC
  0
EOF
