  0
SECTION
  2
HEADER
  9
$ACADVER
  1
AC1015
  9
$ACADMAINTVER
 70
     6
  9
$DWGCODEPAGE
  3
ANSI_1252
  9
$INSBASE
 10
0.0
 20
0.0
 30
0.0
  9
$EXTMIN
 10
0.0
 20
0.0
 30
0.0
  9
$EXTMAX
 10
297.0
 20
210.0
 30
0.0
  9
$LIMMIN
 10
0.0
 20
0.0
  9
$LIMMAX
 10
297.0
 20
210.0
  9
$ORTHOMODE
 70
     0
  9
$REGENMODE
 70
     1
  9
$FILLMODE
 70
     1
  9
$QTEXTMODE
 70
     0
  9
$MIRRTEXT
 70
     1
  9
$LTSCALE
 40
1.0
  9
$ATTMODE
 70
     1
  9
$TEXTSIZE
 40
3.5
  9
$TRACEWID
 40
1.0
  9
$TEXTSTYLE
  7
Standard
  9
$CLAYER
  8
0
  9
$CELTYPE
  6
ByLayer
  9
$CECOLOR
 62
   256
  9
$CELTSCALE
 40
1.0
  9
$DISPSILH
 70
     0
  9
$DIMSCALE
 40
1.0
  9
$DIMASZ
 40
3.302
  9
$DIMEXO
 40
1.0
  9
$DIMDLI
 40
3.75
  9
$DIMRND
 40
0.0
  9
$DIMDLE
 40
0.0
  9
$DIMEXE
 40
1.0
  9
$DIMTP
 40
0.0
  9
$DIMTM
 40
0.0
  9
$DIMTXT
 40
3.5
  9
$DIMCEN
 40
2.5
  9
$DIMTSZ
 40
0.0
  9
$DIMTOL
 70
     0
  9
$DIMLIM
 70
     0
  9
$DIMTIH
 70
     1
  9
$DIMTOH
 70
     1
  9
$DIMSE1
 70
     0
  9
$DIMSE2
 70
     0
  9
$DIMTAD
 70
     1
  9
$DIMZIN
 70
     1
  9
$DIMBLK
  1

  9
$DIMASO
 70
     1
  9
$DIMSHO
 70
     1
  9
$DIMPOST
  1

  9
$DIMAPOST
  1

  9
$DIMALT
 70
     0
  9
$DIMALTD
 70
     3
  9
$DIMALTF
 40
0.0393700787
  9
$DIMLFAC
 40
2.0
  9
$DIMTOFL
 70
     1
  9
$DIMTVP
 40
0.0
  9
$DIMTIX
 70
     0
  9
$DIMSOXD
 70
     0
  9
$DIMSAH
 70
     0
  9
$DIMBLK1
  1

  9
$DIMBLK2
  1

  9
$DIMSTYLE
  2
ISO-25
  9
$DIMCLRD
 70
     0
  9
$DIMCLRE
 70
     0
  9
$DIMCLRT
 70
     0
  9
$DIMTFAC
 40
1.0
  9
$DIMGAP
 40
1.524
  9
$DIMJUST
 70
     0
  9
$DIMSD1
 70
     0
  9
$DIMSD2
 70
     0
  9
$DIMTOLJ
 70
     0
  9
$DIMTZIN
 70
     1
  9
$DIMALTZ
 70
     0
  9
$DIMALTTZ
 70
     0
  9
$DIMUPT
 70
     0
  9
$DIMDEC
 70
     2
  9
$DIMTDEC
 70
     2
  9
$DIMALTU
 70
     2
  9
$DIMALTTD
 70
     3
  9
$DIMTXSTY
  7
Standard
  9
$DIMAUNIT
 70
     0
  9
$DIMADEC
 70
     2
  9
$DIMALTRND
 40
0.0
  9
$DIMAZIN
 70
     0
  9
$DIMDSEP
 70
    44
  9
$DIMATFIT
 70
     3
  9
$DIMFRAC
 70
     0
  9
$DIMLDRBLK
  1

  9
$DIMLUNIT
 70
     2
  9
$DIMLWD
 70
    -2
  9
$DIMLWE
 70
    -2
  9
$DIMTMOVE
 70
     0
  9
$LUNITS
 70
     2
  9
$LUPREC
 70
     2
  9
$SKETCHINC
 40
1.0
  9
$FILLETRAD
 40
10.0
  9
$AUNITS
 70
     0
  9
$AUPREC
 70
     2
  9
$MENU
  1
.
  9
$ELEVATION
 40
0.0
  9
$PELEVATION
 40
0.0
  9
$THICKNESS
 40
0.0
  9
$LIMCHECK
 70
     0
  9
$CHAMFERA
 40
0.0
  9
$CHAMFERB
 40
0.0
  9
$CHAMFERC
 40
0.0
  9
$CHAMFERD
 40
0.0
  9
$SKPOLY
 70
     0
  9
$TDCREATE
 40
2459019.772095533
  9
$TDUCREATE
 40
2459019.730428866
  9
$TDUPDATE
 40
2459019.772096018
  9
$TDUUPDATE
 40
2459019.730429352
  9
$TDINDWG
 40
0.0000000116
  9
$TDUSRTIMER
 40
0.0000000116
  9
$USRTIMER
 70
     1
  9
$ANGBASE
 50
0.0
  9
$ANGDIR
 70
     0
  9
$PDMODE
 70
     0
  9
$PDSIZE
 40
-1.0
  9
$PLINEWID
 40
0.0
  9
$SPLFRAME
 70
     0
  9
$SPLINETYPE
 70
     6
  9
$SPLINESEGS
 70
     8
  9
$HANDSEED
  5
F8
  9
$SURFTAB1
 70
     6
  9
$SURFTAB2
 70
     6
  9
$SURFTYPE
 70
     6
  9
$SURFU
 70
     6
  9
$SURFV
 70
     6
  9
$UCSBASE
  2

  9
$UCSNAME
  2

  9
$UCSORG
 10
0.0
 20
0.0
 30
0.0
  9
$UCSXDIR
 10
1.0
 20
0.0
 30
0.0
  9
$UCSYDIR
 10
0.0
 20
1.0
 30
0.0
  9
$UCSORTHOREF
  2

  9
$UCSORTHOVIEW
 70
     0
  9
$UCSORGTOP
 10
0.0
 20
0.0
 30
0.0
  9
$UCSORGBOTTOM
 10
0.0
 20
0.0
 30
0.0
  9
$UCSORGLEFT
 10
0.0
 20
0.0
 30
0.0
  9
$UCSORGRIGHT
 10
0.0
 20
0.0
 30
0.0
  9
$UCSORGFRONT
 10
0.0
 20
0.0
 30
0.0
  9
$UCSORGBACK
 10
0.0
 20
0.0
 30
0.0
  9
$PUCSBASE
  2

  9
$PUCSNAME
  2

  9
$PUCSORG
 10
0.0
 20
0.0
 30
0.0
  9
$PUCSXDIR
 10
1.0
 20
0.0
 30
0.0
  9
$PUCSYDIR
 10
0.0
 20
1.0
 30
0.0
  9
$PUCSORTHOREF
  2

  9
$PUCSORTHOVIEW
 70
     0
  9
$PUCSORGTOP
 10
0.0
 20
0.0
 30
0.0
  9
$PUCSORGBOTTOM
 10
0.0
 20
0.0
 30
0.0
  9
$PUCSORGLEFT
 10
0.0
 20
0.0
 30
0.0
  9
$PUCSORGRIGHT
 10
0.0
 20
0.0
 30
0.0
  9
$PUCSORGFRONT
 10
0.0
 20
0.0
 30
0.0
  9
$PUCSORGBACK
 10
0.0
 20
0.0
 30
0.0
  9
$USERI1
 70
     0
  9
$USERI2
 70
     0
  9
$USERI3
 70
     0
  9
$USERI4
 70
     0
  9
$USERI5
 70
     0
  9
$USERR1
 40
0.0
  9
$USERR2
 40
0.0
  9
$USERR3
 40
0.0
  9
$USERR4
 40
0.0
  9
$USERR5
 40
0.0
  9
$WORLDVIEW
 70
     1
  9
$SHADEDGE
 70
     3
  9
$SHADEDIF
 70
    70
  9
$TILEMODE
 70
     1
  9
$MAXACTVP
 70
    64
  9
$PINSBASE
 10
0.0
 20
0.0
 30
0.0
  9
$PLIMCHECK
 70
     0
  9
$PEXTMIN
 10
1.0000000000E+20
 20
1.0000000000E+20
 30
1.0000000000E+20
  9
$PEXTMAX
 10
-1.0000000000E+20
 20
-1.0000000000E+20
 30
-1.0000000000E+20
  9
$PLIMMIN
 10
0.0
 20
0.0
  9
$PLIMMAX
 10
420.0
 20
297.0
  9
$UNITMODE
 70
     0
  9
$VISRETAIN
 70
     1
  9
$PLINEGEN
 70
     0
  9
$PSLTSCALE
 70
     1
  9
$TREEDEPTH
 70
  3020
  9
$CMLSTYLE
  2
Standard
  9
$CMLJUST
 70
     0
  9
$CMLSCALE
 40
20.0
  9
$PROXYGRAPHICS
 70
     1
  9
$MEASUREMENT
 70
     1
  9
$CELWEIGHT
370
    -1
  9
$ENDCAPS
280
     0
  9
$JOINSTYLE
280
     0
  9
$LWDISPLAY
290
     1
  9
$INSUNITS
 70
     4
  9
$HYPERLINKBASE
  1

  9
$STYLESHEET
  1

  9
$XEDIT
290
     1
  9
$CEPSNTYPE
380
     0
  9
$PSTYLEMODE
290
     1
  9
$FINGERPRINTGUID
  2
{df20dfba-0bad-4932-afd8-922f5e697f6c}
  9
$VERSIONGUID
  2
{FAEB1C32-E019-11D5-929B-00C0DF256EC4}
  9
$EXTNAMES
290
     1
  9
$PSVPSCALE
 40
0.0
  9
$OLESTARTUP
290
     0
  0
ENDSEC
  0
SECTION
  2
CLASSES
  0
CLASS
  1
ACDBDICTIONARYWDFLT
  2
AcDbDictionaryWithDefault
  3
ObjectDBX Classes
 90
        0
280
     0
281
     0
  0
CLASS
  1
VISUALSTYLE
  2
AcDbVisualStyle
  3
ObjectDBX Classes
 90
     4095
280
     0
281
     0
  0
CLASS
  1
MATERIAL
  2
AcDbMaterial
  3
ObjectDBX Classes
 90
     1153
280
     0
281
     0
  0
CLASS
  1
SCALE
  2
AcDbScale
  3
ObjectDBX Classes
 90
     1153
280
     0
281
     0
  0
CLASS
  1
TABLESTYLE
  2
AcDbTableStyle
  3
ObjectDBX Classes
 90
     4095
280
     0
281
     0
  0
CLASS
  1
MLEADERSTYLE
  2
AcDbMLeaderStyle
  3
ACDB_MLEADERSTYLE_CLASS
 90
     4095
280
     0
281
     0
  0
CLASS
  1
SUN
  2
AcDbSun
  3
SCENEOE
 90
     1153
280
     0
281
     0
  0
CLASS
  1
ACDBPLACEHOLDER
  2
AcDbPlaceHolder
  3
ObjectDBX Classes
 90
        0
280
     0
281
     0
  0
CLASS
  1
LAYOUT
  2
AcDbLayout
  3
ObjectDBX Classes
 90
        0
280
     0
281
     0
  0
ENDSEC
  0
SECTION
  2
TABLES
  0
TABLE
  2
VPORT
  5
8
330
0
100
AcDbSymbolTable
 70
     1
  0
VPORT
  5
29
330
8
100
AcDbSymbolTableRecord
100
AcDbViewportTableRecord
  2
*Active
 70
     0
 10
0.0
 20
0.0
 11
1.0
 21
1.0
 12
148.5
 22
105.0
 13
0.0
 23
0.0
 14
10.0
 24
10.0
 15
10.0
 25
10.0
 16
0.0
 26
0.0
 36
1.0
 17
0.0
 27
0.0
 37
0.0
 40
210.0
 41
1.4142857143
 42
50.0
 43
0.0
 44
0.0
 50
0.0
 51
0.0
 71
     0
 72
  2000
 73
     1
 74
     3
 75
     0
 76
     0
 77
     0
 78
     0
281
     0
 65
     1
110
0.0
120
0.0
130
0.0
111
1.0
121
0.0
131
0.0
112
0.0
122
1.0
132
0.0
 79
     0
146
0.0
  0
ENDTAB
  0
TABLE
  2
LTYPE
  5
5
330
0
100
AcDbSymbolTable
 70
     6
  0
LTYPE
  5
14
330
5
100
AcDbSymbolTableRecord
100
AcDbLinetypeTableRecord
  2
ByBlock
 70
     0
  3

 72
    65
 73
     0
 40
0.0
  0
LTYPE
  5
15
330
5
100
AcDbSymbolTableRecord
100
AcDbLinetypeTableRecord
  2
ByLayer
 70
     0
  3

 72
    65
 73
     0
 40
0.0
  0
LTYPE
  5
16
330
5
100
AcDbSymbolTableRecord
100
AcDbLinetypeTableRecord
  2
Continuous
 70
     0
  3
Solid line
 72
    65
 73
     0
 40
0.0
  0
LTYPE
  5
6E
330
5
100
AcDbSymbolTableRecord
100
AcDbLinetypeTableRecord
  2
HIDDEN
 70
     0
  3
Hidden __ __ __ __ __ __ __ __ __ __ __ __ __ __
 72
    65
 73
     2
 40
1.905
 49
1.27
 74
     0
 49
-0.635
 74
     0
  0
LTYPE
  5
6F
330
5
100
AcDbSymbolTableRecord
100
AcDbLinetypeTableRecord
  2
PHANTOM
 70
     0
  3
Phantom ______  __  __  ______  __  __  ______
 72
    65
 73
     6
 40
12.7
 49
6.35
 74
     0
 49
-1.27
 74
     0
 49
1.27
 74
     0
 49
-1.27
 74
     0
 49
1.27
 74
     0
 49
-1.27
 74
     0
  0
LTYPE
  5
70
330
5
100
AcDbSymbolTableRecord
100
AcDbLinetypeTableRecord
  2
CENTER
 70
     0
  3
Center ____ _ ____ _ ____ _ ____ _ ____ _ ____
 72
    65
 73
     4
 40
10.16
 49
6.35
 74
     0
 49
-1.27
 74
     0
 49
1.27
 74
     0
 49
-1.27
 74
     0
  0
LTYPE
  5
71
330
5
100
AcDbSymbolTableRecord
100
AcDbLinetypeTableRecord
  2
CENTERX2
 70
     0
  3
Center (2x) ________  __  ________  __  _____
 72
    65
 73
     4
 40
20.32
 49
12.7
 74
     0
 49
-2.54
 74
     0
 49
2.54
 74
     0
 49
-2.54
 74
     0
  0
LTYPE
  5
72
330
5
100
AcDbSymbolTableRecord
100
AcDbLinetypeTableRecord
  2
DOT2
 70
     0
  3
Dot (.5x) ........................................
 72
    65
 73
     2
 40
0.635
 49
0.0
 74
     0
 49
-0.635
 74
     0
  0
ENDTAB
  0
TABLE
  2
LAYER
  5
2
330
0
100
AcDbSymbolTable
 70
     1
  0
LAYER
  5
10
330
2
100
AcDbSymbolTableRecord
100
AcDbLayerTableRecord
  2
0
 70
     0
 62
     7
  6
Continuous
370
    -3
390
F
  0
ENDTAB
  0
TABLE
  2
STYLE
  5
3
330
0
100
AcDbSymbolTable
 70
     1
  0
STYLE
  5
11
330
3
100
AcDbSymbolTableRecord
100
AcDbTextStyleTableRecord
  2
Standard
 70
     0
 40
0.0
 41
1.0
 50
0.0
 71
     0
 42
3.5
  3
txt
  4

  0
ENDTAB
  0
TABLE
  2
VIEW
  5
6
330
0
100
AcDbSymbolTable
 70
     0
  0
ENDTAB
  0
TABLE
  2
UCS
  5
7
330
0
100
AcDbSymbolTable
 70
     0
  0
ENDTAB
  0
TABLE
  2
APPID
  5
9
330
0
100
AcDbSymbolTable
 70
     1
  0
APPID
  5
12
330
9
100
AcDbSymbolTableRecord
100
AcDbRegAppTableRecord
  2
ACAD
 70
     0
  0
ENDTAB
  0
TABLE
  2
DIMSTYLE
  5
A
330
0
100
AcDbSymbolTable
 70
     1
100
AcDbDimStyleTable
  0
DIMSTYLE
105
27
330
A
100
AcDbSymbolTableRecord
100
AcDbDimStyleTableRecord
  2
ISO-25
 70
     0
 41
2.5
 42
0.625
 43
3.75
 44
1.25
 73
     0
 74
     0
 77
     1
 78
     8
140
2.5
141
2.5
143
0.0393700787
147
0.625
171
     3
172
     1
178
     0
271
     2
272
     2
274
     3
278
    44
283
     0
284
     8
340
11
  0
ENDTAB
  0
TABLE
  2
BLOCK_RECORD
  5
1
330
0
100
AcDbSymbolTable
 70
     1
  0
BLOCK_RECORD
  5
1F
330
1
100
AcDbSymbolTableRecord
100
AcDbBlockTableRecord
  2
*Model_Space
340
22
  0
BLOCK_RECORD
  5
1B
330
1
100
AcDbSymbolTableRecord
100
AcDbBlockTableRecord
  2
*Paper_Space
340
1E
  0
BLOCK_RECORD
  5
23
330
1
100
AcDbSymbolTableRecord
100
AcDbBlockTableRecord
  2
*Paper_Space0
340
26
  0
ENDTAB
  0
ENDSEC
  0
SECTION
  2
BLOCKS
  0
BLOCK
  5
20
330
1F
100
AcDbEntity
  8
0
100
AcDbBlockBegin
  2
*Model_Space
 70
     0
 10
0.0
 20
0.0
 30
0.0
  3
*Model_Space
  1

  0
ENDBLK
  5
21
330
1F
100
AcDbEntity
  8
0
100
AcDbBlockEnd
  0
BLOCK
  5
1C
330
1B
100
AcDbEntity
 67
     1
  8
0
100
AcDbBlockBegin
  2
*Paper_Space
 70
     0
 10
0.0
 20
0.0
 30
0.0
  3
*Paper_Space
  1

  0
ENDBLK
  5
1D
330
1B
100
AcDbEntity
 67
     1
  8
0
100
AcDbBlockEnd
  0
BLOCK
  5
24
330
23
100
AcDbEntity
  8
0
100
AcDbBlockBegin
  2
*Paper_Space0
 70
     0
 10
0.0
 20
0.0
 30
0.0
  3
*Paper_Space0
  1

  0
ENDBLK
  5
25
330
23
100
AcDbEntity
  8
0
100
AcDbBlockEnd
  0
ENDSEC
  0
SECTION
  2
ENTITIES
  0
SPLINE
  5
73
330
1F
100
AcDbEntity
  8
0
  6
Continuous
 62
     7
370
    25
100
AcDbSpline
210
0.0
220
0.0
230
1.0
 70
     8
 71
     3
 72
    11
 73
     7
 74
     0
 42
0.00000001
 43
0.00000001
 40
0.0
 40
0.0
 40
0.0
 40
0.0
 40
0.2456551916398738
 40
0.4929945672417504
 40
0.7455999081485013
 40
1.0
 40
1.0
 40
1.0
 40
1.0
 10
58.7972359049315
 20
73.92501931585757
 30
0.0
 10
58.78104633505183
 20
74.24048930201249
 30
0.0
 10
58.74855620144877
 20
74.87359210054895
 30
0.0
 10
58.66936230196227
 20
75.85506409371541
 30
0.0
 10
58.56857224288141
 20
76.85755912434743
 30
0.0
 10
58.48102137026895
 20
77.53382577833048
 30
0.0
 10
58.43709097308737
 20
77.87315606509571
 30
0.0
  0
LINE
  5
74
330
1F
100
AcDbEntity
  8
0
  6
Continuous
 62
     7
370
    25
100
AcDbLine
 10
58.4370909731
 20
77.8731560651
 30
0.0
 11
60.4343094783
 21
77.8731560651
 31
0.0
  0
SPLINE
  5
75
330
1F
100
AcDbEntity
  8
0
  6
Continuous
 62
     7
370
    25
100
AcDbSpline
210
0.0
220
0.0
230
1.0
 70
     8
 71
     3
 72
    11
 73
     7
 74
     0
 42
0.00000001
 43
0.00000001
 40
0.0
 40
0.0
 40
0.0
 40
0.0
 40
0.2459140475484698
 40
0.493391145373505
 40
0.7458306402717674
 40
1.0
 40
1.0
 40
1.0
 40
1.0
 10
60.43430947829552
 20
77.8731560650957
 30
0.0
 10
60.47432502489177
 20
77.55247111420645
 30
0.0
 10
60.55461046024893
 20
76.90906291202917
 30
0.0
 10
60.65001137529177
 20
75.93973782296753
 30
0.0
 10
60.72765185732128
 20
74.96820934192972
 30
0.0
 10
60.76067030749979
 20
74.33106558555649
 30
0.0
 10
60.77723590493151
 20
74.01140591294453
 30
0.0
  0
LINE
  5
76
330
1F
100
AcDbEntity
  8
0
  6
Continuous
 62
     7
370
    25
100
AcDbLine
 10
60.7772359049
 20
74.0114059129
 30
0.0
 11
60.7772359049
 21
65.3731560651
 31
0.0
  0
LINE
  5
77
330
1F
100
AcDbEntity
  8
0
  6
Continuous
 62
     7
370
    25
100
AcDbLine
 10
58.7972359049
 20
65.3731560651
 30
0.0
 11
60.7772359049
 21
65.3731560651
 31
0.0
  0
LINE
  5
78
330
1F
100
AcDbEntity
  8
0
  6
Continuous
 62
     7
370
    25
100
AcDbLine
 10
58.7972359049
 20
65.3731560651
 30
0.0
 11
58.7972359049
 21
73.9250193159
 31
0.0
  0
LINE
  5
79
330
1F
100
AcDbEntity
  8
0
  6
Continuous
 62
     7
370
    25
100
AcDbLine
 10
62.7972359049
 20
73.9250193159
 30
0.0
 11
62.7972359049
 21
65.3731560651
 31
0.0
  0
LINE
  5
7A
330
1F
100
AcDbEntity
  8
0
  6
Continuous
 62
     7
370
    25
100
AcDbLine
 10
60.8172359049
 20
65.3731560651
 30
0.0
 11
62.7972359049
 21
65.3731560651
 31
0.0
  0
LINE
  5
7B
330
1F
100
AcDbEntity
  8
0
  6
Continuous
 62
     7
370
    25
100
AcDbLine
 10
60.8172359049
 20
65.3731560651
 30
0.0
 11
60.8172359049
 21
74.0114059129
 31
0.0
  0
LINE
  5
7C
330
1F
100
AcDbEntity
  8
0
  6
Continuous
 62
     7
370
    25
100
AcDbLine
 10
61.1601623316
 20
77.8731560651
 30
0.0
 11
63.1573808368
 21
77.8731560651
 31
0.0
  0
SPLINE
  5
7D
330
1F
100
AcDbEntity
  8
0
  6
Continuous
 62
     7
370
    25
100
AcDbSpline
210
0.0
220
0.0
230
1.0
 70
     8
 71
     3
 72
    11
 73
     7
 74
     0
 42
0.00000001
 43
0.00000001
 40
0.0
 40
0.0
 40
0.0
 40
0.0
 40
0.2456995464098362
 40
0.4930390445634696
 40
0.7456054136589423
 40
1.0
 40
1.0
 40
1.0
 40
1.0
 10
63.15738083677562
 20
77.87315606509577
 30
0.0
 10
63.11488607790622
 20
77.54544700642849
 30
0.0
 10
63.02961292368973
 20
76.88784155480668
 30
0.0
 10
62.92890678573664
 20
75.89669494595337
 30
0.0
 10
62.84764726571791
 20
74.90301614926334
 30
0.0
 10
62.81408004222403
 20
74.2518010705372
 30
0.0
 10
62.79723590493148
 20
73.9250193158576
 30
0.0
  0
SPLINE
  5
7E
330
1F
100
AcDbEntity
  8
0
  6
Continuous
 62
     7
370
    25
100
AcDbSpline
210
0.0
220
0.0
230
1.0
 70
     8
 71
     3
 72
    10
 73
     6
 74
     0
 42
0.00000001
 43
0.00000001
 40
0.0
 40
0.0
 40
0.0
 40
0.0
 40
0.4931516692301805
 40
0.7457245156354477
 40
1.0
 40
1.0
 40
1.0
 40
1.0
 10
60.81723590493148
 20
74.01140591294455
 30
0.0
 10
60.85323424506989
 20
74.63583523365646
 30
0.0
 10
60.90766951607953
 20
75.58007263928737
 30
0.0
 10
61.03695176100197
 20
76.88133840758067
 30
0.0
 10
61.11900026714852
 20
77.5418106121599
 30
0.0
 10
61.1601623315675
 20
77.87315606509577
 30
0.0
  0
ARC
  5
7F
330
1F
100
AcDbEntity
  8
0
  6
Continuous
 62
     7
370
    25
100
AcDbCircle
 10
60.7972359049
 20
128.3730976368
 30
0.0
 40
17.00003155741729
100
AcDbArc
 50
354.4381397102
 51
185.5618602898
  0
SPLINE
  5
80
330
1F
100
AcDbEntity
  8
0
  6
Continuous
 62
     7
370
    25
100
AcDbSpline
210
0.0
220
0.0
230
1.0
 70
     8
 71
     3
 72
    21
 73
    17
 74
     0
 42
0.00000001
 43
0.00000001
 40
0.0
 40
0.0
 40
0.0
 40
0.0
 40
0.0692998298622456
 40
0.1390291279495518
 40
0.2092948728608217
 40
0.280085073879391
 40
0.351296635763275
 40
0.4227616469871747
 40
0.4942717839207008
 40
0.5656012802304804
 40
0.6398932781541234
 40
0.7135242472948616
 40
0.7863377791767827
 40
0.8582753025867355
 40
0.9294129181545496
 40
1.0
 40
1.0
 40
1.0
 40
1.0
 10
63.15738083677562
 20
77.87315606509577
 30
0.0
 10
63.34149013771537
 20
79.0407096470385
 30
0.0
 10
63.71084971057341
 20
81.38305242990738
 30
0.0
 10
64.55615508088434
 20
84.85335586834297
 30
0.0
 10
65.56517528849834
 20
88.30324416474298
 30
0.0
 10
66.72298852666634
 20
91.73306159817525
 30
0.0
 10
67.9842627001072
 20
95.14732314399791
 30
0.0
 10
69.31211068663737
 20
98.54927121001363
 30
0.0
 10
70.66749496550251
 20
101.9423805022056
 30
0.0
 10
72.0331149008466
 20
105.3833155151962
 30
0.0
 10
73.36780970022225
 20
108.8753392665978
 30
0.0
 10
74.62418399600736
 20
112.4234060460672
 30
0.0
 10
75.73927991696601
 20
115.9773478124555
 30
0.0
 10
76.66014592163101
 20
119.5421509111615
 30
0.0
 10
77.3717096511838
 20
123.1201053412298
 30
0.0
 10
77.6023576302274
 20
125.5267833312221
 30
0.0
 10
77.71723364034696
 20
126.725447920781
 30
0.0
  0
ARC
  5
81
330
1F
100
AcDbEntity
  8
0
  6
Continuous
 62
     7
370
    25
100
AcDbCircle
 10
60.7972359049
 20
128.3730976368
 30
0.0
 40
15.02071059559947
100
AcDbArc
 50
354.3442037501
 51
185.6557962499
  0
SPLINE
  5
82
330
1F
100
AcDbEntity
  8
0
  6
Continuous
 62
     7
370
    25
100
AcDbSpline
210
0.0
220
0.0
230
1.0
 70
     8
 71
     3
 72
    21
 73
    17
 74
     0
 42
0.00000001
 43
0.00000001
 40
0.0
 40
0.0
 40
0.0
 40
0.0
 40
0.0692998298622455
 40
0.1390291279495517
 40
0.2092948728608216
 40
0.2800850738793906
 40
0.3512966357632751
 40
0.4227616469871748
 40
0.4942717839207006
 40
0.5656012802304802
 40
0.6398932781541232
 40
0.7135242472948615
 40
0.7863377791767829
 40
0.8582753025867357
 40
0.9294129181545503
 40
1.0
 40
1.0
 40
1.0
 40
1.0
 10
58.43709097308737
 20
77.87315606509571
 30
0.0
 10
58.25298167214763
 20
79.04070964703845
 30
0.0
 10
57.88362209928958
 20
81.38305242990734
 30
0.0
 10
57.03831672897866
 20
84.85335586834292
 30
0.0
 10
56.02929652136466
 20
88.30324416474294
 30
0.0
 10
54.87148328319665
 20
91.73306159817521
 30
0.0
 10
53.6102091097558
 20
95.14732314399787
 30
0.0
 10
52.28236112322563
 20
98.54927121001359
 30
0.0
 10
50.92697684436045
 20
101.9423805022056
 30
0.0
 10
49.5613569090164
 20
105.3833155151962
 30
0.0
 10
48.22666210964076
 20
108.8753392665977
 30
0.0
 10
46.97028781385563
 20
112.4234060460672
 30
0.0
 10
45.85519189289699
 20
115.9773478124554
 30
0.0
 10
44.93432588823199
 20
119.5421509111615
 30
0.0
 10
44.2227621586792
 20
123.1201053412298
 30
0.0
 10
43.99211417963559
 20
125.5267833312221
 30
0.0
 10
43.87723816951603
 20
126.725447920781
 30
0.0
  0
SPLINE
  5
83
330
1F
100
AcDbEntity
  8
0
  6
Continuous
 62
     7
370
    25
100
AcDbSpline
210
0.0
220
0.0
230
1.0
 70
     8
 71
     3
 72
    21
 73
    17
 74
     0
 42
0.00000001
 43
0.00000001
 40
0.0
 40
0.0
 40
0.0
 40
0.0
 40
0.072088633296323
 40
0.1442059536819376
 40
0.2164407016547453
 40
0.2887580543012976
 40
0.36106690167231
 40
0.4332262901242869
 40
0.5050431604442767
 40
0.5762844843150826
 40
0.6500479105807861
 40
0.7226816615204957
 40
0.793997680632853
 40
0.863911858682672
 40
0.9324976236431275
 40
1.0
 40
1.0
 40
1.0
 40
1.0
 10
60.43430947829552
 20
77.87315606509571
 30
0.0
 10
60.24822315781784
 20
79.09266278917306
 30
0.0
 10
59.87597646531444
 20
81.53216153017749
 30
0.0
 10
59.01269565299974
 20
85.13624245427292
 30
0.0
 10
57.98220722105219
 20
88.69714107222839
 30
0.0
 10
56.80242034482283
 20
92.2151500931603
 30
0.0
 10
55.52127370555621
 20
95.69543740834277
 30
0.0
 10
54.17764998117431
 20
99.14272197958896
 30
0.0
 10
52.81247011865613
 20
102.5617355868598
 30
0.0
 10
51.44337616076865
 20
106.0087428682136
 30
0.0
 10
50.11256388634472
 20
109.4859138003748
 30
0.0
 10
48.86727399742619
 20
112.9962164009804
 30
0.0
 10
47.76918369386994
 20
116.4873755910489
 30
0.0
 10
46.86994795623735
 20
119.9630050876817
 30
0.0
 10
46.1805246296455
 20
123.4239376307927
 30
0.0
 10
45.95935306189675
 20
125.7426496185466
 30
0.0
 10
45.84964764406167
 20
126.8927760567907
 30
0.0
  0
SPLINE
  5
84
330
1F
100
AcDbEntity
  8
0
  6
Continuous
 62
     7
370
    25
100
AcDbSpline
210
0.0
220
0.0
230
1.0
 70
     8
 71
     3
 72
    21
 73
    17
 74
     0
 42
0.00000001
 43
0.00000001
 40
0.0
 40
0.0
 40
0.0
 40
0.0
 40
0.0720886332963229
 40
0.1442059536819376
 40
0.2164407016547451
 40
0.2887580543012976
 40
0.3610669016723096
 40
0.4332262901242867
 40
0.5050431604442763
 40
0.5762844843150824
 40
0.6500479105807857
 40
0.7226816615204955
 40
0.7939976806328529
 40
0.8639118586826724
 40
0.9324976236431269
 40
1.0
 40
1.0
 40
1.0
 40
1.0
 10
61.1601623315675
 20
77.87315606509577
 30
0.0
 10
61.34624865204519
 20
79.09266278917312
 30
0.0
 10
61.71849534454859
 20
81.53216153017755
 30
0.0
 10
62.58177615686328
 20
85.13624245427297
 30
0.0
 10
63.61226458881085
 20
88.6971410722284
 30
0.0
 10
64.79205146504019
 20
92.21515009316036
 30
0.0
 10
66.07319810430681
 20
95.6954374083428
 30
0.0
 10
67.4168218286887
 20
99.14272197958897
 30
0.0
 10
68.78200169120689
 20
102.5617355868598
 30
0.0
 10
70.15109564909436
 20
106.0087428682136
 30
0.0
 10
71.4819079235183
 20
109.4859138003749
 30
0.0
 10
72.7271978124368
 20
112.9962164009804
 30
0.0
 10
73.82528811599308
 20
116.4873755910489
 30
0.0
 10
74.72452385362563
 20
119.9630050876817
 30
0.0
 10
75.41394718021752
 20
123.4239376307927
 30
0.0
 10
75.63511874796625
 20
125.7426496185466
 30
0.0
 10
75.74482416580132
 20
126.8927760567907
 30
0.0
  0
ARC
  5
85
330
1F
100
AcDbEntity
  8
0
  6
Continuous
 62
     7
370
    25
100
AcDbCircle
 10
60.7972359049
 20
55.946666224
 30
0.0
 40
13.1
100
AcDbArc
 50
192.2466897273
 51
70.8449899264
  0
LINE
  5
86
330
1F
100
AcDbEntity
  8
0
  6
Continuous
 62
     7
370
    25
100
AcDbLine
 10
47.995347844
 20
53.1678783452
 30
0.0
 11
48.0930721803
 21
53.1890904664
 31
0.0
  0
ARC
  5
87
330
1F
100
AcDbEntity
  8
0
  6
Continuous
 62
     7
370
    25
100
AcDbCircle
 10
60.7972359049
 20
55.946666224
 30
0.0
 40
13.00000000000001
100
AcDbArc
 50
192.2466897273
 51
70.8449899264
  0
LINE
  5
88
330
1F
100
AcDbEntity
  8
0
  6
Continuous
 62
     7
370
    25
100
AcDbLine
 10
65.0956734049
 20
68.3213757179
 30
0.0
 11
65.0628609049
 21
68.2269122867
 31
0.0
  0
ARC
  5
89
330
1F
100
AcDbEntity
  8
0
  6
Continuous
 62
     7
370
    25
100
AcDbCircle
 10
44.6727204083
 20
52.446666224
 30
0.0
 40
3.400000000000007
100
AcDbArc
 50
12.2466897273
 51
192.2466897273
  0
LINE
  5
8A
330
1F
100
AcDbEntity
  8
0
  6
Continuous
 62
     7
370
    25
100
AcDbLine
 10
41.3500929727
 20
51.7254541028
 30
0.0
 11
41.2523686363
 21
51.7042419816
 31
0.0
  0
ARC
  5
8B
330
1F
100
AcDbEntity
  8
0
  6
Continuous
 62
     7
370
    25
100
AcDbCircle
 10
44.6727204083
 20
52.446666224
 30
0.0
 40
3.500000000000001
100
AcDbArc
 50
12.2466897273
 51
192.2466897273
  0
LINE
  5
8C
330
1F
100
AcDbEntity
  8
0
  6
Continuous
 62
     7
370
    25
100
AcDbLine
 10
55.5472359049
 20
68.946666224
 30
0.0
 11
46.6551002812
 21
68.946666224
 31
0.0
  0
LINE
  5
8D
330
1F
100
AcDbEntity
  8
0
  6
Continuous
 62
     7
370
    25
100
AcDbLine
 10
46.6551002812
 20
68.946666224
 30
0.0
 11
46.6551002812
 21
69.046666224
 31
0.0
  0
LINE
  5
8E
330
1F
100
AcDbEntity
  8
0
  6
Continuous
 62
     7
370
    25
100
AcDbLine
 10
46.6551002812
 20
69.046666224
 30
0.0
 11
55.5472359049
 21
69.046666224
 31
0.0
  0
LINE
  5
8F
330
1F
100
AcDbEntity
  8
0
  6
Continuous
 62
     7
370
    25
100
AcDbLine
 10
55.5472359049
 20
68.946666224
 30
0.0
 11
55.5472359049
 21
69.046666224
 31
0.0
  0
ARC
  5
90
330
1F
100
AcDbEntity
  8
0
  6
Continuous
 62
     7
370
    25
100
AcDbCircle
 10
55.5472359049
 20
71.946666224
 30
0.0
 40
3.000000000000007
100
AcDbArc
 50
270.0
 51
0.0
  0
ARC
  5
91
330
1F
100
AcDbEntity
  8
0
  6
Continuous
 62
     7
370
    25
100
AcDbCircle
 10
55.5472359049
 20
71.946666224
 30
0.0
 40
2.899999999999999
100
AcDbArc
 50
270.0
 51
0.0
  0
LINE
  5
92
330
1F
100
AcDbEntity
  8
0
  6
Continuous
 62
     7
370
    25
100
AcDbLine
 10
58.5472359049
 20
71.946666224
 30
0.0
 11
58.4472359049
 21
71.946666224
 31
0.0
  0
ARC
  5
93
330
1F
100
AcDbEntity
  8
0
  6
Continuous
 62
     7
370
    25
100
AcDbCircle
 10
60.7972359049
 20
68.946666224
 30
0.0
 40
20.0
100
AcDbArc
 50
103.9191142866
 51
160.5287793655
  0
ARC
  5
94
330
1F
100
AcDbEntity
  8
0
  6
Continuous
 62
     7
370
    25
100
AcDbCircle
 10
60.7972359049
 20
68.946666224
 30
0.0
 40
20.00000000000001
100
AcDbArc
 50
81.8032642821
 51
98.1925890179
  0
ARC
  5
95
330
1F
100
AcDbEntity
  8
0
  6
Continuous
 62
     7
370
    25
100
AcDbCircle
 10
60.7972359049
 20
68.946666224
 30
0.0
 40
20.0
100
AcDbArc
 50
0.0
 51
76.0855437849
  0
LINE
  5
96
330
1F
100
AcDbEntity
  8
0
  6
Continuous
 62
     7
370
    25
100
AcDbLine
 10
80.7972359049
 20
68.946666224
 30
0.0
 11
80.6972359049
 21
68.946666224
 31
0.0
  0
LINE
  5
97
330
1F
100
AcDbEntity
  8
0
  6
Continuous
 62
     7
370
    25
100
AcDbLine
 10
41.9410550733
 20
75.6133328907
 30
0.0
 11
42.0353359774
 21
75.5799995573
 31
0.0
  0
LINE
  5
98
330
1F
100
AcDbEntity
  8
0
  6
Continuous
 62
     7
370
    25
100
AcDbLine
 10
80.7972359049
 20
68.946666224
 30
0.0
 11
80.7972359049
 21
55.946666224
 31
0.0
  0
LINE
  5
99
330
1F
100
AcDbEntity
  8
0
  6
Continuous
 62
     7
370
    25
100
AcDbLine
 10
80.6972359049
 20
55.946666224
 30
0.0
 11
80.7972359049
 21
55.946666224
 31
0.0
  0
LINE
  5
9A
330
1F
100
AcDbEntity
  8
0
  6
Continuous
 62
     7
370
    25
100
AcDbLine
 10
80.6972359049
 20
55.946666224
 30
0.0
 11
80.6972359049
 21
68.946666224
 31
0.0
  0
ARC
  5
9B
330
1F
100
AcDbEntity
  8
0
  6
Continuous
 62
     7
370
    25
100
AcDbCircle
 10
46.6551002812
 20
73.946666224
 30
0.0
 40
5.000000000000002
100
AcDbArc
 50
160.5287793655
 51
270.0
  0
ARC
  5
9C
330
1F
100
AcDbEntity
  8
0
  6
Continuous
 62
     7
370
    25
100
AcDbCircle
 10
46.6551002812
 20
73.946666224
 30
0.0
 40
4.900000000000005
100
AcDbArc
 50
160.5287793655
 51
270.0
  0
ARC
  5
9D
330
1F
100
AcDbEntity
  8
0
  6
Continuous
 62
     7
370
    25
100
AcDbCircle
 10
66.0472359049
 20
71.0608152242
 30
0.0
 40
2.900000000000004
100
AcDbArc
 50
180.0
 51
250.8449899264
  0
ARC
  5
9E
330
1F
100
AcDbEntity
  8
0
  6
Continuous
 62
     7
370
    25
100
AcDbCircle
 10
66.0472359049
 20
71.0608152242
 30
0.0
 40
2.999999999999992
100
AcDbArc
 50
180.0
 51
250.8449899264
  0
LINE
  5
9F
330
1F
100
AcDbEntity
  8
0
  6
Continuous
 62
     7
370
    25
100
AcDbLine
 10
63.1472359049
 20
71.0608152242
 30
0.0
 11
63.0472359049
 21
71.0608152242
 31
0.0
  0
LINE
  5
A0
330
1F
100
AcDbEntity
  8
0
  6
Continuous
 62
     7
370
    25
100
AcDbLine
 10
63.0472359049
 20
71.0608152242
 30
0.0
 11
63.0472359049
 21
76.9921589356
 31
0.0
  0
ARC
  5
A1
330
1F
100
AcDbEntity
  8
0
  6
Continuous
 62
     7
370
    25
100
AcDbCircle
 10
60.7972359049
 20
55.946666224
 30
0.0
 40
19.90000000000001
100
AcDbArc
 50
192.2466897273
 51
0.0
  0
LINE
  5
A2
330
1F
100
AcDbEntity
  8
0
  6
Continuous
 62
     7
370
    25
100
AcDbLine
 10
58.5472359049
 20
76.9894464214
 30
0.0
 11
58.5472359049
 21
71.946666224
 31
0.0
  0
LINE
  5
A3
330
1F
100
AcDbEntity
  8
0
  6
Continuous
 62
     7
370
    25
100
AcDbLine
 10
61.3393187024
 20
78.946666224
 30
0.0
 11
60.2551531075
 21
78.946666224
 31
0.0
  0
ARC
  5
A4
330
1F
100
AcDbEntity
  8
0
  6
Continuous
 62
     7
370
    25
100
AcDbCircle
 10
60.7972359049
 20
55.946666224
 30
0.0
 40
20.00000000000001
100
AcDbArc
 50
192.2466897273
 51
0.0
  0
ARC
  5
A5
330
1F
100
AcDbEntity
  8
0
  6
Continuous
 62
     8
370
    25
100
AcDbCircle
 10
60.7972359049
 20
68.946666224
 30
0.0
 40
19.90000000000001
100
AcDbArc
 50
0.0
 51
76.1016715896
  0
ARC
  5
A6
330
1F
100
AcDbEntity
  8
0
  6
Continuous
 62
     8
370
    25
100
AcDbCircle
 10
60.7972359049
 20
68.946666224
 30
0.0
 40
19.9
100
AcDbArc
 50
81.8446879862
 51
98.1518828777
  0
ARC
  5
A7
330
1F
100
AcDbEntity
  8
0
  6
Continuous
 62
     8
370
    25
100
AcDbCircle
 10
60.7972359049
 20
68.946666224
 30
0.0
 40
19.90000000000001
100
AcDbArc
 50
103.902902313
 51
160.5287793655
  0
LINE
  5
A8
330
1F
100
AcDbEntity
  8
0
  6
Continuous
 62
     8
370
    25
100
AcDbLine
 10
63.1472359049
 20
77.7920115614
 30
0.0
 11
63.1472359049
 21
71.0608152242
 31
0.0
  0
LINE
  5
A9
330
1F
100
AcDbEntity
  8
0
  6
Continuous
 62
     8
370
    25
100
AcDbLine
 10
60.2384642695
 20
79.046666224
 30
0.0
 11
61.3560075403
 21
79.046666224
 31
0.0
  0
LINE
  5
AA
330
1F
100
AcDbEntity
  8
0
  6
Continuous
 62
     8
370
    25
100
AcDbLine
 10
58.4472359049
 20
71.946666224
 30
0.0
 11
58.4472359049
 21
77.7917617244
 31
0.0
  0
LINE
  5
AB
330
1F
100
AcDbEntity
  8
0
  6
Continuous
 62
     7
370
    25
100
AcDbLine
 10
150.8115205115
 20
145.3731291942
 30
0.0
 11
125.8115205115
 21
145.3731291942
 31
0.0
  0
LINE
  5
AC
330
1F
100
AcDbEntity
  8
0
  6
Continuous
 62
     7
370
    25
100
AcDbLine
 10
136.9115205115
 20
35.946666224
 30
0.0
 11
139.7115205115
 21
35.946666224
 31
0.0
  0
ARC
  5
AD
330
1F
100
AcDbEntity
  8
0
  6
Continuous
 62
     7
370
    25
100
AcDbCircle
 10
139.7115205115
 20
36.046666224
 30
0.0
 40
0.1000000000000014
100
AcDbArc
 50
270.0
 51
0.0
  0
ARC
  5
AE
330
1F
100
AcDbEntity
  8
0
  6
Continuous
 62
     7
370
    25
100
AcDbCircle
 10
136.9115205115
 20
36.046666224
 30
0.0
 40
0.1000000000000227
100
AcDbArc
 50
180.0
 51
270.0
  0
LINE
  5
AF
330
1F
100
AcDbEntity
  8
0
  6
Continuous
 62
     7
370
    25
100
AcDbLine
 10
139.7115205115
 20
88.946666224
 30
0.0
 11
136.9115205115
 21
88.946666224
 31
0.0
  0
ARC
  5
B0
330
1F
100
AcDbEntity
  8
0
  6
Continuous
 62
     7
370
    25
100
AcDbCircle
 10
139.7115205115
 20
88.846666224
 30
0.0
 40
0.0999999999999943
100
AcDbArc
 50
0.0
 51
90.0
  0
ARC
  5
B1
330
1F
100
AcDbEntity
  8
0
  6
Continuous
 62
     7
370
    25
100
AcDbCircle
 10
136.9115205115
 20
88.846666224
 30
0.0
 40
0.1000000000000227
100
AcDbArc
 50
90.0
 51
180.0
  0
LINE
  5
B2
330
1F
100
AcDbEntity
  8
0
  6
Continuous
 62
     7
370
    25
100
AcDbLine
 10
125.8115205115
 20
126.7254479208
 30
0.0
 11
150.8115205115
 21
126.7254479208
 31
0.0
  0
LINE
  5
B3
330
1F
100
AcDbEntity
  8
0
  6
Continuous
 62
     7
370
    25
100
AcDbLine
 10
125.8115205115
 20
126.7254479208
 30
0.0
 11
125.8115205115
 21
145.3731291942
 31
0.0
  0
LINE
  5
B4
330
1F
100
AcDbEntity
  8
0
  6
Continuous
 62
     7
370
    25
100
AcDbLine
 10
150.8115205115
 20
126.7254479208
 30
0.0
 11
150.8115205115
 21
145.3731291942
 31
0.0
  0
SPLINE
  5
B5
330
1F
100
AcDbEntity
  8
0
  6
Continuous
 62
     7
370
    25
100
AcDbSpline
210
0.0
220
0.0
230
1.0
 70
     8
 71
     3
 72
    12
 73
     8
 74
     0
 42
0.00000001
 43
0.00000001
 40
0.0
 40
0.0
 40
0.0
 40
0.0
 40
0.1958832605127792
 40
0.3915541393245712
 40
0.5930802935682101
 40
0.8082541652291165
 40
1.0
 40
1.0
 40
1.0
 40
1.0
 10
138.3115205114544
 20
101.3731560650957
 30
0.0
 10
138.5352654966663
 20
101.3521936916587
 30
0.0
 10
138.982512876986
 20
101.3102916727325
 30
0.0
 10
139.5824581936843
 20
100.9865540323939
 30
0.0
 10
140.0564201375733
 20
100.5041019835362
 30
0.0
 10
140.3578239866243
 20
99.90750114852753
 30
0.0
 10
140.3943221189143
 20
99.47632965591072
 30
0.0
 10
140.4115205114545
 20
99.27315606545919
 30
0.0
  0
SPLINE
  5
B6
330
1F
100
AcDbEntity
  8
0
  6
Continuous
 62
     7
370
    25
100
AcDbSpline
210
0.0
220
0.0
230
1.0
 70
     8
 71
     3
 72
    12
 73
     8
 74
     0
 42
0.00000001
 43
0.00000001
 40
0.0
 40
0.0
 40
0.0
 40
0.0
 40
0.2359139670194241
 40
0.4721185016491152
 40
0.6991005149653696
 40
0.9095921589454387
 40
0.9999999999999999
 40
0.9999999999999999
 40
0.9999999999999999
 40
0.9999999999999999
 10
136.2115205114544
 20
99.27315606546449
 30
0.0
 10
136.2374639949226
 20
99.52342932288691
 30
0.0
 10
136.2893829156093
 20
100.024284091216
 30
0.0
 10
136.6969622030974
 20
100.6842940346999
 30
0.0
 10
137.2871254222987
 20
101.1549645381421
 30
0.0
 10
137.8667327182148
 20
101.3532880911004
 30
0.0
 10
138.2087565164224
 20
101.3685657584102
 30
0.0
 10
138.3115205114544
 20
101.3731560650957
 30
0.0
  0
SPLINE
  5
B7
330
1F
100
AcDbEntity
  8
0
  6
Continuous
 62
     7
370
    25
100
AcDbSpline
210
0.0
220
0.0
230
1.0
 70
    24
 71
     3
 72
    13
 73
     9
 74
     0
 42
0.00000001
 43
0.00000001
 40
0.0
 40
0.0
 40
0.0
 40
0.0
 40
0.1890128640977789
 40
0.3773834817434359
 40
0.5645844942926591
 40
0.7106377277116035
 40
0.8557381547104821
 40
0.9999999999999999
 40
0.9999999999999999
 40
0.9999999999999999
 40
0.9999999999999999
 10
136.2115205114544
 20
99.27315606546449
 30
0.0
 10
136.2115205114544
 20
98.05484859792864
 30
0.0
 10
136.2115205114544
 20
95.62237334748818
 30
0.0
 10
136.2115205114544
 20
91.95543214254322
 30
0.0
 10
136.2115205114544
 20
88.53142233638691
 30
0.0
 10
136.2115205114544
 20
85.35243837933804
 30
0.0
 10
136.2115205114544
 20
82.4274522194823
 30
0.0
 10
136.2115205114544
 20
80.45601702129467
 30
0.0
 10
136.2115205114544
 20
79.47315606533769
 30
0.0
  0
SPLINE
  5
B8
330
1F
100
AcDbEntity
  8
0
  6
Continuous
 62
     7
370
    25
100
AcDbSpline
210
0.0
220
0.0
230
1.0
 70
     8
 71
     3
 72
    10
 73
     6
 74
     0
 42
0.00000001
 43
0.00000001
 40
0.0
 40
0.0
 40
0.0
 40
0.0
 40
0.2536036233183102
 40
0.6940279126925378
 40
1.0
 40
1.0
 40
1.0
 40
1.0
 10
136.8115205114544
 20
78.04448456053264
 30
0.0
 10
136.7155025497964
 20
78.14058953220064
 30
0.0
 10
136.4527336483175
 20
78.40359655084407
 30
0.0
 10
136.2526431205729
 20
78.91892194049615
 30
0.0
 10
136.223476752047
 20
79.31201462311701
 30
0.0
 10
136.2115205114544
 20
79.47315606533769
 30
0.0
  0
SPLINE
  5
B9
330
1F
100
AcDbEntity
  8
0
  6
Continuous
 62
     7
370
    25
100
AcDbSpline
210
0.0
220
0.0
230
1.0
 70
     8
 71
     3
 72
    10
 73
     6
 74
     0
 42
0.00000001
 43
0.00000001
 40
0.0
 40
0.0
 40
0.0
 40
0.0
 40
0.4456074454286405
 40
0.8913654678394191
 40
1.0
 40
1.0
 40
1.0
 40
1.0
 10
140.4115205114545
 20
79.47315606533769
 30
0.0
 10
140.3855707931224
 20
79.2382447672419
 30
0.0
 10
140.333662587686
 20
78.76834279124031
 30
0.0
 10
140.085865848223
 20
78.262724760026
 30
0.0
 10
139.8564709786475
 20
78.07284738211334
 30
0.0
 10
139.8115205114544
 20
78.03564046086713
 30
0.0
  0
SPLINE
  5
BA
330
1F
100
AcDbEntity
  8
0
  6
Continuous
 62
     7
370
    25
100
AcDbSpline
210
0.0
220
0.0
230
1.0
 70
    24
 71
     3
 72
    12
 73
     8
 74
     0
 42
0.00000001
 43
0.00000001
 40
0.0
 40
0.0
 40
0.0
 40
0.0
 40
0.1837355459331865
 40
0.3688966489097342
 40
0.5555939635379247
 40
0.7772796913427986
 40
1.0
 40
1.0
 40
1.0
 40
1.0
 10
140.4115205114545
 20
79.47315606533769
 30
0.0
 10
140.4115205114545
 20
80.723981866083
 30
0.0
 10
140.4115205114545
 20
83.2353383046056
 30
0.0
 10
140.4115205114545
 20
86.94923017505265
 30
0.0
 10
140.4115205114545
 20
90.86410906702655
 30
0.0
 10
140.4115205114545
 20
94.97261326064174
 30
0.0
 10
140.4115205114545
 20
97.83741870043099
 30
0.0
 10
140.4115205114545
 20
99.27315606545919
 30
0.0
  0
SPLINE
  5
BB
330
1F
100
AcDbEntity
  8
0
  6
Continuous
 62
     7
370
    25
100
AcDbSpline
210
0.0
220
0.0
230
1.0
 70
     8
 71
     3
 72
    11
 73
     7
 74
     0
 42
0.00000001
 43
0.00000001
 40
0.0
 40
0.0
 40
0.0
 40
0.0
 40
0.2456551916398713
 40
0.4929945672417498
 40
0.7455999081485039
 40
1.0
 40
1.0
 40
1.0
 40
1.0
 10
150.1716308064439
 20
73.9250193158576
 30
0.0
 10
150.2687593834652
 20
74.24048930201253
 30
0.0
 10
150.4636824399486
 20
74.87359210054898
 30
0.0
 10
150.6592640723306
 20
75.85506409371548
 30
0.0
 10
150.7879206220915
 20
76.8575591243475
 30
0.0
 10
150.8036353387999
 20
77.53382577833054
 30
0.0
 10
150.8115205114544
 20
77.87315606509578
 30
0.0
  0
LINE
  5
BC
330
1F
100
AcDbEntity
  8
0
  6
Continuous
 62
     7
370
    25
100
AcDbLine
 10
126.4514102165
 20
73.9250193159
 30
0.0
 11
136.8115205115
 21
73.9250193159
 31
0.0
  0
LINE
  5
BD
330
1F
100
AcDbEntity
  8
0
  6
Continuous
 62
     7
370
    25
100
AcDbLine
 10
139.8115205115
 20
73.9250193159
 30
0.0
 11
150.1716308064
 21
73.9250193159
 31
0.0
  0
SPLINE
  5
BE
330
1F
100
AcDbEntity
  8
0
  6
Continuous
 62
     7
370
    25
100
AcDbSpline
210
0.0
220
0.0
230
1.0
 70
     8
 71
     3
 72
    11
 73
     7
 74
     0
 42
0.00000001
 43
0.00000001
 40
0.0
 40
0.0
 40
0.0
 40
0.0
 40
0.2456995464098362
 40
0.4930390445634696
 40
0.7456054136589423
 40
1.0
 40
1.0
 40
1.0
 40
1.0
 10
125.8115205114544
 20
77.87315606509578
 30
0.0
 10
125.8188813233321
 20
77.5454470064285
 30
0.0
 10
125.8336520777288
 20
76.8878415548067
 30
0.0
 10
125.9570507838714
 20
75.89669494595339
 30
0.0
 10
126.1511419725582
 20
74.90301614926337
 30
0.0
 10
126.351080460512
 20
74.25180107053721
 30
0.0
 10
126.451410216465
 20
73.9250193158576
 30
0.0
  0
SPLINE
  5
BF
330
1F
100
AcDbEntity
  8
0
  6
Continuous
 62
     7
370
    25
100
AcDbSpline
210
0.0
220
0.0
230
1.0
 70
    24
 71
     3
 72
    21
 73
    17
 74
     0
 42
0.00000001
 43
0.00000001
 40
0.0
 40
0.0
 40
0.0
 40
0.0
 40
0.0692998298622456
 40
0.1390291279495518
 40
0.2092948728608217
 40
0.280085073879391
 40
0.351296635763275
 40
0.4227616469871747
 40
0.4942717839207008
 40
0.5656012802304804
 40
0.6398932781541234
 40
0.7135242472948616
 40
0.7863377791767827
 40
0.8582753025867355
 40
0.9294129181545496
 40
1.0
 40
1.0
 40
1.0
 40
1.0
 10
125.8115205114544
 20
77.87315606509578
 30
0.0
 10
125.8115205114544
 20
79.04070964703851
 30
0.0
 10
125.8115205114544
 20
81.3830524299074
 30
0.0
 10
125.8115205114544
 20
84.853355868343
 30
0.0
 10
125.8115205114544
 20
88.303244164743
 30
0.0
 10
125.8115205114544
 20
91.73306159817527
 30
0.0
 10
125.8115205114544
 20
95.14732314399792
 30
0.0
 10
125.8115205114544
 20
98.54927121001364
 30
0.0
 10
125.8115205114544
 20
101.9423805022056
 30
0.0
 10
125.8115205114544
 20
105.3833155151962
 30
0.0
 10
125.8115205114544
 20
108.8753392665978
 30
0.0
 10
125.8115205114544
 20
112.4234060460672
 30
0.0
 10
125.8115205114544
 20
115.9773478124555
 30
0.0
 10
125.8115205114544
 20
119.5421509111615
 30
0.0
 10
125.8115205114544
 20
123.1201053412298
 30
0.0
 10
125.8115205114544
 20
125.5267833312221
 30
0.0
 10
125.8115205114544
 20
126.7254479207811
 30
0.0
  0
SPLINE
  5
C0
330
1F
100
AcDbEntity
  8
0
  6
Continuous
 62
     7
370
    25
100
AcDbSpline
210
0.0
220
0.0
230
1.0
 70
    24
 71
     3
 72
    21
 73
    17
 74
     0
 42
0.00000001
 43
0.00000001
 40
0.0
 40
0.0
 40
0.0
 40
0.0
 40
0.0692998298622456
 40
0.1390291279495518
 40
0.2092948728608217
 40
0.280085073879391
 40
0.351296635763275
 40
0.4227616469871747
 40
0.4942717839207008
 40
0.5656012802304804
 40
0.6398932781541234
 40
0.7135242472948616
 40
0.7863377791767827
 40
0.8582753025867355
 40
0.9294129181545496
 40
1.0
 40
1.0
 40
1.0
 40
1.0
 10
150.8115205114544
 20
77.87315606509578
 30
0.0
 10
150.8115205114544
 20
79.04070964703851
 30
0.0
 10
150.8115205114544
 20
81.3830524299074
 30
0.0
 10
150.8115205114544
 20
84.853355868343
 30
0.0
 10
150.8115205114544
 20
88.303244164743
 30
0.0
 10
150.8115205114544
 20
91.73306159817527
 30
0.0
 10
150.8115205114544
 20
95.14732314399792
 30
0.0
 10
150.8115205114544
 20
98.54927121001364
 30
0.0
 10
150.8115205114544
 20
101.9423805022056
 30
0.0
 10
150.8115205114544
 20
105.3833155151962
 30
0.0
 10
150.8115205114544
 20
108.8753392665978
 30
0.0
 10
150.8115205114544
 20
112.4234060460672
 30
0.0
 10
150.8115205114544
 20
115.9773478124555
 30
0.0
 10
150.8115205114544
 20
119.5421509111615
 30
0.0
 10
150.8115205114544
 20
123.1201053412298
 30
0.0
 10
150.8115205114544
 20
125.5267833312221
 30
0.0
 10
150.8115205114544
 20
126.7254479207811
 30
0.0
  0
ARC
  5
C1
330
1F
100
AcDbEntity
  8
0
  6
Continuous
 62
     7
370
    25
100
AcDbCircle
 10
138.3115205115
 20
77.8731560651
 30
0.0
 40
12.50000000000001
100
AcDbArc
 50
198.4121918973
 51
263.1078974207
  0
ARC
  5
C2
330
1F
100
AcDbEntity
  8
0
  6
Continuous
 62
     7
370
    25
100
AcDbCircle
 10
138.3115205115
 20
77.8731560651
 30
0.0
 40
12.50000000000002
100
AcDbArc
 50
276.8921025793
 51
341.5878081027
  0
LINE
  5
C3
330
1F
100
AcDbEntity
  8
0
  6
Continuous
 62
     7
370
    25
100
AcDbLine
 10
126.4230014379
 20
74.0114059129
 30
0.0
 11
126.4514102165
 21
73.9250193159
 31
0.0
  0
LINE
  5
C4
330
1F
100
AcDbEntity
  8
0
  6
Continuous
 62
     7
370
    25
100
AcDbLine
 10
150.1716308064
 20
73.9250193159
 30
0.0
 11
150.200039585
 21
74.0114059129
 31
0.0
  0
LINE
  5
C5
330
1F
100
AcDbEntity
  8
0
  6
Continuous
 62
     7
370
    25
100
AcDbLine
 10
136.9115205115
 20
55.946666224
 30
0.0
 11
139.7115205115
 21
55.946666224
 31
0.0
  0
LINE
  5
C6
330
1F
100
AcDbEntity
  8
0
  6
Continuous
 62
     7
370
    25
100
AcDbLine
 10
139.7115205115
 20
55.946666224
 30
0.0
 11
139.7115205115
 21
68.946666224
 31
0.0
  0
LINE
  5
C7
330
1F
100
AcDbEntity
  8
0
  6
Continuous
 62
     7
370
    25
100
AcDbLine
 10
139.7115205115
 20
68.946666224
 30
0.0
 11
139.8115205115
 21
68.946666224
 31
0.0
  0
LINE
  5
C8
330
1F
100
AcDbEntity
  8
0
  6
Continuous
 62
     7
370
    25
100
AcDbLine
 10
139.8115205115
 20
68.946666224
 30
0.0
 11
139.8115205115
 21
55.946666224
 31
0.0
  0
LINE
  5
C9
330
1F
100
AcDbEntity
  8
0
  6
Continuous
 62
     7
370
    25
100
AcDbLine
 10
139.7115205115
 20
55.946666224
 30
0.0
 11
139.8115205115
 21
55.946666224
 31
0.0
  0
LINE
  5
CA
330
1F
100
AcDbEntity
  8
0
  6
Continuous
 62
     7
370
    25
100
AcDbLine
 10
139.8115205115
 20
55.946666224
 30
0.0
 11
139.8115205115
 21
36.046666224
 31
0.0
  0
LINE
  5
CB
330
1F
100
AcDbEntity
  8
0
  6
Continuous
 62
     7
370
    25
100
AcDbLine
 10
136.9115205115
 20
68.946666224
 30
0.0
 11
136.9115205115
 21
55.946666224
 31
0.0
  0
LINE
  5
CC
330
1F
100
AcDbEntity
  8
0
  6
Continuous
 62
     7
370
    25
100
AcDbLine
 10
136.9115205115
 20
68.946666224
 30
0.0
 11
139.7115205115
 21
68.946666224
 31
0.0
  0
LINE
  5
CD
330
1F
100
AcDbEntity
  8
0
  6
Continuous
 62
     7
370
    25
100
AcDbLine
 10
136.8115205115
 20
55.946666224
 30
0.0
 11
136.9115205115
 21
55.946666224
 31
0.0
  0
LINE
  5
CE
330
1F
100
AcDbEntity
  8
0
  6
Continuous
 62
     7
370
    25
100
AcDbLine
 10
136.8115205115
 20
55.946666224
 30
0.0
 11
136.8115205115
 21
68.946666224
 31
0.0
  0
LINE
  5
CF
330
1F
100
AcDbEntity
  8
0
  6
Continuous
 62
     7
370
    25
100
AcDbLine
 10
136.9115205115
 20
68.946666224
 30
0.0
 11
136.8115205115
 21
68.946666224
 31
0.0
  0
LINE
  5
D0
330
1F
100
AcDbEntity
  8
0
  6
Continuous
 62
     7
370
    25
100
AcDbLine
 10
136.8115205115
 20
36.046666224
 30
0.0
 11
136.8115205115
 21
55.946666224
 31
0.0
  0
LINE
  5
D1
330
1F
100
AcDbEntity
  8
0
  6
Continuous
 62
     7
370
    25
100
AcDbLine
 10
139.8115205115
 20
88.846666224
 30
0.0
 11
139.8115205115
 21
68.946666224
 31
0.0
  0
LINE
  5
D2
330
1F
100
AcDbEntity
  8
0
  6
Continuous
 62
     7
370
    25
100
AcDbLine
 10
136.8115205115
 20
68.946666224
 30
0.0
 11
136.8115205115
 21
88.846666224
 31
0.0
  0
LINE
  5
D3
330
1F
100
AcDbEntity
  8
0
  6
Continuous
 62
     8
370
    25
100
AcDbLine
 10
136.9115205115
 20
55.946666224
 30
0.0
 11
136.9115205115
 21
35.946666224
 31
0.0
  0
LINE
  5
D4
330
1F
100
AcDbEntity
  8
0
  6
Continuous
 62
     8
370
    25
100
AcDbLine
 10
139.7115205115
 20
35.946666224
 30
0.0
 11
139.7115205115
 21
55.946666224
 31
0.0
  0
LINE
  5
D5
330
1F
100
AcDbEntity
  8
0
  6
Continuous
 62
     8
370
    25
100
AcDbLine
 10
136.9115205115
 20
88.946666224
 30
0.0
 11
136.9115205115
 21
68.946666224
 31
0.0
  0
LINE
  5
D6
330
1F
100
AcDbEntity
  8
0
  6
Continuous
 62
     8
370
    25
100
AcDbLine
 10
139.7115205115
 20
68.946666224
 30
0.0
 11
139.7115205115
 21
88.946666224
 31
0.0
  0
LINE
  5
D7
330
1F
100
AcDbEntity
  8
0
  6
Continuous
 62
     7
370
    25
100
AcDbLine
 10
43.7972043475
 20
198.5970101225
 30
0.0
 11
43.7972043475
 21
173.5970101225
 31
0.0
  0
LINE
  5
D8
330
1F
100
AcDbEntity
  8
0
  6
Continuous
 62
     7
370
    25
100
AcDbLine
 10
77.7972674623
 20
173.5970101225
 30
0.0
 11
77.7972674623
 21
198.5970101225
 31
0.0
  0
ARC
  5
D9
330
1F
100
AcDbEntity
  8
0
  6
Continuous
 62
     7
370
    25
100
AcDbCircle
 10
41.7551002812
 20
187.4970101225
 30
0.0
 40
0.1000000000000014
100
AcDbArc
 50
90.0
 51
180.0
  0
LINE
  5
DA
330
1F
100
AcDbEntity
  8
0
  6
Continuous
 62
     7
370
    25
100
AcDbLine
 10
41.6551002812
 20
187.4970101225
 30
0.0
 11
41.6551002812
 21
184.6970101225
 31
0.0
  0
ARC
  5
DB
330
1F
100
AcDbEntity
  8
0
  6
Continuous
 62
     7
370
    25
100
AcDbCircle
 10
41.7551002812
 20
184.6970101225
 30
0.0
 40
0.1000000000000227
100
AcDbArc
 50
180.0
 51
270.0
  0
ARC
  5
DC
330
1F
100
AcDbEntity
  8
0
  6
Continuous
 62
     7
370
    25
100
AcDbCircle
 10
41.2727204083
 20
187.4970101225
 30
0.0
 40
0.0999999999999943
100
AcDbArc
 50
90.0
 51
180.0
  0
LINE
  5
DD
330
1F
100
AcDbEntity
  8
0
  6
Continuous
 62
     7
370
    25
100
AcDbLine
 10
41.1727204083
 20
187.4970101225
 30
0.0
 11
41.1727204083
 21
184.6970101225
 31
0.0
  0
ARC
  5
DE
330
1F
100
AcDbEntity
  8
0
  6
Continuous
 62
     7
370
    25
100
AcDbCircle
 10
41.2727204083
 20
184.6970101225
 30
0.0
 40
0.1000000000000227
100
AcDbArc
 50
180.0
 51
270.0
  0
LINE
  5
DF
330
1F
100
AcDbEntity
  8
0
  6
Continuous
 62
     7
370
    25
100
AcDbLine
 10
77.7972674623
 20
173.5970101225
 30
0.0
 11
43.7972043475
 21
173.5970101225
 31
0.0
  0
LINE
  5
E0
330
1F
100
AcDbEntity
  8
0
  6
Continuous
 62
     7
370
    25
100
AcDbLine
 10
77.7972674623
 20
198.5970101225
 30
0.0
 11
43.7972043475
 21
198.5970101225
 31
0.0
  0
ARC
  5
E1
330
1F
100
AcDbEntity
  8
0
  6
Continuous
 62
     7
370
    25
100
AcDbCircle
 10
42.0382822557
 20
187.4997879003
 30
0.0
 40
0.0972668548343905
100
AcDbArc
 50
91.7357930888
 51
181.6364935946
  0
LINE
  5
E2
330
1F
100
AcDbEntity
  8
0
  6
Continuous
 62
     7
370
    25
100
AcDbLine
 10
42.0353359774
 20
187.5970101225
 30
0.0
 11
43.7972043475
 21
187.5970101225
 31
0.0
  0
LINE
  5
E3
330
1F
100
AcDbEntity
  8
0
  6
Continuous
 62
     7
370
    25
100
AcDbLine
 10
77.7972674623
 20
187.5970101225
 30
0.0
 11
80.6972359049
 21
187.5970101225
 31
0.0
  0
ARC
  5
E4
330
1F
100
AcDbEntity
  8
0
  6
Continuous
 62
     7
370
    25
100
AcDbCircle
 10
80.6972359049
 20
187.4970101225
 30
0.0
 40
0.0999999999999801
100
AcDbArc
 50
0.0
 51
90.0
  0
LINE
  5
E5
330
1F
100
AcDbEntity
  8
0
  6
Continuous
 62
     7
370
    25
100
AcDbLine
 10
41.9410550733
 20
187.4970101225
 30
0.0
 11
41.9410550733
 21
184.6970101225
 31
0.0
  0
LINE
  5
E6
330
1F
100
AcDbEntity
  8
0
  6
Continuous
 62
     7
370
    25
100
AcDbLine
 10
80.7972359049
 20
184.6970101225
 30
0.0
 11
80.7972359049
 21
187.4970101225
 31
0.0
  0
ARC
  5
E7
330
1F
100
AcDbEntity
  8
0
  6
Continuous
 62
     7
370
    25
100
AcDbCircle
 10
80.6972359049
 20
184.6970101225
 30
0.0
 40
0.1000000000000227
100
AcDbArc
 50
270.0
 51
0.0
  0
LINE
  5
E8
330
1F
100
AcDbEntity
  8
0
  6
Continuous
 62
     7
370
    25
100
AcDbLine
 10
80.6972359049
 20
184.5970101225
 30
0.0
 11
77.7972674623
 21
184.5970101225
 31
0.0
  0
LINE
  5
E9
330
1F
100
AcDbEntity
  8
0
  6
Continuous
 62
     7
370
    25
100
AcDbLine
 10
43.7972043475
 20
184.5970101225
 30
0.0
 11
42.0353359774
 21
184.5970101225
 31
0.0
  0
ARC
  5
EA
330
1F
100
AcDbEntity
  8
0
  6
Continuous
 62
     7
370
    25
100
AcDbCircle
 10
42.0382822557
 20
184.6942323448
 30
0.0
 40
0.0972668548344473
100
AcDbArc
 50
178.3635064054
 51
268.2642069111
  0
LINE
  5
EB
330
1F
100
AcDbEntity
  8
0
  6
Continuous
 62
     7
370
    25
100
AcDbLine
 10
41.7551002812
 20
187.5970101225
 30
0.0
 11
42.0353359774
 21
187.5970101225
 31
0.0
  0
LINE
  5
EC
330
1F
100
AcDbEntity
  8
0
  6
Continuous
 62
     7
370
    25
100
AcDbLine
 10
42.0353359774
 20
184.5970101225
 30
0.0
 11
41.7551002812
 21
184.5970101225
 31
0.0
  0
LINE
  5
ED
330
1F
100
AcDbEntity
  8
0
  6
Continuous
 62
     7
370
    25
100
AcDbLine
 10
41.2727204083
 20
187.5970101225
 30
0.0
 11
41.7551002812
 21
187.5970101225
 31
0.0
  0
LINE
  5
EE
330
1F
100
AcDbEntity
  8
0
  6
Continuous
 62
     7
370
    25
100
AcDbLine
 10
41.7551002812
 20
184.5970101225
 30
0.0
 11
41.2727204083
 21
184.5970101225
 31
0.0
  0
LINE
  5
EF
330
1F
100
AcDbEntity
  8
0
  6
Continuous
 62
     8
370
    25
100
AcDbLine
 10
80.7972359049
 20
187.4970101225
 30
0.0
 11
77.7972674623
 21
187.4970101225
 31
0.0
  0
LINE
  5
F0
330
1F
100
AcDbEntity
  8
0
  6
Continuous
 62
     8
370
    25
100
AcDbLine
 10
43.7972043475
 20
187.4970101225
 30
0.0
 11
41.9410550733
 21
187.4970101225
 31
0.0
  0
LINE
  5
F1
330
1F
100
AcDbEntity
  8
0
  6
Continuous
 62
     8
370
    25
100
AcDbLine
 10
41.9410550733
 20
184.6970101225
 30
0.0
 11
43.7972043475
 21
184.6970101225
 31
0.0
  0
LINE
  5
F2
330
1F
100
AcDbEntity
  8
0
  6
Continuous
 62
     8
370
    25
100
AcDbLine
 10
77.7972674623
 20
184.6970101225
 30
0.0
 11
80.7972359049
 21
184.6970101225
 31
0.0
  0
LINE
  5
F3
330
1F
100
AcDbEntity
  8
0
  6
Continuous
 62
     8
370
    25
100
AcDbLine
 10
41.9410550733
 20
187.4970101225
 30
0.0
 11
41.6551002812
 21
187.4970101225
 31
0.0
  0
LINE
  5
F4
330
1F
100
AcDbEntity
  8
0
  6
Continuous
 62
     8
370
    25
100
AcDbLine
 10
41.6551002812
 20
184.6970101225
 30
0.0
 11
41.9410550733
 21
184.6970101225
 31
0.0
  0
LINE
  5
F5
330
1F
100
AcDbEntity
  8
0
  6
Continuous
 62
     8
370
    25
100
AcDbLine
 10
41.6551002812
 20
187.4970101225
 30
0.0
 11
41.1727204083
 21
187.4970101225
 31
0.0
  0
LINE
  5
F6
330
1F
100
AcDbEntity
  8
0
  6
Continuous
 62
     8
370
    25
100
AcDbLine
 10
41.1727204083
 20
184.6970101225
 30
0.0
 11
41.6551002812
 21
184.6970101225
 31
0.0
  0
ENDSEC
  0
SECTION
  2
OBJECTS
  0
DICTIONARY
  5
C
330
0
100
AcDbDictionary
281
     1
  3
ACAD_GROUP
350
D
  3
ACAD_LAYOUT
350
1A
  3
ACAD_MLINESTYLE
350
17
  3
ACAD_PLOTSETTINGS
350
19
  3
ACAD_PLOTSTYLENAME
350
E
  3
ACAD_SCALELIST
350
47
  3
DWGPROPS
350
F7
  0
DICTIONARY
  5
D
102
{ACAD_REACTORS
330
C
102
}
330
C
100
AcDbDictionary
281
     1
  0
DICTIONARY
  5
1A
102
{ACAD_REACTORS
330
C
102
}
330
C
100
AcDbDictionary
281
     1
  3
Layout1
350
1E
  3
Layout2
350
26
  3
Model
350
22
  0
DICTIONARY
  5
17
102
{ACAD_REACTORS
330
C
102
}
330
C
100
AcDbDictionary
281
     1
  3
Standard
350
18
  0
DICTIONARY
  5
19
102
{ACAD_REACTORS
330
C
102
}
330
C
100
AcDbDictionary
281
     1
  0
ACDBDICTIONARYWDFLT
  5
E
102
{ACAD_REACTORS
330
C
102
}
330
C
100
AcDbDictionary
281
     1
  3
Normal
350
F
100
AcDbDictionaryWithDefault
340
F
  0
DICTIONARY
  5
47
102
{ACAD_REACTORS
330
C
102
}
330
C
100
AcDbDictionary
281
     1
  3
A0
350
48
  3
A1
350
49
  3
A2
350
4A
  3
A3
350
4B
  3
A4
350
4C
  3
A5
350
4D
  3
A6
350
4E
  3
A7
350
4F
  3
A8
350
50
  3
A9
350
51
  3
B0
350
52
  3
B1
350
53
  3
B2
350
54
  3
B3
350
55
  3
B4
350
56
  3
B5
350
57
  3
B6
350
58
  3
B7
350
59
  3
B8
350
5A
  3
B9
350
5B
  3
C0
350
5C
  3
C1
350
5D
  3
C2
350
5E
  3
C3
350
5F
  3
C4
350
60
  3
C5
350
61
  3
C6
350
62
  3
C7
350
63
  3
C8
350
64
  3
C9
350
65
  3
D0
350
66
  3
D1
350
67
  3
D2
350
68
  0
XRECORD
  5
F7
102
{ACAD_REACTORS
330
C
102
}
330
C
100
AcDbXrecord
280
     1
  1
DWGPROPS COOKIE
  2

  3

  4

  6

  7

  8
pedro.queiros
  9

300
=
301
=
302
=
303
=
304
=
305
=
306
=
307
=
308
=
309
=
 40
0.0
 41
2459019.730428866
 42
2459019.730429352
  1

 90
        0
  0
LAYOUT
  5
1E
102
{ACAD_REACTORS
330
1A
102
}
330
1A
100
AcDbPlotSettings
  1

  2
none_device
  4

  6

 40
0.0
 41
0.0
 42
0.0
 43
0.0
 44
0.0
 45
0.0
 46
0.0
 47
0.0
 48
0.0
 49
0.0
140
0.0
141
0.0
142
1.0
143
1.0
 70
   688
 72
     1
 73
     0
 74
     5
  7

 75
    16
147
1.0
148
0.0
149
0.0
100
AcDbLayout
  1
Layout1
 70
     1
 71
     1
 10
0.0
 20
0.0
 11
420.0
 21
297.0
 12
0.0
 22
0.0
 32
0.0
 14
1.0000000000E+20
 24
1.0000000000E+20
 34
1.0000000000E+20
 15
-1.0000000000E+20
 25
-1.0000000000E+20
 35
-1.0000000000E+20
146
0.0
 13
0.0
 23
0.0
 33
0.0
 16
1.0
 26
0.0
 36
0.0
 17
0.0
 27
1.0
 37
0.0
 76
     0
330
1B
  0
LAYOUT
  5
26
102
{ACAD_REACTORS
330
1A
102
}
330
1A
100
AcDbPlotSettings
  1

  2
none_device
  4

  6

 40
0.0
 41
0.0
 42
0.0
 43
0.0
 44
0.0
 45
0.0
 46
0.0
 47
0.0
 48
0.0
 49
0.0
140
0.0
141
0.0
142
1.0
143
1.0
 70
   688
 72
     1
 73
     0
 74
     5
  7

 75
    16
147
1.0
148
0.0
149
0.0
100
AcDbLayout
  1
Layout2
 70
     1
 71
     2
 10
0.0
 20
0.0
 11
0.0
 21
0.0
 12
0.0
 22
0.0
 32
0.0
 14
0.0
 24
0.0
 34
0.0
 15
0.0
 25
0.0
 35
0.0
146
0.0
 13
0.0
 23
0.0
 33
0.0
 16
1.0
 26
0.0
 36
0.0
 17
0.0
 27
1.0
 37
0.0
 76
     0
330
23
  0
LAYOUT
  5
22
102
{ACAD_REACTORS
330
1A
102
}
330
1A
100
AcDbPlotSettings
  1

  2
none_device
  4
Letter_(8.50_x_11.00_Inches)
  6

 40
6.35
 41
6.35
 42
6.35000508
 43
6.35000508
 44
215.9
 45
279.4
 46
0.0
 47
0.0
 48
0.0
 49
0.0
140
0.0
141
0.0
142
1.0
143
1.0
 70
  1712
 72
     1
 73
     0
 74
     0
  7

 75
     0
147
1.0
148
0.0
149
0.0
100
AcDbLayout
  1
Model
 70
     1
 71
     0
 10
0.0
 20
0.0
 11
297.0
 21
210.0
 12
0.0
 22
0.0
 32
0.0
 14
0.0
 24
0.0
 34
0.0
 15
297.0
 25
210.0
 35
0.0
146
0.0
 13
0.0
 23
0.0
 33
0.0
 16
1.0
 26
0.0
 36
0.0
 17
0.0
 27
1.0
 37
0.0
 76
     0
330
1F
331
29
  0
MLINESTYLE
  5
18
102
{ACAD_REACTORS
330
17
102
}
330
17
100
AcDbMlineStyle
  2
Standard
 70
     0
  3

 62
   256
 51
90.0
 52
90.0
 71
     2
 49
0.5
 62
   256
  6
BYLAYER
 49
-0.5
 62
   256
  6
BYLAYER
  0
ACDBPLACEHOLDER
  5
F
102
{ACAD_REACTORS
330
E
102
}
330
E
  0
SCALE
  5
48
102
{ACAD_REACTORS
330
47
102
}
330
47
100
AcDbScale
 70
     0
300
1:1
140
1.0
141
1.0
290
     1
  0
SCALE
  5
49
102
{ACAD_REACTORS
330
47
102
}
330
47
100
AcDbScale
 70
     0
300
1:2
140
1.0
141
2.0
290
     0
  0
SCALE
  5
4A
102
{ACAD_REACTORS
330
47
102
}
330
47
100
AcDbScale
 70
     0
300
1:4
140
1.0
141
4.0
290
     0
  0
SCALE
  5
4B
102
{ACAD_REACTORS
330
47
102
}
330
47
100
AcDbScale
 70
     0
300
1:5
140
1.0
141
5.0
290
     0
  0
SCALE
  5
4C
102
{ACAD_REACTORS
330
47
102
}
330
47
100
AcDbScale
 70
     0
300
1:8
140
1.0
141
8.0
290
     0
  0
SCALE
  5
4D
102
{ACAD_REACTORS
330
47
102
}
330
47
100
AcDbScale
 70
     0
300
1:10
140
1.0
141
10.0
290
     0
  0
SCALE
  5
4E
102
{ACAD_REACTORS
330
47
102
}
330
47
100
AcDbScale
 70
     0
300
1:16
140
1.0
141
16.0
290
     0
  0
SCALE
  5
4F
102
{ACAD_REACTORS
330
47
102
}
330
47
100
AcDbScale
 70
     0
300
1:20
140
1.0
141
20.0
290
     0
  0
SCALE
  5
50
102
{ACAD_REACTORS
330
47
102
}
330
47
100
AcDbScale
 70
     0
300
1:30
140
1.0
141
30.0
290
     0
  0
SCALE
  5
51
102
{ACAD_REACTORS
330
47
102
}
330
47
100
AcDbScale
 70
     0
300
1:40
140
1.0
141
40.0
290
     0
  0
SCALE
  5
52
102
{ACAD_REACTORS
330
47
102
}
330
47
100
AcDbScale
 70
     0
300
1:50
140
1.0
141
50.0
290
     0
  0
SCALE
  5
53
102
{ACAD_REACTORS
330
47
102
}
330
47
100
AcDbScale
 70
     0
300
1:100
140
1.0
141
100.0
290
     0
  0
SCALE
  5
54
102
{ACAD_REACTORS
330
47
102
}
330
47
100
AcDbScale
 70
     0
300
2:1
140
2.0
141
1.0
290
     0
  0
SCALE
  5
55
102
{ACAD_REACTORS
330
47
102
}
330
47
100
AcDbScale
 70
     0
300
4:1
140
4.0
141
1.0
290
     0
  0
SCALE
  5
56
102
{ACAD_REACTORS
330
47
102
}
330
47
100
AcDbScale
 70
     0
300
8:1
140
8.0
141
1.0
290
     0
  0
SCALE
  5
57
102
{ACAD_REACTORS
330
47
102
}
330
47
100
AcDbScale
 70
     0
300
10:1
140
10.0
141
1.0
290
     0
  0
SCALE
  5
58
102
{ACAD_REACTORS
330
47
102
}
330
47
100
AcDbScale
 70
     0
300
100:1
140
100.0
141
1.0
290
     0
  0
SCALE
  5
59
102
{ACAD_REACTORS
330
47
102
}
330
47
100
AcDbScale
 70
     0
300
1/128" = 1'-0"
140
0.0078125
141
12.0
290
     0
  0
SCALE
  5
5A
102
{ACAD_REACTORS
330
47
102
}
330
47
100
AcDbScale
 70
     0
300
1/64" = 1'-0"
140
0.015625
141
12.0
290
     0
  0
SCALE
  5
5B
102
{ACAD_REACTORS
330
47
102
}
330
47
100
AcDbScale
 70
     0
300
1/32" = 1'-0"
140
0.03125
141
12.0
290
     0
  0
SCALE
  5
5C
102
{ACAD_REACTORS
330
47
102
}
330
47
100
AcDbScale
 70
     0
300
1/16" = 1'-0"
140
0.0625
141
12.0
290
     0
  0
SCALE
  5
5D
102
{ACAD_REACTORS
330
47
102
}
330
47
100
AcDbScale
 70
     0
300
3/32" = 1'-0"
140
0.09375
141
12.0
290
     0
  0
SCALE
  5
5E
102
{ACAD_REACTORS
330
47
102
}
330
47
100
AcDbScale
 70
     0
300
1/8" = 1'-0"
140
0.125
141
12.0
290
     0
  0
SCALE
  5
5F
102
{ACAD_REACTORS
330
47
102
}
330
47
100
AcDbScale
 70
     0
300
3/16" = 1'-0"
140
0.1875
141
12.0
290
     0
  0
SCALE
  5
60
102
{ACAD_REACTORS
330
47
102
}
330
47
100
AcDbScale
 70
     0
300
1/4" = 1'-0"
140
0.25
141
12.0
290
     0
  0
SCALE
  5
61
102
{ACAD_REACTORS
330
47
102
}
330
47
100
AcDbScale
 70
     0
300
3/8" = 1'-0"
140
0.375
141
12.0
290
     0
  0
SCALE
  5
62
102
{ACAD_REACTORS
330
47
102
}
330
47
100
AcDbScale
 70
     0
300
1/2" = 1'-0"
140
0.5
141
12.0
290
     0
  0
SCALE
  5
63
102
{ACAD_REACTORS
330
47
102
}
330
47
100
AcDbScale
 70
     0
300
3/4" = 1'-0"
140
0.75
141
12.0
290
     0
  0
SCALE
  5
64
102
{ACAD_REACTORS
330
47
102
}
330
47
100
AcDbScale
 70
     0
300
1" = 1'-0"
140
1.0
141
12.0
290
     0
  0
SCALE
  5
65
102
{ACAD_REACTORS
330
47
102
}
330
47
100
AcDbScale
 70
     0
300
1-1/2" = 1'-0"
140
1.5
141
12.0
290
     0
  0
SCALE
  5
66
102
{ACAD_REACTORS
330
47
102
}
330
47
100
AcDbScale
 70
     0
300
3" = 1'-0"
140
3.0
141
12.0
290
     0
  0
SCALE
  5
67
102
{ACAD_REACTORS
330
47
102
}
330
47
100
AcDbScale
 70
     0
300
6" = 1'-0"
140
6.0
141
12.0
290
     0
  0
SCALE
  5
68
102
{ACAD_REACTORS
330
47
102
}
330
47
100
AcDbScale
 70
     0
300
1'-0" = 1'-0"
140
12.0
141
12.0
290
     0
  0
ENDSEC
  0
EOF
