  0
SECTION
  2
HEADER
  9
$ACADVER
  1
AC1009
  9
$DWGCODEPAGE
  3
ansi_1252
  9
$INSBASE
 10
0.0
 20
0.0
 30
0.0
  9
$EXTMIN
 10
0.0
 20
0.0
 30
0.0
  9
$EXTMAX
 10
279.4
 20
215.9
 30
0.0
  9
$LIMMIN
 10
0.0
 20
0.0
  9
$LIMMAX
 10
279.4
 20
215.9
  9
$ORTHOMODE
 70
     0
  9
$REGENMODE
 70
     1
  9
$FILLMODE
 70
     1
  9
$QTEXTMODE
 70
     0
  9
$MIRRTEXT
 70
     1
  9
$DRAGMODE
 70
     2
  9
$LTSCALE
 40
1.0
  9
$OSMODE
 70
    37
  9
$ATTMODE
 70
     1
  9
$TEXTSIZE
 40
3.5
  9
$TRACEWID
 40
1.0
  9
$TEXTSTYLE
  7
STANDARD
  9
$CLAYER
  8
0
  9
$CELTYPE
  6
BYLAYER
  9
$CECOLOR
 62
   256
  9
$DIMSCALE
 40
1.0
  9
$DIMASZ
 40
3.302
  9
$DIMEXO
 40
1.0
  9
$DIMDLI
 40
3.75
  9
$DIMRND
 40
0.0
  9
$DIMDLE
 40
0.0
  9
$DIMEXE
 40
1.0
  9
$DIMTP
 40
0.0
  9
$DIMTM
 40
0.0
  9
$DIMTXT
 40
3.5
  9
$DIMCEN
 40
2.5
  9
$DIMTSZ
 40
0.0
  9
$DIMTOL
 70
     0
  9
$DIMLIM
 70
     0
  9
$DIMTIH
 70
     1
  9
$DIMTOH
 70
     1
  9
$DIMSE1
 70
     0
  9
$DIMSE2
 70
     0
  9
$DIMTAD
 70
     1
  9
$DIMZIN
 70
     1
  9
$DIMBLK
  1

  9
$DIMASO
 70
     1
  9
$DIMSHO
 70
     1
  9
$DIMPOST
  1

  9
$DIMAPOST
  1

  9
$DIMALT
 70
     0
  9
$DIMALTD
 70
     3
  9
$DIMALTF
 40
0.0393700787
  9
$DIMLFAC
 40
5.0
  9
$DIMTOFL
 70
     1
  9
$DIMTVP
 40
0.0
  9
$DIMTIX
 70
     0
  9
$DIMSOXD
 70
     0
  9
$DIMSAH
 70
     0
  9
$DIMBLK1
  1

  9
$DIMBLK2
  1

  9
$DIMSTYLE
  2
ISO-25
  9
$DIMCLRD
 70
     0
  9
$DIMCLRE
 70
     0
  9
$DIMCLRT
 70
     0
  9
$DIMTFAC
 40
1.0
  9
$DIMGAP
 40
1.524
  9
$LUNITS
 70
     2
  9
$LUPREC
 70
     2
  9
$SKETCHINC
 40
1.0
  9
$FILLETRAD
 40
0.0
  9
$AUNITS
 70
     0
  9
$AUPREC
 70
     2
  9
$MENU
  1
.
  9
$ELEVATION
 40
0.0
  9
$PELEVATION
 40
0.0
  9
$THICKNESS
 40
0.0
  9
$LIMCHECK
 70
     0
  9
$CHAMFERA
 40
0.0
  9
$CHAMFERB
 40
0.0
  9
$SKPOLY
 70
     0
  9
$TDCREATE
 40
2460405.515049294
  9
$TDUPDATE
 40
2460405.515049826
  9
$TDINDWG
 40
0.0000000116
  9
$TDUSRTIMER
 40
0.0000000116
  9
$USRTIMER
 70
     1
  9
$ANGBASE
 50
0.0
  9
$ANGDIR
 70
     0
  9
$PDMODE
 70
     0
  9
$PDSIZE
 40
-1.0
  9
$PLINEWID
 40
0.0
  9
$COORDS
 70
     1
  9
$SPLFRAME
 70
     0
  9
$SPLINETYPE
 70
     6
  9
$SPLINESEGS
 70
     8
  9
$ATTDIA
 70
     0
  9
$ATTREQ
 70
     1
  9
$HANDLING
 70
     1
  9
$HANDSEED
  5
24C
  9
$SURFTAB1
 70
     6
  9
$SURFTAB2
 70
     6
  9
$SURFTYPE
 70
     6
  9
$SURFU
 70
     6
  9
$SURFV
 70
     6
  9
$UCSNAME
  2

  9
$UCSORG
 10
0.0
 20
0.0
 30
0.0
  9
$UCSXDIR
 10
1.0
 20
0.0
 30
0.0
  9
$UCSYDIR
 10
0.0
 20
1.0
 30
0.0
  9
$PUCSNAME
  2

  9
$PUCSORG
 10
0.0
 20
0.0
 30
0.0
  9
$PUCSXDIR
 10
1.0
 20
0.0
 30
0.0
  9
$PUCSYDIR
 10
0.0
 20
1.0
 30
0.0
  9
$USERI1
 70
     0
  9
$USERI2
 70
     0
  9
$USERI3
 70
     0
  9
$USERI4
 70
     0
  9
$USERI5
 70
     0
  9
$USERR1
 40
0.0
  9
$USERR2
 40
0.0
  9
$USERR3
 40
0.0
  9
$USERR4
 40
0.0
  9
$USERR5
 40
0.0
  9
$WORLDVIEW
 70
     1
  9
$SHADEDGE
 70
     3
  9
$SHADEDIF
 70
    70
  9
$TILEMODE
 70
     1
  9
$MAXACTVP
 70
    64
  9
$PLIMCHECK
 70
     0
  9
$PEXTMIN
 10
1.0000000000E+20
 20
1.0000000000E+20
 30
1.0000000000E+20
  9
$PEXTMAX
 10
-1.0000000000E+20
 20
-1.0000000000E+20
 30
-1.0000000000E+20
  9
$PLIMMIN
 10
0.0
 20
0.0
  9
$PLIMMAX
 10
420.0
 20
297.0
  9
$UNITMODE
 70
     0
  9
$VISRETAIN
 70
     1
  9
$PLINEGEN
 70
     0
  9
$PSLTSCALE
 70
     1
  0
ENDSEC
  0
SECTION
  2
TABLES
  0
TABLE
  2
VPORT
 70
     1
  0
VPORT
  2
*ACTIVE
 70
     0
 10
0.0
 20
0.0
 11
1.0
 21
1.0
 12
139.7
 22
107.95
 13
0.0
 23
0.0
 14
10.0
 24
10.0
 15
10.0
 25
10.0
 16
0.0
 26
0.0
 36
1.0
 17
0.0
 27
0.0
 37
0.0
 40
215.9
 41
1.2941176471
 42
50.0
 43
0.0
 44
0.0
 50
0.0
 51
0.0
 71
     0
 72
  2000
 73
     1
 74
     3
 75
     0
 76
     0
 77
     0
 78
     0
  0
ENDTAB
  0
TABLE
  2
LTYPE
 70
     6
  0
LTYPE
  2
CONTINUOUS
 70
     0
  3
Solid line
 72
    65
 73
     0
 40
0.0
  0
LTYPE
  2
HIDDEN
 70
     0
  3
Hidden __ __ __ __ __ __ __ __ __ __ __ __ __ __
 72
    65
 73
     2
 40
1.905
 49
1.27
 49
-0.635
  0
LTYPE
  2
PHANTOM
 70
     0
  3
Phantom ______  __  __  ______  __  __  ______
 72
    65
 73
     6
 40
12.7
 49
6.35
 49
-1.27
 49
1.27
 49
-1.27
 49
1.27
 49
-1.27
  0
LTYPE
  2
CENTER
 70
     0
  3
Center ____ _ ____ _ ____ _ ____ _ ____ _ ____
 72
    65
 73
     4
 40
10.16
 49
6.35
 49
-1.27
 49
1.27
 49
-1.27
  0
LTYPE
  2
CENTERX2
 70
     0
  3
Center (2x) ________  __  ________  __  _____
 72
    65
 73
     4
 40
20.32
 49
12.7
 49
-2.54
 49
2.54
 49
-2.54
  0
LTYPE
  2
DOT2
 70
     0
  3
Dot (.5x) ........................................
 72
    65
 73
     2
 40
0.635
 49
0.0
 49
-0.635
  0
ENDTAB
  0
TABLE
  2
LAYER
 70
     1
  0
LAYER
  2
0
 70
     0
 62
     7
  6
CONTINUOUS
  0
ENDTAB
  0
TABLE
  2
STYLE
 70
     1
  0
STYLE
  2
STANDARD
 70
     0
 40
0.0
 41
1.0
 50
0.0
 71
     0
 42
3.5
  3
txt
  4

  0
ENDTAB
  0
TABLE
  2
VIEW
 70
     0
  0
ENDTAB
  0
TABLE
  2
UCS
 70
     0
  0
ENDTAB
  0
TABLE
  2
APPID
 70
     1
  0
APPID
  2
ACAD
 70
     0
  0
ENDTAB
  0
TABLE
  2
DIMSTYLE
 70
     1
  0
DIMSTYLE
  2
ISO-25
 70
     0
  3

  4

  5

  6

  7

 40
1.0
 41
2.5
 42
0.625
 43
3.75
 44
1.25
 45
0.0
 46
0.0
 47
0.0
 48
0.0
140
2.5
141
2.5
142
0.0
143
0.0393700787
144
1.0
145
0.0
146
1.0
147
0.625
 71
     0
 72
     0
 73
     0
 74
     0
 75
     0
 76
     0
 77
     1
 78
     8
170
     0
171
     3
172
     1
173
     0
174
     0
175
     0
176
     0
177
     0
178
     0
  0
ENDTAB
  0
ENDSEC
  0
SECTION
  2
BLOCKS
  0
BLOCK
  8
0
  2
$MODEL_SPACE
 70
     0
 10
0.0
 20
0.0
 30
0.0
  3
$MODEL_SPACE
  1

  0
ENDBLK
  5
21
  8
0
  0
BLOCK
 67
     1
  8
0
  2
$PAPER_SPACE
 70
     0
 10
0.0
 20
0.0
 30
0.0
  3
$PAPER_SPACE
  1

  0
ENDBLK
  5
1D
 67
     1
  8
0
  0
ENDSEC
  0
SECTION
  2
ENTITIES
  0
ARC
  5
63
  8
0
  6
CONTINUOUS
 62
     7
 10
78.7675007519
 20
160.1086842105
 30
0.0
 40
10.25
 50
0.0
 51
60.8035955904
  0
ARC
  5
64
  8
0
  6
CONTINUOUS
 62
     7
 10
78.7675007519
 20
160.1086842105
 30
0.0
 40
10.25
 50
119.1964044096
 51
240.8035955904
  0
ARC
  5
65
  8
0
  6
CONTINUOUS
 62
     7
 10
78.7675007519
 20
160.1086842105
 30
0.0
 40
10.25000000000001
 50
299.1964044096
 51
0.0
  0
ARC
  5
66
  8
0
  6
CONTINUOUS
 62
     7
 10
66.2675007519
 20
130.1086842105
 30
0.0
 40
5.000000000000007
 50
180.0
 51
270.0
  0
LINE
  5
67
  8
0
  6
CONTINUOUS
 62
     7
 10
61.2675007519
 20
190.1086842105
 30
0.0
 11
61.2675007519
 21
130.1086842105
 31
0.0
  0
LINE
  5
68
  8
0
  6
CONTINUOUS
 62
     7
 10
91.2675007519
 20
195.1086842105
 30
0.0
 11
66.2675007519
 21
195.1086842105
 31
0.0
  0
ARC
  5
69
  8
0
  6
CONTINUOUS
 62
     7
 10
91.2675007519
 20
190.1086842105
 30
0.0
 40
5.000000000000014
 50
0.0
 51
90.0
  0
LINE
  5
6A
  8
0
  6
CONTINUOUS
 62
     7
 10
96.2675007519
 20
130.1086842105
 30
0.0
 11
96.2675007519
 21
190.1086842105
 31
0.0
  0
ARC
  5
6B
  8
0
  6
CONTINUOUS
 62
     7
 10
91.2675007519
 20
130.1086842105
 30
0.0
 40
5.000000000000014
 50
270.0
 51
0.0
  0
LINE
  5
6C
  8
0
  6
CONTINUOUS
 62
     7
 10
66.2675007519
 20
125.1086842105
 30
0.0
 11
73.7675007519
 21
125.1086842105
 31
0.0
  0
LINE
  5
6D
  8
0
  6
CONTINUOUS
 62
     7
 10
83.7675007519
 20
125.1086842105
 30
0.0
 11
91.2675007519
 21
125.1086842105
 31
0.0
  0
ARC
  5
6E
  8
0
  6
CONTINUOUS
 62
     7
 10
66.2675007519
 20
190.1086842105
 30
0.0
 40
5.0
 50
90.0
 51
180.0
  0
ARC
  5
6F
  8
0
  6
CONTINUOUS
 62
     7
 10
78.7675007519
 20
160.1086842105
 30
0.0
 40
10.10000000000001
 50
0.0
 51
60.3269851975
  0
ARC
  5
70
  8
0
  6
CONTINUOUS
 62
     7
 10
78.7675007519
 20
160.1086842105
 30
0.0
 40
10.1
 50
119.6730148025
 51
240.3269851975
  0
ARC
  5
71
  8
0
  6
CONTINUOUS
 62
     7
 10
78.7675007519
 20
160.1086842105
 30
0.0
 40
10.10000000000001
 50
299.6730148025
 51
0.0
  0
LINE
  5
72
  8
0
  6
CONTINUOUS
 62
     7
 10
73.7665007519
 20
165.6692334284
 30
0.0
 11
73.7675007519
 21
165.6692334284
 31
0.0
  0
LINE
  5
73
  8
0
  6
CONTINUOUS
 62
     7
 10
73.7665007519
 20
170.1692334284
 30
0.0
 11
73.7665007519
 21
165.6692334284
 31
0.0
  0
LINE
  5
74
  8
0
  6
CONTINUOUS
 62
     7
 10
73.7665007519
 20
170.1692334284
 30
0.0
 11
73.7675007519
 21
170.1692334284
 31
0.0
  0
LINE
  5
75
  8
0
  6
CONTINUOUS
 62
     7
 10
73.7665007519
 20
161.1692334284
 30
0.0
 11
73.7675007519
 21
161.1692334284
 31
0.0
  0
LINE
  5
76
  8
0
  6
CONTINUOUS
 62
     7
 10
73.7665007519
 20
165.6692334284
 30
0.0
 11
73.7665007519
 21
161.1692334284
 31
0.0
  0
LINE
  5
77
  8
0
  6
CONTINUOUS
 62
     7
 10
83.7675007519
 20
50.1086842105
 30
0.0
 11
78.7675007519
 21
50.1086842105
 31
0.0
  0
LINE
  5
78
  8
0
  6
CONTINUOUS
 62
     7
 10
78.7675007519
 20
50.1086842105
 30
0.0
 11
78.7675007519
 21
175.1086842105
 31
0.0
  0
LINE
  5
79
  8
0
  6
CONTINUOUS
 62
     7
 10
83.7675007519
 20
175.1086842105
 30
0.0
 11
78.7675007519
 21
175.1086842105
 31
0.0
  0
LINE
  5
7A
  8
0
  6
CONTINUOUS
 62
     7
 10
83.7675007519
 20
175.1086842105
 30
0.0
 11
83.7675007519
 21
50.1086842105
 31
0.0
  0
LINE
  5
7B
  8
0
  6
CONTINUOUS
 62
     7
 10
78.7675007519
 20
50.1086842105
 30
0.0
 11
73.7675007519
 21
50.1086842105
 31
0.0
  0
LINE
  5
7C
  8
0
  6
CONTINUOUS
 62
     7
 10
73.7675007519
 20
50.1086842105
 30
0.0
 11
73.7675007519
 21
175.1086842105
 31
0.0
  0
LINE
  5
7D
  8
0
  6
CONTINUOUS
 62
     7
 10
78.7675007519
 20
175.1086842105
 30
0.0
 11
73.7675007519
 21
175.1086842105
 31
0.0
  0
LINE
  5
7E
  8
0
  6
CONTINUOUS
 62
     7
 10
78.7675007519
 20
175.1086842105
 30
0.0
 11
78.7675007519
 21
185.1086842105
 31
0.0
  0
LINE
  5
7F
  8
0
  6
CONTINUOUS
 62
     7
 10
73.7675007519
 20
175.1086842105
 30
0.0
 11
73.7675007519
 21
180.1086842105
 31
0.0
  0
ARC
  5
80
  8
0
  6
CONTINUOUS
 62
     7
 10
78.7675007519
 20
180.1086842105
 30
0.0
 40
5.0
 50
90.0
 51
180.0
  0
ARC
  5
81
  8
0
  6
CONTINUOUS
 62
     7
 10
78.7675007519
 20
180.1086842105
 30
0.0
 40
5.000000000000014
 50
0.0
 51
90.0
  0
LINE
  5
82
  8
0
  6
CONTINUOUS
 62
     7
 10
83.7675007519
 20
180.1086842105
 30
0.0
 11
83.7675007519
 21
175.1086842105
 31
0.0
  0
ARC
  5
83
  8
0
  6
CONTINUOUS
 62
     7
 10
78.7675007519
 20
45.1086842105
 30
0.0
 40
5.0
 50
270.0
 51
0.0
  0
LINE
  5
84
  8
0
  6
CONTINUOUS
 62
     7
 10
78.7675007519
 20
40.1086842105
 30
0.0
 11
78.7675007519
 21
50.1086842105
 31
0.0
  0
LINE
  5
85
  8
0
  6
CONTINUOUS
 62
     7
 10
83.7675007519
 20
50.1086842105
 30
0.0
 11
83.7675007519
 21
45.1086842105
 31
0.0
  0
ARC
  5
86
  8
0
  6
CONTINUOUS
 62
     7
 10
78.7675007519
 20
45.1086842105
 30
0.0
 40
5.0
 50
180.0
 51
270.0
  0
LINE
  5
87
  8
0
  6
CONTINUOUS
 62
     7
 10
73.7675007519
 20
45.1086842105
 30
0.0
 11
73.7675007519
 21
50.1086842105
 31
0.0
  0
LINE
  5
88
  8
0
  6
CONTINUOUS
 62
     7
 10
208.5073408
 20
143.1086842105
 30
0.0
 11
203.5073408
 21
143.1086842105
 31
0.0
  0
LINE
  5
89
  8
0
  6
CONTINUOUS
 62
     7
 10
203.5073408
 20
134.1086842105
 30
0.0
 11
208.5073408
 21
134.1086842105
 31
0.0
  0
LINE
  5
8A
  8
0
  6
CONTINUOUS
 62
     7
 10
208.5073408
 20
186.1086842105
 30
0.0
 11
203.5073408
 21
186.1086842105
 31
0.0
  0
LINE
  5
8B
  8
0
  6
CONTINUOUS
 62
     7
 10
203.5073408
 20
177.1086842105
 30
0.0
 11
208.5073408
 21
177.1086842105
 31
0.0
  0
LINE
  5
8C
  8
0
  6
CONTINUOUS
 62
     7
 10
222.0073408
 20
150.3586842105
 30
0.0
 11
222.1073408
 21
150.4586842105
 31
0.0
  0
LINE
  5
8D
  8
0
  6
CONTINUOUS
 62
     7
 10
222.1073408
 20
169.7586842105
 30
0.0
 11
222.0073408
 21
169.8586842105
 31
0.0
  0
LINE
  5
8E
  8
0
  6
CONTINUOUS
 62
     7
 10
208.5073408
 20
166.3586842105
 30
0.0
 11
202.6073408
 21
166.3586842105
 31
0.0
  0
LINE
  5
8F
  8
0
  6
CONTINUOUS
 62
     7
 10
202.6073408
 20
153.8586842105
 30
0.0
 11
208.5073408
 21
153.8586842105
 31
0.0
  0
LINE
  5
90
  8
0
  6
CONTINUOUS
 62
     7
 10
222.1073408
 20
150.0086842105
 30
0.0
 11
223.1073408
 21
150.0086842105
 31
0.0
  0
LINE
  5
91
  8
0
  6
CONTINUOUS
 62
     7
 10
223.1073408
 20
170.2086842105
 30
0.0
 11
222.1073408
 21
170.2086842105
 31
0.0
  0
LINE
  5
92
  8
0
  6
CONTINUOUS
 62
     7
 10
234.056592643
 20
147.2766972554
 30
0.0
 11
234.4151881524
 21
147.143658842
 31
0.0
  0
POLYLINE
  5
93
  8
0
  6
CONTINUOUS
 62
     7
 66
     1
 10
0.0
 20
0.0
 30
0.0
 70
   128
  0
VERTEX
  5
1B4
  8
0
  6
CONTINUOUS
 62
     7
 10
228.7987711284
 20
147.143227512
 30
0.0
  0
VERTEX
  5
1B5
  8
0
  6
CONTINUOUS
 62
     7
 10
228.9781143382
 20
147.2097520767
 30
0.0
  0
VERTEX
  5
1B6
  8
0
  6
CONTINUOUS
 62
     7
 10
229.1574576408
 20
147.2762766529
 30
0.0
  0
SEQEND
  5
239
  8
0
  6
CONTINUOUS
 62
     7
  0
POLYLINE
  5
94
  8
0
  6
CONTINUOUS
 62
     7
 66
     1
 10
0.0
 20
0.0
 30
0.0
 70
   128
  0
VERTEX
  5
1B7
  8
0
  6
CONTINUOUS
 62
     7
 10
234.0572239592
 20
147.2762766529
 30
0.0
  0
VERTEX
  5
1B8
  8
0
  6
CONTINUOUS
 62
     7
 10
234.2365672618
 20
147.2097520767
 30
0.0
  0
VERTEX
  5
1B9
  8
0
  6
CONTINUOUS
 62
     7
 10
234.4159104716
 20
147.143227512
 30
0.0
  0
SEQEND
  5
23A
  8
0
  6
CONTINUOUS
 62
     7
  0
LINE
  5
95
  8
0
  6
CONTINUOUS
 62
     7
 10
210.0073408
 20
176.6086842105
 30
0.0
 11
208.5073408
 21
176.6086842105
 31
0.0
  0
LINE
  5
96
  8
0
  6
CONTINUOUS
 62
     7
 10
208.5073408
 20
143.6086842105
 30
0.0
 11
210.0073408
 21
143.6086842105
 31
0.0
  0
LINE
  5
97
  8
0
  6
CONTINUOUS
 62
     7
 10
208.5073408
 20
176.6086842105
 30
0.0
 11
208.5073408
 21
143.6086842105
 31
0.0
  0
LINE
  5
98
  8
0
  6
CONTINUOUS
 62
     7
 10
208.5073408
 20
129.1173074643
 30
0.0
 11
210.0073408
 21
129.1173074643
 31
0.0
  0
LINE
  5
99
  8
0
  6
CONTINUOUS
 62
     7
 10
208.5073408
 20
129.1173074643
 30
0.0
 11
208.5073408
 21
143.6086842105
 31
0.0
  0
LINE
  5
9A
  8
0
  6
CONTINUOUS
 62
     7
 10
210.0073408
 20
191.1000609567
 30
0.0
 11
208.5073408
 21
191.1000609567
 31
0.0
  0
LINE
  5
9B
  8
0
  6
CONTINUOUS
 62
     7
 10
208.5073408
 20
176.6086842105
 30
0.0
 11
208.5073408
 21
191.1000609567
 31
0.0
  0
LINE
  5
9C
  8
0
  6
CONTINUOUS
 62
     7
 10
207.1070946069
 20
160.0815085098
 30
0.0
 11
206.6036669958
 21
160.0230447826
 31
0.0
  0
ARC
  5
9D
  8
0
  6
CONTINUOUS
 62
     7
 10
205.6073408
 20
160.1086842105
 30
0.0
 40
1.500000000000018
 50
14.2864192222
 51
194.7780148661
  0
LINE
  5
9E
  8
0
  6
CONTINUOUS
 62
     7
 10
207.1034487455
 20
160.0006980295
 30
0.0
 11
207.1070946069
 21
160.0815085098
 31
0.0
  0
LINE
  5
9F
  8
0
  6
CONTINUOUS
 62
     7
 10
206.5575245642
 20
160.4203744644
 30
0.0
 11
207.0609521753
 21
160.4788381915
 31
0.0
  0
ARC
  5
A0
  8
0
  6
CONTINUOUS
 62
     7
 10
205.6073408
 20
160.1086842105
 30
0.0
 40
0.999999999999991
 50
18.1611225943
 51
355.0872045286
  0
LINE
  5
A1
  8
0
  6
CONTINUOUS
 62
     7
 10
210.0073408
 20
128.8586842105
 30
0.0
 11
210.0073408
 21
143.1086842105
 31
0.0
  0
LINE
  5
A2
  8
0
  6
CONTINUOUS
 62
     7
 10
210.0073408
 20
143.1086842105
 30
0.0
 11
219.0073408
 21
143.1086842105
 31
0.0
  0
LINE
  5
A3
  8
0
  6
CONTINUOUS
 62
     7
 10
219.0073408
 20
130.0564332625
 30
0.0
 11
219.0073408
 21
143.1086842105
 31
0.0
  0
LINE
  5
A4
  8
0
  6
CONTINUOUS
 62
     7
 10
211.434204689
 20
128.8586842105
 30
0.0
 11
219.0073408
 21
130.0564332625
 31
0.0
  0
LINE
  5
A5
  8
0
  6
CONTINUOUS
 62
     7
 10
210.0073408
 20
128.8586842105
 30
0.0
 11
211.434204689
 21
128.8586842105
 31
0.0
  0
LINE
  5
A6
  8
0
  6
CONTINUOUS
 62
     7
 10
219.0073408
 20
177.1086842105
 30
0.0
 11
210.0073408
 21
177.1086842105
 31
0.0
  0
LINE
  5
A7
  8
0
  6
CONTINUOUS
 62
     7
 10
219.0073408
 20
143.1086842105
 30
0.0
 11
219.0073408
 21
177.1086842105
 31
0.0
  0
LINE
  5
A8
  8
0
  6
CONTINUOUS
 62
     7
 10
210.0073408
 20
143.1086842105
 30
0.0
 11
210.0073408
 21
177.1086842105
 31
0.0
  0
LINE
  5
A9
  8
0
  6
CONTINUOUS
 62
     7
 10
210.0073408
 20
191.3586842105
 30
0.0
 11
211.434204689
 21
191.3586842105
 31
0.0
  0
LINE
  5
AA
  8
0
  6
CONTINUOUS
 62
     7
 10
219.0073408
 20
190.1609351586
 30
0.0
 11
211.434204689
 21
191.3586842105
 31
0.0
  0
LINE
  5
AB
  8
0
  6
CONTINUOUS
 62
     7
 10
219.0073408
 20
177.1086842105
 30
0.0
 11
219.0073408
 21
190.1609351586
 31
0.0
  0
LINE
  5
AC
  8
0
  6
CONTINUOUS
 62
     7
 10
210.0073408
 20
177.1086842105
 30
0.0
 11
210.0073408
 21
191.3586842105
 31
0.0
  0
ARC
  5
AD
  8
0
  6
CONTINUOUS
 62
     7
 10
219.0476008741
 20
189.2010331553
 30
0.0
 40
0.9607459234565576
 50
2.6222235988
 51
92.4016838604
  0
LINE
  5
AE
  8
0
  6
CONTINUOUS
 62
     7
 10
219.0073408
 20
177.1086842105
 30
0.0
 11
220.0073408
 21
177.1086842105
 31
0.0
  0
LINE
  5
AF
  8
0
  6
CONTINUOUS
 62
     7
 10
219.0073408
 20
143.1086842105
 30
0.0
 11
220.0073408
 21
143.1086842105
 31
0.0
  0
ARC
  5
B0
  8
0
  6
CONTINUOUS
 62
     7
 10
219.0476008741
 20
131.0163352657
 30
0.0
 40
0.9607459234565731
 50
267.5983161396
 51
357.3777764012
  0
ARC
  5
B1
  8
0
  6
CONTINUOUS
 62
     7
 10
219.1500779403
 20
130.1584402529
 30
0.0
 40
0.1754403525414737
 50
215.5514676699
 51
270.9003765727
  0
LINE
  5
B2
  8
0
  6
CONTINUOUS
 62
     7
 10
219.1528347905
 20
129.9830215621
 30
0.0
 11
211.5796986795
 21
128.8693250752
 31
0.0
  0
ARC
  5
B3
  8
0
  6
CONTINUOUS
 62
     7
 10
211.434204689
 20
129.8586842105
 30
0.0
 40
1.0
 50
270.0
 51
278.365886124
  0
ARC
  5
B4
  8
0
  6
CONTINUOUS
 62
     7
 10
211.434204689
 20
190.3586842105
 30
0.0
 40
1.0
 50
81.634113876
 51
90.0
  0
LINE
  5
B5
  8
0
  6
CONTINUOUS
 62
     7
 10
211.5796986795
 20
191.3480433459
 30
0.0
 11
219.1528347905
 21
190.234346859
 31
0.0
  0
ARC
  5
B6
  8
0
  6
CONTINUOUS
 62
     7
 10
219.1500779403
 20
190.0589281682
 30
0.0
 40
0.1754403525412093
 50
89.0996234272
 51
144.4485323301
  0
ARC
  5
B7
  8
0
  6
CONTINUOUS
 62
     7
 10
219.0073408
 20
130.9723806974
 30
0.0
 40
1.000000000000001
 50
278.365886124
 51
0.0
  0
ARC
  5
B8
  8
0
  6
CONTINUOUS
 62
     7
 10
219.0073408
 20
189.2449877236
 30
0.0
 40
1.000000000000001
 50
0.0
 51
81.634113876
  0
LINE
  5
B9
  8
0
  6
CONTINUOUS
 62
     7
 10
203.5073408
 20
138.6086842105
 30
0.0
 11
203.5073408
 21
143.1086842105
 31
0.0
  0
LINE
  5
BA
  8
0
  6
CONTINUOUS
 62
     7
 10
203.5073408
 20
134.1086842105
 30
0.0
 11
203.5073408
 21
138.6086842105
 31
0.0
  0
LINE
  5
BB
  8
0
  6
CONTINUOUS
 62
     7
 10
203.5073408
 20
181.6086842105
 30
0.0
 11
203.5073408
 21
186.1086842105
 31
0.0
  0
LINE
  5
BC
  8
0
  6
CONTINUOUS
 62
     7
 10
203.5073408
 20
177.1086842105
 30
0.0
 11
203.5073408
 21
181.6086842105
 31
0.0
  0
CIRCLE
  5
BD
  8
0
  6
CONTINUOUS
 62
     7
 10
205.6073408
 20
160.1086842105
 30
0.0
 40
1.500000000000057
  0
LINE
  5
BE
  8
0
  6
CONTINUOUS
 62
     7
 10
202.6073408
 20
153.8586842105
 30
0.0
 11
202.6073408
 21
166.3586842105
 31
0.0
  0
LINE
  5
BF
  8
0
  6
CONTINUOUS
 62
     7
 10
222.0073408
 20
125.1086842105
 30
0.0
 11
220.0073408
 21
125.1086842105
 31
0.0
  0
LINE
  5
C0
  8
0
  6
CONTINUOUS
 62
     7
 10
220.0073408
 20
125.1086842105
 30
0.0
 11
220.0073408
 21
130.1086842105
 31
0.0
  0
LINE
  5
C1
  8
0
  6
CONTINUOUS
 62
     7
 10
220.0073408
 20
130.1086842105
 30
0.0
 11
222.0073408
 21
130.1086842105
 31
0.0
  0
LINE
  5
C2
  8
0
  6
CONTINUOUS
 62
     7
 10
222.0073408
 20
130.1086842105
 30
0.0
 11
222.0073408
 21
125.1086842105
 31
0.0
  0
LINE
  5
C3
  8
0
  6
CONTINUOUS
 62
     7
 10
222.0073408
 20
190.1086842105
 30
0.0
 11
220.0073408
 21
190.1086842105
 31
0.0
  0
LINE
  5
C4
  8
0
  6
CONTINUOUS
 62
     7
 10
220.0073408
 20
195.1086842105
 30
0.0
 11
222.0073408
 21
195.1086842105
 31
0.0
  0
LINE
  5
C5
  8
0
  6
CONTINUOUS
 62
     7
 10
222.0073408
 20
195.1086842105
 30
0.0
 11
222.0073408
 21
190.1086842105
 31
0.0
  0
LINE
  5
C6
  8
0
  6
CONTINUOUS
 62
     7
 10
220.0073408
 20
190.1086842105
 30
0.0
 11
220.0073408
 21
195.1086842105
 31
0.0
  0
LINE
  5
C7
  8
0
  6
CONTINUOUS
 62
     7
 10
222.0073408
 20
190.1086842105
 30
0.0
 11
222.0073408
 21
130.1086842105
 31
0.0
  0
LINE
  5
C8
  8
0
  6
CONTINUOUS
 62
     7
 10
220.0073408
 20
190.1086842105
 30
0.0
 11
220.0073408
 21
130.1086842105
 31
0.0
  0
LINE
  5
C9
  8
0
  6
CONTINUOUS
 62
     7
 10
222.1073408
 20
170.2086842105
 30
0.0
 11
222.1073408
 21
150.0086842105
 31
0.0
  0
LINE
  5
CA
  8
0
  6
CONTINUOUS
 62
     7
 10
223.1073408
 20
168.8842183823
 30
0.0
 11
223.1073408
 21
151.2955592105
 31
0.0
  0
LINE
  5
CB
  8
0
  6
CONTINUOUS
 62
     7
 10
148.5073408
 20
160.1086842105
 30
0.0
 11
148.5073408
 21
156.6086842105
 31
0.0
  0
ARC
  5
CC
  8
0
  6
CONTINUOUS
 62
     7
 10
154.8412995444
 20
160.6820432943
 30
0.0
 40
6.35985644606041
 50
185.1723995885
 51
219.8276004115
  0
LINE
  5
CD
  8
0
  6
CONTINUOUS
 62
     7
 10
148.5073408
 20
156.6086842105
 30
0.0
 11
149.9570882683
 21
156.6086842105
 31
0.0
  0
ARC
  5
CE
  8
0
  6
CONTINUOUS
 62
     7
 10
154.6925939512
 20
159.5969210003
 30
0.0
 40
6.206388493186487
 50
139.7298363449
 51
175.2701636551
  0
LINE
  5
CF
  8
0
  6
CONTINUOUS
 62
     7
 10
202.6073408
 20
163.6086842105
 30
0.0
 11
149.9570882683
 21
163.6086842105
 31
0.0
  0
LINE
  5
D0
  8
0
  6
CONTINUOUS
 62
     7
 10
202.6073408
 20
156.6086842105
 30
0.0
 11
149.9570882683
 21
156.6086842105
 31
0.0
  0
LINE
  5
D1
  8
0
  6
CONTINUOUS
 62
     7
 10
148.5073408
 20
160.1086842105
 30
0.0
 11
148.5073408
 21
163.6086842105
 31
0.0
  0
LINE
  5
D2
  8
0
  6
CONTINUOUS
 62
     7
 10
149.9570882683
 20
163.6086842105
 30
0.0
 11
148.5073408
 21
163.6086842105
 31
0.0
  0
POLYLINE
  5
D3
  8
0
  6
CONTINUOUS
 62
     7
 66
     1
 10
0.0
 20
0.0
 30
0.0
 70
   128
  0
VERTEX
  5
1BA
  8
0
  6
CONTINUOUS
 62
     7
 10
231.9319408
 20
161.3417334284
 30
0.0
  0
VERTEX
  5
1BB
  8
0
  6
CONTINUOUS
 62
     7
 10
231.4562947062
 20
161.4296697565
 30
0.0
  0
VERTEX
  5
1BC
  8
0
  6
CONTINUOUS
 62
     7
 10
231.0132408
 20
161.6818678034
 30
0.0
  0
VERTEX
  5
1BD
  8
0
  6
CONTINUOUS
 62
     7
 10
230.6122806437
 20
162.0809111627
 30
0.0
  0
VERTEX
  5
1BE
  8
0
  6
CONTINUOUS
 62
     7
 10
230.2629158
 20
162.6093834284
 30
0.0
  0
VERTEX
  5
1BF
  8
0
  6
CONTINUOUS
 62
     7
 10
229.7569783
 20
163.9849490534
 30
0.0
  0
VERTEX
  5
1C0
  8
0
  6
CONTINUOUS
 62
     7
 10
229.5714408
 20
165.6692334284
 30
0.0
  0
SEQEND
  5
23B
  8
0
  6
CONTINUOUS
 62
     7
  0
POLYLINE
  5
D4
  8
0
  6
CONTINUOUS
 62
     7
 66
     1
 10
0.0
 20
0.0
 30
0.0
 70
   128
  0
VERTEX
  5
1C1
  8
0
  6
CONTINUOUS
 62
     7
 10
234.2924408
 20
165.6692334284
 30
0.0
  0
VERTEX
  5
1C2
  8
0
  6
CONTINUOUS
 62
     7
 10
234.1069033
 20
163.9849490534
 30
0.0
  0
VERTEX
  5
1C3
  8
0
  6
CONTINUOUS
 62
     7
 10
233.6009658
 20
162.6093834284
 30
0.0
  0
VERTEX
  5
1C4
  8
0
  6
CONTINUOUS
 62
     7
 10
233.2516009562
 20
162.0809111627
 30
0.0
  0
VERTEX
  5
1C5
  8
0
  6
CONTINUOUS
 62
     7
 10
232.8506408
 20
161.6818678034
 30
0.0
  0
VERTEX
  5
1C6
  8
0
  6
CONTINUOUS
 62
     7
 10
232.4075868937
 20
161.4296697565
 30
0.0
  0
VERTEX
  5
1C7
  8
0
  6
CONTINUOUS
 62
     7
 10
231.9319408
 20
161.3417334284
 30
0.0
  0
SEQEND
  5
23C
  8
0
  6
CONTINUOUS
 62
     7
  0
POLYLINE
  5
D5
  8
0
  6
CONTINUOUS
 62
     7
 66
     1
 10
0.0
 20
0.0
 30
0.0
 70
   128
  0
VERTEX
  5
1C8
  8
0
  6
CONTINUOUS
 62
     7
 10
231.9319408
 20
169.9967334284
 30
0.0
  0
VERTEX
  5
1C9
  8
0
  6
CONTINUOUS
 62
     7
 10
232.4075868937
 20
169.9087971002
 30
0.0
  0
VERTEX
  5
1CA
  8
0
  6
CONTINUOUS
 62
     7
 10
232.8506408
 20
169.6565990534
 30
0.0
  0
VERTEX
  5
1CB
  8
0
  6
CONTINUOUS
 62
     7
 10
233.2516009562
 20
169.257555694
 30
0.0
  0
VERTEX
  5
1CC
  8
0
  6
CONTINUOUS
 62
     7
 10
233.6009658
 20
168.7290834284
 30
0.0
  0
VERTEX
  5
1CD
  8
0
  6
CONTINUOUS
 62
     7
 10
234.1069033
 20
167.3535178034
 30
0.0
  0
VERTEX
  5
1CE
  8
0
  6
CONTINUOUS
 62
     7
 10
234.2924408
 20
165.6692334284
 30
0.0
  0
SEQEND
  5
23D
  8
0
  6
CONTINUOUS
 62
     7
  0
POLYLINE
  5
D6
  8
0
  6
CONTINUOUS
 62
     7
 66
     1
 10
0.0
 20
0.0
 30
0.0
 70
   128
  0
VERTEX
  5
1CF
  8
0
  6
CONTINUOUS
 62
     7
 10
229.5714408
 20
165.6692334284
 30
0.0
  0
VERTEX
  5
1D0
  8
0
  6
CONTINUOUS
 62
     7
 10
229.7569783
 20
167.3535178034
 30
0.0
  0
VERTEX
  5
1D1
  8
0
  6
CONTINUOUS
 62
     7
 10
230.2629158
 20
168.7290834284
 30
0.0
  0
VERTEX
  5
1D2
  8
0
  6
CONTINUOUS
 62
     7
 10
230.6122806437
 20
169.257555694
 30
0.0
  0
VERTEX
  5
1D3
  8
0
  6
CONTINUOUS
 62
     7
 10
231.0132408
 20
169.6565990534
 30
0.0
  0
VERTEX
  5
1D4
  8
0
  6
CONTINUOUS
 62
     7
 10
231.4562947062
 20
169.9087971002
 30
0.0
  0
VERTEX
  5
1D5
  8
0
  6
CONTINUOUS
 62
     7
 10
231.9319408
 20
169.9967334284
 30
0.0
  0
SEQEND
  5
23E
  8
0
  6
CONTINUOUS
 62
     7
  0
POLYLINE
  5
D7
  8
0
  6
CONTINUOUS
 62
     7
 66
     1
 10
0.0
 20
0.0
 30
0.0
 70
   128
  0
VERTEX
  5
1D6
  8
0
  6
CONTINUOUS
 62
     7
 10
229.4043408
 20
165.6692334284
 30
0.0
  0
VERTEX
  5
1D7
  8
0
  6
CONTINUOUS
 62
     7
 10
229.6030079875
 20
167.4206756159
 30
0.0
  0
VERTEX
  5
1D8
  8
0
  6
CONTINUOUS
 62
     7
 10
230.1447533
 20
168.8510709284
 30
0.0
  0
VERTEX
  5
1D9
  8
0
  6
CONTINUOUS
 62
     7
 10
230.5188476359
 20
169.4006035455
 30
0.0
  0
VERTEX
  5
1DA
  8
0
  6
CONTINUOUS
 62
     7
 10
230.9481923625
 20
169.8155474909
 30
0.0
  0
VERTEX
  5
1DB
  8
0
  6
CONTINUOUS
 62
     7
 10
231.4226144328
 20
170.0777937799
 30
0.0
  0
VERTEX
  5
1DC
  8
0
  6
CONTINUOUS
 62
     7
 10
231.9319408
 20
170.1692334284
 30
0.0
  0
SEQEND
  5
23F
  8
0
  6
CONTINUOUS
 62
     7
  0
POLYLINE
  5
D8
  8
0
  6
CONTINUOUS
 62
     7
 66
     1
 10
0.0
 20
0.0
 30
0.0
 70
   128
  0
VERTEX
  5
1DD
  8
0
  6
CONTINUOUS
 62
     7
 10
231.9319408
 20
170.1692334284
 30
0.0
  0
VERTEX
  5
1DE
  8
0
  6
CONTINUOUS
 62
     7
 10
232.4412671672
 20
170.0777937799
 30
0.0
  0
VERTEX
  5
1DF
  8
0
  6
CONTINUOUS
 62
     7
 10
232.9156892375
 20
169.8155474909
 30
0.0
  0
VERTEX
  5
1E0
  8
0
  6
CONTINUOUS
 62
     7
 10
233.3450339641
 20
169.4006035455
 30
0.0
  0
VERTEX
  5
1E1
  8
0
  6
CONTINUOUS
 62
     7
 10
233.7191283
 20
168.8510709284
 30
0.0
  0
VERTEX
  5
1E2
  8
0
  6
CONTINUOUS
 62
     7
 10
234.2608736125
 20
167.4206756159
 30
0.0
  0
VERTEX
  5
1E3
  8
0
  6
CONTINUOUS
 62
     7
 10
234.4595408
 20
165.6692334284
 30
0.0
  0
SEQEND
  5
240
  8
0
  6
CONTINUOUS
 62
     7
  0
POLYLINE
  5
D9
  8
0
  6
CONTINUOUS
 62
     7
 66
     1
 10
0.0
 20
0.0
 30
0.0
 70
   128
  0
VERTEX
  5
1E4
  8
0
  6
CONTINUOUS
 62
     7
 10
234.4595408
 20
165.6692334284
 30
0.0
  0
VERTEX
  5
1E5
  8
0
  6
CONTINUOUS
 62
     7
 10
234.2608736125
 20
163.9177912409
 30
0.0
  0
VERTEX
  5
1E6
  8
0
  6
CONTINUOUS
 62
     7
 10
233.7191283
 20
162.4873959284
 30
0.0
  0
VERTEX
  5
1E7
  8
0
  6
CONTINUOUS
 62
     7
 10
233.3450339641
 20
161.9378633112
 30
0.0
  0
VERTEX
  5
1E8
  8
0
  6
CONTINUOUS
 62
     7
 10
232.9156892375
 20
161.5229193659
 30
0.0
  0
VERTEX
  5
1E9
  8
0
  6
CONTINUOUS
 62
     7
 10
232.4412671672
 20
161.2606730768
 30
0.0
  0
VERTEX
  5
1EA
  8
0
  6
CONTINUOUS
 62
     7
 10
231.9319408
 20
161.1692334284
 30
0.0
  0
SEQEND
  5
241
  8
0
  6
CONTINUOUS
 62
     7
  0
POLYLINE
  5
DA
  8
0
  6
CONTINUOUS
 62
     7
 66
     1
 10
0.0
 20
0.0
 30
0.0
 70
   128
  0
VERTEX
  5
1EB
  8
0
  6
CONTINUOUS
 62
     7
 10
231.9319408
 20
161.1692334284
 30
0.0
  0
VERTEX
  5
1EC
  8
0
  6
CONTINUOUS
 62
     7
 10
231.4226144328
 20
161.2606730768
 30
0.0
  0
VERTEX
  5
1ED
  8
0
  6
CONTINUOUS
 62
     7
 10
230.9481923625
 20
161.5229193659
 30
0.0
  0
VERTEX
  5
1EE
  8
0
  6
CONTINUOUS
 62
     7
 10
230.5188476359
 20
161.9378633112
 30
0.0
  0
VERTEX
  5
1EF
  8
0
  6
CONTINUOUS
 62
     7
 10
230.1447533
 20
162.4873959284
 30
0.0
  0
VERTEX
  5
1F0
  8
0
  6
CONTINUOUS
 62
     7
 10
229.6030079875
 20
163.9177912409
 30
0.0
  0
VERTEX
  5
1F1
  8
0
  6
CONTINUOUS
 62
     7
 10
229.4043408
 20
165.6692334284
 30
0.0
  0
SEQEND
  5
242
  8
0
  6
CONTINUOUS
 62
     7
  0
LINE
  5
DB
  8
0
  6
CONTINUOUS
 62
     7
 10
232.2947408
 20
161.9776334284
 30
0.0
 11
232.0235408
 21
161.9776334284
 31
0.0
  0
LINE
  5
DC
  8
0
  6
CONTINUOUS
 62
     7
 10
232.0235408
 20
161.9776334284
 30
0.0
 11
232.0235408
 21
162.6027334284
 31
0.0
  0
LINE
  5
DD
  8
0
  6
CONTINUOUS
 62
     7
 10
232.0235408
 20
162.6027334284
 30
0.0
 11
232.3361408
 21
162.6027334284
 31
0.0
  0
LINE
  5
DE
  8
0
  6
CONTINUOUS
 62
     7
 10
232.3361408
 20
162.6027334284
 30
0.0
 11
232.3361408
 21
163.7344334284
 31
0.0
  0
LINE
  5
DF
  8
0
  6
CONTINUOUS
 62
     7
 10
232.3361408
 20
163.7344334284
 30
0.0
 11
231.5169408
 21
163.7344334284
 31
0.0
  0
LINE
  5
E0
  8
0
  6
CONTINUOUS
 62
     7
 10
231.5169408
 20
163.7344334284
 30
0.0
 11
231.5169408
 21
163.0446334284
 31
0.0
  0
LINE
  5
E1
  8
0
  6
CONTINUOUS
 62
     7
 10
231.5169408
 20
163.0446334284
 30
0.0
 11
231.1073408
 21
163.0446334284
 31
0.0
  0
LINE
  5
E2
  8
0
  6
CONTINUOUS
 62
     7
 10
231.1073408
 20
163.0446334284
 30
0.0
 11
231.1073408
 21
164.3596334284
 31
0.0
  0
LINE
  5
E3
  8
0
  6
CONTINUOUS
 62
     7
 10
231.1073408
 20
164.3596334284
 30
0.0
 11
232.2953408
 21
164.3596334284
 31
0.0
  0
ARC
  5
E4
  8
0
  6
CONTINUOUS
 62
     7
 10
232.2944860673
 20
163.8975786957
 30
0.0
 40
0.4620555232531381
 50
0.1059885689
 51
89.8940114311
  0
LINE
  5
E5
  8
0
  6
CONTINUOUS
 62
     7
 10
232.7565408
 20
163.8984334284
 30
0.0
 11
232.7565408
 21
162.4393334284
 31
0.0
  0
ARC
  5
E6
  8
0
  6
CONTINUOUS
 62
     7
 10
232.2938239356
 20
162.4403505022
 30
0.0
 40
0.462717982197789
 50
270.1135302658
 51
359.8740613359
  0
LINE
  5
E7
  8
0
  6
CONTINUOUS
 62
     7
 10
231.5691408
 20
166.9572334284
 30
0.0
 11
232.7565408
 21
166.9572334284
 31
0.0
  0
LINE
  5
E8
  8
0
  6
CONTINUOUS
 62
     7
 10
232.7565408
 20
166.9572334284
 30
0.0
 11
232.7565408
 21
166.3319334284
 31
0.0
  0
LINE
  5
E9
  8
0
  6
CONTINUOUS
 62
     7
 10
232.7565408
 20
166.3319334284
 30
0.0
 11
231.5169408
 21
166.3319334284
 31
0.0
  0
LINE
  5
EA
  8
0
  6
CONTINUOUS
 62
     7
 10
231.5169408
 20
166.3319334284
 30
0.0
 11
231.5169408
 21
165.1465334284
 31
0.0
  0
LINE
  5
EB
  8
0
  6
CONTINUOUS
 62
     7
 10
231.5169408
 20
165.1465334284
 30
0.0
 11
232.7565408
 21
165.1465334284
 31
0.0
  0
LINE
  5
EC
  8
0
  6
CONTINUOUS
 62
     7
 10
232.7565408
 20
165.1465334284
 30
0.0
 11
232.7565408
 21
164.5320334284
 31
0.0
  0
LINE
  5
ED
  8
0
  6
CONTINUOUS
 62
     7
 10
232.7565408
 20
164.5320334284
 30
0.0
 11
231.1073408
 21
164.5320334284
 31
0.0
  0
LINE
  5
EE
  8
0
  6
CONTINUOUS
 62
     7
 10
231.1073408
 20
164.5320334284
 30
0.0
 11
231.1073408
 21
166.4955334284
 31
0.0
  0
ARC
  5
EF
  8
0
  6
CONTINUOUS
 62
     7
 10
231.5700056749
 20
166.4945683553
 30
0.0
 40
0.4626658814684926
 50
90.1071047489
 51
179.8804868527
  0
LINE
  5
F0
  8
0
  6
CONTINUOUS
 62
     7
 10
231.5169408
 20
169.3608334284
 30
0.0
 11
231.1073408
 21
169.3608334284
 31
0.0
  0
LINE
  5
F1
  8
0
  6
CONTINUOUS
 62
     7
 10
231.5169408
 20
167.7332334284
 30
0.0
 11
231.5169408
 21
169.3608334284
 31
0.0
  0
LINE
  5
F2
  8
0
  6
CONTINUOUS
 62
     7
 10
232.7565408
 20
167.7332334284
 30
0.0
 11
231.5169408
 21
167.7332334284
 31
0.0
  0
LINE
  5
F3
  8
0
  6
CONTINUOUS
 62
     7
 10
232.7565408
 20
167.1081334284
 30
0.0
 11
232.7565408
 21
167.7332334284
 31
0.0
  0
LINE
  5
F4
  8
0
  6
CONTINUOUS
 62
     7
 10
231.5691408
 20
167.1081334284
 30
0.0
 11
232.7565408
 21
167.1081334284
 31
0.0
  0
ARC
  5
F5
  8
0
  6
CONTINUOUS
 62
     7
 10
231.5700802398
 20
167.5708728682
 30
0.0
 40
0.4627403934257787
 50
180.1163200236
 51
269.8836799764
  0
LINE
  5
F6
  8
0
  6
CONTINUOUS
 62
     7
 10
231.1073408
 20
169.3608334284
 30
0.0
 11
231.1073408
 21
167.5699334284
 31
0.0
  0
LINE
  5
F7
  8
0
  6
CONTINUOUS
 62
     7
 10
232.0989408
 20
169.0052334284
 30
0.0
 11
231.7540408
 21
169.0052334284
 31
0.0
  0
LINE
  5
F8
  8
0
  6
CONTINUOUS
 62
     7
 10
232.0989408
 20
167.9596334284
 30
0.0
 11
232.0989408
 21
169.0052334284
 31
0.0
  0
LINE
  5
F9
  8
0
  6
CONTINUOUS
 62
     7
 10
231.7540408
 20
167.9596334284
 30
0.0
 11
232.0989408
 21
167.9596334284
 31
0.0
  0
LINE
  5
FA
  8
0
  6
CONTINUOUS
 62
     7
 10
231.7540408
 20
169.0052334284
 30
0.0
 11
231.7540408
 21
167.9596334284
 31
0.0
  0
LINE
  5
FB
  8
0
  6
CONTINUOUS
 62
     7
 10
273.1073408
 20
180.1086842105
 30
0.0
 11
223.1073408
 21
180.1086842105
 31
0.0
  0
ARC
  5
FC
  8
0
  6
CONTINUOUS
 62
     7
 10
273.1073408
 20
175.1086842105
 30
0.0
 40
5.000000000000028
 50
0.0
 51
90.0
  0
LINE
  5
FD
  8
0
  6
CONTINUOUS
 62
     7
 10
278.1073408
 20
50.1086842105
 30
0.0
 11
278.1073408
 21
175.1086842105
 31
0.0
  0
ARC
  5
FE
  8
0
  6
CONTINUOUS
 62
     7
 10
273.1073408
 20
50.1086842105
 30
0.0
 40
5.000000000000007
 50
270.0
 51
0.0
  0
LINE
  5
FF
  8
0
  6
CONTINUOUS
 62
     7
 10
263.1073408
 20
45.1086842105
 30
0.0
 11
273.1073408
 21
45.1086842105
 31
0.0
  0
ARC
  5
100
  8
0
  6
CONTINUOUS
 62
     7
 10
263.1073408
 20
50.1086842105
 30
0.0
 40
5.0
 50
180.0
 51
270.0
  0
LINE
  5
101
  8
0
  6
CONTINUOUS
 62
     7
 10
258.1073408
 20
137.1086842105
 30
0.0
 11
258.1073408
 21
50.1086842105
 31
0.0
  0
ARC
  5
102
  8
0
  6
CONTINUOUS
 62
     7
 10
243.1073408
 20
137.1086842105
 30
0.0
 40
15.0
 50
0.0
 51
90.0
  0
LINE
  5
103
  8
0
  6
CONTINUOUS
 62
     7
 10
223.1073408
 20
152.1086842105
 30
0.0
 11
243.1073408
 21
152.1086842105
 31
0.0
  0
LINE
  5
104
  8
0
  6
CONTINUOUS
 62
     7
 10
223.1073408
 20
180.1086842105
 30
0.0
 11
223.1073408
 21
168.8842183823
 31
0.0
  0
ARC
  5
105
  8
0
  6
CONTINUOUS
 62
     7
 10
263.1073408
 20
50.1086842105
 30
0.0
 40
10.0
 50
180.0
 51
270.0
  0
LINE
  5
106
  8
0
  6
CONTINUOUS
 62
     7
 10
253.1073408
 20
50.1086842105
 30
0.0
 11
258.1073408
 21
50.1086842105
 31
0.0
  0
LINE
  5
107
  8
0
  6
CONTINUOUS
 62
     7
 10
263.1073408
 20
40.1086842105
 30
0.0
 11
263.1073408
 21
45.1086842105
 31
0.0
  0
LINE
  5
108
  8
0
  6
CONTINUOUS
 62
     7
 10
253.1073408
 20
137.1086842105
 30
0.0
 11
253.1073408
 21
50.1086842105
 31
0.0
  0
LINE
  5
109
  8
0
  6
CONTINUOUS
 62
     7
 10
253.1073408
 20
137.1086842105
 30
0.0
 11
258.1073408
 21
137.1086842105
 31
0.0
  0
LINE
  5
10A
  8
0
  6
CONTINUOUS
 62
     7
 10
263.1073408
 20
40.1086842105
 30
0.0
 11
273.1073408
 21
40.1086842105
 31
0.0
  0
LINE
  5
10B
  8
0
  6
CONTINUOUS
 62
     7
 10
273.1073408
 20
40.1086842105
 30
0.0
 11
273.1073408
 21
45.1086842105
 31
0.0
  0
ARC
  5
10C
  8
0
  6
CONTINUOUS
 62
     7
 10
273.1073408
 20
50.1086842105
 30
0.0
 40
10.00000000000006
 50
270.0
 51
0.0
  0
LINE
  5
10D
  8
0
  6
CONTINUOUS
 62
     7
 10
283.1073408
 20
50.1086842105
 30
0.0
 11
278.1073408
 21
50.1086842105
 31
0.0
  0
LINE
  5
10E
  8
0
  6
CONTINUOUS
 62
     7
 10
283.1073408
 20
50.1086842105
 30
0.0
 11
283.1073408
 21
175.1086842105
 31
0.0
  0
LINE
  5
10F
  8
0
  6
CONTINUOUS
 62
     7
 10
283.1073408
 20
175.1086842105
 30
0.0
 11
278.1073408
 21
175.1086842105
 31
0.0
  0
LINE
  5
110
  8
0
  6
CONTINUOUS
 62
     7
 10
243.1073408
 20
147.1086842105
 30
0.0
 11
243.1073408
 21
152.1086842105
 31
0.0
  0
LINE
  5
111
  8
0
  6
CONTINUOUS
 62
     7
 10
234.4733663832
 20
147.1086842105
 30
0.0
 11
243.1073408
 21
147.1086842105
 31
0.0
  0
ARC
  5
112
  8
0
  6
CONTINUOUS
 62
     7
 10
231.6073408
 20
142.9802637076
 30
0.0
 40
5.025729647828454
 50
55.2309061947
 51
124.7690938053
  0
LINE
  5
113
  8
0
  6
CONTINUOUS
 62
     7
 10
223.1073408
 20
147.1086842105
 30
0.0
 11
228.7413152168
 21
147.1086842105
 31
0.0
  0
LINE
  5
114
  8
0
  6
CONTINUOUS
 62
     7
 10
223.1073408
 20
147.1086842105
 30
0.0
 11
223.1073408
 21
151.2955592105
 31
0.0
  0
ARC
  5
115
  8
0
  6
CONTINUOUS
 62
     7
 10
243.1073408
 20
137.1086842105
 30
0.0
 40
10.00000000000003
 50
0.0
 51
90.0
  0
LINE
  5
116
  8
0
  6
CONTINUOUS
 62
     7
 10
273.1073408
 20
185.1086842105
 30
0.0
 11
223.1073408
 21
185.1086842105
 31
0.0
  0
LINE
  5
117
  8
0
  6
CONTINUOUS
 62
     7
 10
273.1073408
 20
185.1086842105
 30
0.0
 11
273.1073408
 21
180.1086842105
 31
0.0
  0
LINE
  5
118
  8
0
  6
CONTINUOUS
 62
     7
 10
223.1073408
 20
180.1086842105
 30
0.0
 11
223.1073408
 21
185.1086842105
 31
0.0
  0
ARC
  5
119
  8
0
  6
CONTINUOUS
 62
     7
 10
273.1073408
 20
175.1086842105
 30
0.0
 40
10.00000000000006
 50
0.0
 51
90.0
  0
POLYLINE
  5
11A
  8
0
  6
CONTINUOUS
 62
     7
 66
     1
 10
0.0
 20
0.0
 30
0.0
 70
   128
  0
VERTEX
  5
1F2
  8
0
  6
CONTINUOUS
 62
     7
 10
234.0565926828
 20
147.2766972289
 30
0.0
  0
VERTEX
  5
1F3
  8
0
  6
CONTINUOUS
 62
     7
 10
233.9092641418
 20
147.3728484766
 30
0.0
  0
VERTEX
  5
1F4
  8
0
  6
CONTINUOUS
 62
     7
 10
233.4887538038
 20
147.6182175178
 30
0.0
  0
SEQEND
  5
243
  8
0
  6
CONTINUOUS
 62
     7
  0
POLYLINE
  5
11B
  8
0
  6
CONTINUOUS
 62
     7
 66
     1
 10
0.0
 20
0.0
 30
0.0
 70
   128
  0
VERTEX
  5
1F5
  8
0
  6
CONTINUOUS
 62
     7
 10
229.7256482037
 20
147.6181115413
 30
0.0
  0
VERTEX
  5
1F6
  8
0
  6
CONTINUOUS
 62
     7
 10
229.3041709009
 20
147.3720520099
 30
0.0
  0
VERTEX
  5
1F7
  8
0
  6
CONTINUOUS
 62
     7
 10
229.1574562252
 20
147.2762757098
 30
0.0
  0
SEQEND
  5
244
  8
0
  6
CONTINUOUS
 62
     7
  0
LINE
  5
11C
  8
0
  6
CONTINUOUS
 62
     7
 10
229.1073408
 20
147.2426597873
 30
0.0
 11
228.7413152168
 21
147.1086842105
 31
0.0
  0
LINE
  5
11D
  8
0
  6
CONTINUOUS
 62
     7
 10
234.4733663832
 20
147.1086842105
 30
0.0
 11
234.1073408
 21
147.2426597873
 31
0.0
  0
LINE
  5
11E
  8
0
  6
CONTINUOUS
 62
     7
 10
229.1073408
 20
147.2426597873
 30
0.0
 11
229.1580889172
 21
147.2766972289
 31
0.0
  0
LINE
  5
11F
  8
0
  6
CONTINUOUS
 62
     7
 10
234.0572253748
 20
147.2762757098
 30
0.0
 11
234.1073408
 21
147.2426597873
 31
0.0
  0
POLYLINE
  5
120
  8
0
  6
CONTINUOUS
 62
     7
 66
     1
 10
0.0
 20
0.0
 30
0.0
 70
   128
  0
VERTEX
  5
1F8
  8
0
  6
CONTINUOUS
 62
     7
 10
234.4733663832
 20
147.1086842105
 30
0.0
  0
VERTEX
  5
1F9
  8
0
  6
CONTINUOUS
 62
     7
 10
234.4159135469
 20
147.1432256755
 30
0.0
  0
VERTEX
  5
1FA
  8
0
  6
CONTINUOUS
 62
     7
 10
234.4159089892
 20
147.1432283423
 30
0.0
  0
SEQEND
  5
245
  8
0
  6
CONTINUOUS
 62
     7
  0
LINE
  5
121
  8
0
  6
CONTINUOUS
 62
     7
 10
228.7994933777
 20
147.1436588003
 30
0.0
 11
228.7413152168
 21
147.1086842105
 31
0.0
  0
LINE
  5
122
  8
0
  6
CONTINUOUS
 62
     7
 10
375.5131312979
 20
158.6086842105
 30
0.0
 11
375.9896247281
 21
158.6086842105
 31
0.0
  0
LINE
  5
123
  8
0
  6
CONTINUOUS
 62
     7
 10
382.9896247281
 20
158.6086842105
 30
0.0
 11
383.4661181582
 21
158.6086842105
 31
0.0
  0
LINE
  5
124
  8
0
  6
CONTINUOUS
 62
     7
 10
383.4661181582
 20
161.6086842105
 30
0.0
 11
382.9896247281
 21
161.6086842105
 31
0.0
  0
LINE
  5
125
  8
0
  6
CONTINUOUS
 62
     7
 10
375.9896247281
 20
161.6086842105
 30
0.0
 11
375.5131312979
 21
161.6086842105
 31
0.0
  0
CIRCLE
  5
126
  8
0
  6
CONTINUOUS
 62
     7
 10
367.9896247281
 20
149.6086842105
 30
0.0
 40
1.5
  0
CIRCLE
  5
127
  8
0
  6
CONTINUOUS
 62
     7
 10
390.9896247281
 20
149.6086842105
 30
0.0
 40
1.5
  0
CIRCLE
  5
128
  8
0
  6
CONTINUOUS
 62
     7
 10
390.9896247281
 20
170.6086842105
 30
0.0
 40
1.5
  0
CIRCLE
  5
129
  8
0
  6
CONTINUOUS
 62
     7
 10
367.9896247281
 20
170.6086842105
 30
0.0
 40
1.5
  0
CIRCLE
  5
12A
  8
0
  6
CONTINUOUS
 62
     7
 10
379.4896247281
 20
138.6086842105
 30
0.0
 40
4.750000000000057
  0
CIRCLE
  5
12B
  8
0
  6
CONTINUOUS
 62
     7
 10
379.4896247281
 20
181.6086842105
 30
0.0
 40
4.750000000000057
  0
CIRCLE
  5
12C
  8
0
  6
CONTINUOUS
 62
     7
 10
379.4896247281
 20
160.1086842105
 30
0.0
 40
6.500000000000057
  0
LINE
  5
12D
  8
0
  6
CONTINUOUS
 62
     7
 10
365.4896247281
 20
143.6086842105
 30
0.0
 11
365.4896247281
 21
176.6086842105
 31
0.0
  0
ARC
  5
12E
  8
0
  6
CONTINUOUS
 62
     7
 10
379.9896247281
 20
176.6086842105
 30
0.0
 40
14.50000000000001
 50
91.9761082857
 51
180.0
  0
ARC
  5
12F
  8
0
  6
CONTINUOUS
 62
     7
 10
378.9896247281
 20
176.6086842105
 30
0.0
 40
14.50000000000001
 50
0.0
 51
88.0238917143
  0
LINE
  5
130
  8
0
  6
CONTINUOUS
 62
     7
 10
393.4896247281
 20
176.6086842105
 30
0.0
 11
393.4896247281
 21
143.6086842105
 31
0.0
  0
ARC
  5
131
  8
0
  6
CONTINUOUS
 62
     7
 10
378.9896247281
 20
143.6086842105
 30
0.0
 40
14.50000000000001
 50
271.9761082857
 51
0.0
  0
ARC
  5
132
  8
0
  6
CONTINUOUS
 62
     7
 10
379.9896247281
 20
143.6086842105
 30
0.0
 40
14.50000000000001
 50
180.0
 51
268.0238917143
  0
LINE
  5
133
  8
0
  6
CONTINUOUS
 62
     7
 10
375.327346795
 20
160.9677199538
 30
0.0
 11
375.327346795
 21
159.2496484672
 31
0.0
  0
CIRCLE
  5
134
  8
0
  6
CONTINUOUS
 62
     7
 10
379.4896247281
 20
138.6086842105
 30
0.0
 40
4.499999999999943
  0
CIRCLE
  5
135
  8
0
  6
CONTINUOUS
 62
     7
 10
379.4896247281
 20
138.6086842105
 30
0.0
 40
2.749999999999943
  0
CIRCLE
  5
136
  8
0
  6
CONTINUOUS
 62
     7
 10
379.4896247281
 20
181.6086842105
 30
0.0
 40
4.499999999999943
  0
CIRCLE
  5
137
  8
0
  6
CONTINUOUS
 62
     7
 10
379.4896247281
 20
181.6086842105
 30
0.0
 40
2.749999999999943
  0
LINE
  5
138
  8
0
  6
CONTINUOUS
 62
     7
 10
365.2396247281
 20
177.1086842105
 30
0.0
 11
365.2396247281
 21
143.1086842105
 31
0.0
  0
ARC
  5
139
  8
0
  6
CONTINUOUS
 62
     7
 10
379.4896247281
 20
177.1086842105
 30
0.0
 40
14.25000000000003
 50
0.0
 51
90.0
  0
LINE
  5
13A
  8
0
  6
CONTINUOUS
 62
     7
 10
393.7396247281
 20
143.1086842105
 30
0.0
 11
393.7396247281
 21
177.1086842105
 31
0.0
  0
ARC
  5
13B
  8
0
  6
CONTINUOUS
 62
     7
 10
379.4896247281
 20
143.1086842105
 30
0.0
 40
14.25
 50
270.0
 51
0.0
  0
ARC
  5
13C
  8
0
  6
CONTINUOUS
 62
     7
 10
379.4896247281
 20
143.1086842105
 30
0.0
 40
14.25000000000006
 50
180.0
 51
270.0
  0
ARC
  5
13D
  8
0
  6
CONTINUOUS
 62
     7
 10
379.4896247281
 20
177.1086842105
 30
0.0
 40
14.25000000000006
 50
90.0
 51
180.0
  0
ARC
  5
13E
  8
0
  6
CONTINUOUS
 62
     7
 10
379.4896247281
 20
160.1086842105
 30
0.0
 40
4.249999999999953
 50
325.43967822
 51
34.56032178
  0
ARC
  5
13F
  8
0
  6
CONTINUOUS
 62
     7
 10
379.4896247281
 20
160.1086842105
 30
0.0
 40
4.250000000000016
 50
55.43967822
 51
124.56032178
  0
ARC
  5
140
  8
0
  6
CONTINUOUS
 62
     7
 10
379.4896247281
 20
160.1086842105
 30
0.0
 40
4.250000000000047
 50
145.43967822
 51
214.56032178
  0
ARC
  5
141
  8
0
  6
CONTINUOUS
 62
     7
 10
379.4896247281
 20
160.1086842105
 30
0.0
 40
4.250000000000016
 50
235.43967822
 51
304.56032178
  0
CIRCLE
  5
142
  8
0
  6
CONTINUOUS
 62
     7
 10
379.4896247281
 20
160.1086842105
 30
0.0
 40
6.250000000000057
  0
CIRCLE
  5
143
  8
0
  6
CONTINUOUS
 62
     7
 10
379.4896247281
 20
138.6086842105
 30
0.0
 40
2.054999999999978
  0
CIRCLE
  5
144
  8
0
  6
CONTINUOUS
 62
     7
 10
379.4896247281
 20
138.6086842105
 30
0.0
 40
2.5
  0
CIRCLE
  5
145
  8
0
  6
CONTINUOUS
 62
     7
 10
379.4896247281
 20
138.6086842105
 30
0.0
 40
2.50096455141437
  0
CIRCLE
  5
146
  8
0
  6
CONTINUOUS
 62
     7
 10
379.4896247281
 20
181.6086842105
 30
0.0
 40
2.055000000000007
  0
CIRCLE
  5
147
  8
0
  6
CONTINUOUS
 62
     7
 10
379.4896247281
 20
181.6086842105
 30
0.0
 40
2.5
  0
CIRCLE
  5
148
  8
0
  6
CONTINUOUS
 62
     7
 10
379.4896247281
 20
181.6086842105
 30
0.0
 40
2.500964551414313
  0
ARC
  5
149
  8
0
  6
CONTINUOUS
 62
     7
 10
366.9896247281
 20
190.1086842105
 30
0.0
 40
5.0
 50
90.0
 51
180.0
  0
LINE
  5
14A
  8
0
  6
CONTINUOUS
 62
     7
 10
366.9896247281
 20
195.1086842105
 30
0.0
 11
391.9896247281
 21
195.1086842105
 31
0.0
  0
ARC
  5
14B
  8
0
  6
CONTINUOUS
 62
     7
 10
391.9896247281
 20
190.1086842105
 30
0.0
 40
5.0
 50
0.0
 51
90.0
  0
LINE
  5
14C
  8
0
  6
CONTINUOUS
 62
     7
 10
396.9896247281
 20
190.1086842105
 30
0.0
 11
396.9896247281
 21
130.1086842105
 31
0.0
  0
ARC
  5
14D
  8
0
  6
CONTINUOUS
 62
     7
 10
391.9896247281
 20
130.1086842105
 30
0.0
 40
5.0
 50
270.0
 51
0.0
  0
LINE
  5
14E
  8
0
  6
CONTINUOUS
 62
     7
 10
391.9896247281
 20
125.1086842105
 30
0.0
 11
366.9896247281
 21
125.1086842105
 31
0.0
  0
ARC
  5
14F
  8
0
  6
CONTINUOUS
 62
     7
 10
366.9896247281
 20
130.1086842105
 30
0.0
 40
5.0
 50
180.0
 51
270.0
  0
LINE
  5
150
  8
0
  6
CONTINUOUS
 62
     7
 10
361.9896247281
 20
130.1086842105
 30
0.0
 11
361.9896247281
 21
190.1086842105
 31
0.0
  0
ARC
  5
151
  8
0
  6
CONTINUOUS
 62
     7
 10
379.4896247281
 20
160.1086842105
 30
0.0
 40
3.5
 50
0.0
 51
90.0
  0
ARC
  5
152
  8
0
  6
CONTINUOUS
 62
     7
 10
379.4896247281
 20
160.1086842105
 30
0.0
 40
3.5
 50
270.0
 51
0.0
  0
ARC
  5
153
  8
0
  6
CONTINUOUS
 62
     7
 10
379.4896247281
 20
160.1086842105
 30
0.0
 40
3.500000000000057
 50
180.0
 51
270.0
  0
ARC
  5
154
  8
0
  6
CONTINUOUS
 62
     7
 10
379.4896247281
 20
160.1086842105
 30
0.0
 40
3.500000000000057
 50
90.0
 51
180.0
  0
LINE
  5
155
  8
0
  6
CONTINUOUS
 62
     7
 10
375.9896247281
 20
163.6086842105
 30
0.0
 11
375.9896247281
 21
160.1086842105
 31
0.0
  0
LINE
  5
156
  8
0
  6
CONTINUOUS
 62
     7
 10
379.4896247281
 20
163.6086842105
 30
0.0
 11
375.9896247281
 21
163.6086842105
 31
0.0
  0
LINE
  5
157
  8
0
  6
CONTINUOUS
 62
     7
 10
375.9896247281
 20
156.6086842105
 30
0.0
 11
379.4896247281
 21
156.6086842105
 31
0.0
  0
LINE
  5
158
  8
0
  6
CONTINUOUS
 62
     7
 10
375.9896247281
 20
160.1086842105
 30
0.0
 11
375.9896247281
 21
156.6086842105
 31
0.0
  0
LINE
  5
159
  8
0
  6
CONTINUOUS
 62
     7
 10
382.9896247281
 20
156.6086842105
 30
0.0
 11
382.9896247281
 21
160.1086842105
 31
0.0
  0
LINE
  5
15A
  8
0
  6
CONTINUOUS
 62
     7
 10
379.4896247281
 20
156.6086842105
 30
0.0
 11
382.9896247281
 21
156.6086842105
 31
0.0
  0
LINE
  5
15B
  8
0
  6
CONTINUOUS
 62
     7
 10
382.9896247281
 20
160.1086842105
 30
0.0
 11
382.9896247281
 21
163.6086842105
 31
0.0
  0
LINE
  5
15C
  8
0
  6
CONTINUOUS
 62
     7
 10
382.9896247281
 20
163.6086842105
 30
0.0
 11
379.4896247281
 21
163.6086842105
 31
0.0
  0
LINE
  5
15D
  8
0
  6
CONTINUOUS
 62
     7
 10
374.4896247281
 20
50.1086842105
 30
0.0
 11
379.4896247281
 21
50.1086842105
 31
0.0
  0
LINE
  5
15E
  8
0
  6
CONTINUOUS
 62
     7
 10
374.4896247281
 20
50.1086842105
 30
0.0
 11
374.4896247281
 21
125.1086842105
 31
0.0
  0
LINE
  5
15F
  8
0
  6
CONTINUOUS
 62
     7
 10
379.4896247281
 20
50.1086842105
 30
0.0
 11
379.4896247281
 21
40.1086842105
 31
0.0
  0
ARC
  5
160
  8
0
  6
CONTINUOUS
 62
     7
 10
379.4896247281
 20
45.1086842105
 30
0.0
 40
5.0
 50
180.0
 51
270.0
  0
LINE
  5
161
  8
0
  6
CONTINUOUS
 62
     7
 10
374.4896247281
 20
45.1086842105
 30
0.0
 11
374.4896247281
 21
50.1086842105
 31
0.0
  0
LINE
  5
162
  8
0
  6
CONTINUOUS
 62
     7
 10
379.4896247281
 20
50.1086842105
 30
0.0
 11
384.4896247281
 21
50.1086842105
 31
0.0
  0
ARC
  5
163
  8
0
  6
CONTINUOUS
 62
     7
 10
379.4896247281
 20
45.1086842105
 30
0.0
 40
5.0
 50
270.0
 51
0.0
  0
LINE
  5
164
  8
0
  6
CONTINUOUS
 62
     7
 10
384.4896247281
 20
50.1086842105
 30
0.0
 11
384.4896247281
 21
45.1086842105
 31
0.0
  0
LINE
  5
165
  8
0
  6
CONTINUOUS
 62
     7
 10
384.4896247281
 20
125.1086842105
 30
0.0
 11
384.4896247281
 21
50.1086842105
 31
0.0
  0
LINE
  5
166
  8
0
  6
CONTINUOUS
 62
     7
 10
379.4896247281
 20
125.1086842105
 30
0.0
 11
379.4896247281
 21
50.1086842105
 31
0.0
  0
LINE
  5
167
  8
0
  6
CONTINUOUS
 62
     7
 10
208.5073408
 20
-39.3068930839
 30
0.0
 11
203.5073408
 21
-39.3068930839
 31
0.0
  0
LINE
  5
168
  8
0
  6
CONTINUOUS
 62
     7
 10
203.5073408
 20
-48.3068930839
 30
0.0
 11
208.5073408
 21
-48.3068930839
 31
0.0
  0
LINE
  5
169
  8
0
  6
CONTINUOUS
 62
     7
 10
222.0073408
 20
-53.5568930839
 30
0.0
 11
222.1073408
 21
-53.4568930839
 31
0.0
  0
LINE
  5
16A
  8
0
  6
CONTINUOUS
 62
     7
 10
222.1073408
 20
-34.1568930839
 30
0.0
 11
222.0073408
 21
-34.0568930839
 31
0.0
  0
LINE
  5
16B
  8
0
  6
CONTINUOUS
 62
     7
 10
208.5073408
 20
-37.5568930839
 30
0.0
 11
202.6073408
 21
-37.5568930839
 31
0.0
  0
LINE
  5
16C
  8
0
  6
CONTINUOUS
 62
     7
 10
207.0874307882
 20
-50.0568930839
 30
0.0
 11
208.5073408
 21
-50.0568930839
 31
0.0
  0
LINE
  5
16D
  8
0
  6
CONTINUOUS
 62
     7
 10
202.6073408
 20
-50.0568930839
 30
0.0
 11
204.1073408
 21
-50.0568930839
 31
0.0
  0
LINE
  5
16E
  8
0
  6
CONTINUOUS
 62
     7
 10
222.1073408
 20
-53.9068930839
 30
0.0
 11
223.1073408
 21
-53.9068930839
 31
0.0
  0
LINE
  5
16F
  8
0
  6
CONTINUOUS
 62
     7
 10
223.1073408
 20
-33.7068930839
 30
0.0
 11
222.1073408
 21
-33.7068930839
 31
0.0
  0
LINE
  5
170
  8
0
  6
CONTINUOUS
 62
     7
 10
208.5073408
 20
-29.8068930839
 30
0.0
 11
210.0073408
 21
-29.8068930839
 31
0.0
  0
LINE
  5
171
  8
0
  6
CONTINUOUS
 62
     7
 10
210.0073408
 20
-43.8068930839
 30
0.0
 11
208.5073408
 21
-43.8068930839
 31
0.0
  0
LINE
  5
172
  8
0
  6
CONTINUOUS
 62
     7
 10
208.5073408
 20
-43.8068930839
 30
0.0
 11
208.5073408
 21
-29.8068930839
 31
0.0
  0
LINE
  5
173
  8
0
  6
CONTINUOUS
 62
     7
 10
210.0073408
 20
-57.8068930839
 30
0.0
 11
208.5073408
 21
-57.8068930839
 31
0.0
  0
LINE
  5
174
  8
0
  6
CONTINUOUS
 62
     7
 10
208.5073408
 20
-57.8068930839
 30
0.0
 11
208.5073408
 21
-43.8068930839
 31
0.0
  0
LINE
  5
175
  8
0
  6
CONTINUOUS
 62
     7
 10
210.0073408
 20
-29.5568930839
 30
0.0
 11
219.0073408
 21
-29.5568930839
 31
0.0
  0
LINE
  5
176
  8
0
  6
CONTINUOUS
 62
     7
 10
219.0073408
 20
-38.0883928269
 30
0.0
 11
219.0073408
 21
-29.5568930839
 31
0.0
  0
POLYLINE
  5
177
  8
0
  6
CONTINUOUS
 62
     7
 66
     1
 10
0.0
 20
0.0
 30
0.0
 70
   128
  0
VERTEX
  5
1FB
  8
0
  6
CONTINUOUS
 62
     7
 10
211.434204689
 20
-43.8068930839
 30
0.0
  0
VERTEX
  5
1FC
  8
0
  6
CONTINUOUS
 62
     7
 10
211.5110104793
 20
-43.2186296219
 30
0.0
  0
VERTEX
  5
1FD
  8
0
  6
CONTINUOUS
 62
     7
 10
211.741296904
 20
-42.6313690909
 30
0.0
  0
VERTEX
  5
1FE
  8
0
  6
CONTINUOUS
 62
     7
 10
212.1246713476
 20
-42.0461127119
 30
0.0
  0
VERTEX
  5
1FF
  8
0
  6
CONTINUOUS
 62
     7
 10
212.6604801944
 20
-41.4638582891
 30
0.0
  0
VERTEX
  5
200
  8
0
  6
CONTINUOUS
 62
     7
 10
213.3478099436
 20
-40.8855985087
 30
0.0
  0
VERTEX
  5
201
  8
0
  6
CONTINUOUS
 62
     7
 10
214.1854887659
 20
-40.3123192464
 30
0.0
  0
VERTEX
  5
202
  8
0
  6
CONTINUOUS
 62
     7
 10
215.1720885018
 20
-39.7449978865
 30
0.0
  0
VERTEX
  5
203
  8
0
  6
CONTINUOUS
 62
     7
 10
216.3059270965
 20
-39.1846016558
 30
0.0
  0
VERTEX
  5
204
  8
0
  6
CONTINUOUS
 62
     7
 10
217.5850714674
 20
-38.6320859744
 30
0.0
  0
VERTEX
  5
205
  8
0
  6
CONTINUOUS
 62
     7
 10
219.0073408
 20
-38.0883928269
 30
0.0
  0
SEQEND
  5
246
  8
0
  6
CONTINUOUS
 62
     7
  0
LINE
  5
178
  8
0
  6
CONTINUOUS
 62
     7
 10
210.0073408
 20
-43.8068930839
 30
0.0
 11
211.434204689
 21
-43.8068930839
 31
0.0
  0
LINE
  5
179
  8
0
  6
CONTINUOUS
 62
     7
 10
210.0073408
 20
-43.8068930839
 30
0.0
 11
210.0073408
 21
-29.5568930839
 31
0.0
  0
POLYLINE
  5
17A
  8
0
  6
CONTINUOUS
 62
     7
 66
     1
 10
0.0
 20
0.0
 30
0.0
 70
   128
  0
VERTEX
  5
206
  8
0
  6
CONTINUOUS
 62
     7
 10
219.1528347905
 20
-38.4896910906
 30
0.0
  0
VERTEX
  5
207
  8
0
  6
CONTINUOUS
 62
     7
 10
217.7305654579
 20
-38.995230333
 30
0.0
  0
VERTEX
  5
208
  8
0
  6
CONTINUOUS
 62
     7
 10
216.451421087
 20
-39.5089729841
 30
0.0
  0
VERTEX
  5
209
  8
0
  6
CONTINUOUS
 62
     7
 10
215.3175824923
 20
-40.0300431635
 30
0.0
  0
VERTEX
  5
20A
  8
0
  6
CONTINUOUS
 62
     7
 10
214.3309827563
 20
-40.5575524981
 30
0.0
  0
VERTEX
  5
20B
  8
0
  6
CONTINUOUS
 62
     7
 10
213.4933039341
 20
-41.0906016368
 30
0.0
  0
VERTEX
  5
20C
  8
0
  6
CONTINUOUS
 62
     7
 10
212.8059741849
 20
-41.6282817835
 30
0.0
  0
VERTEX
  5
20D
  8
0
  6
CONTINUOUS
 62
     7
 10
212.2701653381
 20
-42.1696762467
 30
0.0
  0
VERTEX
  5
20E
  8
0
  6
CONTINUOUS
 62
     7
 10
211.8867908945
 20
-42.7138620027
 30
0.0
  0
VERTEX
  5
20F
  8
0
  6
CONTINUOUS
 62
     7
 10
211.6565044698
 20
-43.2599112684
 30
0.0
  0
VERTEX
  5
210
  8
0
  6
CONTINUOUS
 62
     7
 10
211.5796986795
 20
-43.8068930839
 30
0.0
  0
SEQEND
  5
247
  8
0
  6
CONTINUOUS
 62
     7
  0
LINE
  5
17B
  8
0
  6
CONTINUOUS
 62
     7
 10
211.5796986795
 20
-43.8068930839
 30
0.0
 11
211.434204689
 21
-43.8068930839
 31
0.0
  0
ARC
  5
17C
  8
0
  6
CONTINUOUS
 62
     7
 10
212.6562526909
 20
-40.6180562812
 30
0.0
 40
6.836338008143458
 50
18.1394720008
 51
21.7175874672
  0
POLYLINE
  5
17D
  8
0
  6
CONTINUOUS
 62
     7
 66
     1
 10
0.0
 20
0.0
 30
0.0
 70
   128
  0
VERTEX
  5
211
  8
0
  6
CONTINUOUS
 62
     7
 10
219.0073408
 20
-49.5253933409
 30
0.0
  0
VERTEX
  5
212
  8
0
  6
CONTINUOUS
 62
     7
 10
217.5850714674
 20
-48.9817001934
 30
0.0
  0
VERTEX
  5
213
  8
0
  6
CONTINUOUS
 62
     7
 10
216.3059270965
 20
-48.429184512
 30
0.0
  0
VERTEX
  5
214
  8
0
  6
CONTINUOUS
 62
     7
 10
215.1720885018
 20
-47.8687882813
 30
0.0
  0
VERTEX
  5
215
  8
0
  6
CONTINUOUS
 62
     7
 10
214.1854887659
 20
-47.3014669215
 30
0.0
  0
VERTEX
  5
216
  8
0
  6
CONTINUOUS
 62
     7
 10
213.3478099436
 20
-46.7281876591
 30
0.0
  0
VERTEX
  5
217
  8
0
  6
CONTINUOUS
 62
     7
 10
212.6604801944
 20
-46.1499278787
 30
0.0
  0
VERTEX
  5
218
  8
0
  6
CONTINUOUS
 62
     7
 10
212.1246713476
 20
-45.567673456
 30
0.0
  0
VERTEX
  5
219
  8
0
  6
CONTINUOUS
 62
     7
 10
211.741296904
 20
-44.982417077
 30
0.0
  0
VERTEX
  5
21A
  8
0
  6
CONTINUOUS
 62
     7
 10
211.5110104793
 20
-44.3951565459
 30
0.0
  0
VERTEX
  5
21B
  8
0
  6
CONTINUOUS
 62
     7
 10
211.434204689
 20
-43.8068930839
 30
0.0
  0
SEQEND
  5
248
  8
0
  6
CONTINUOUS
 62
     7
  0
POLYLINE
  5
17E
  8
0
  6
CONTINUOUS
 62
     7
 66
     1
 10
0.0
 20
0.0
 30
0.0
 70
   128
  0
VERTEX
  5
21C
  8
0
  6
CONTINUOUS
 62
     7
 10
211.5796986795
 20
-43.8068930839
 30
0.0
  0
VERTEX
  5
21D
  8
0
  6
CONTINUOUS
 62
     7
 10
211.6565044698
 20
-44.3538748995
 30
0.0
  0
VERTEX
  5
21E
  8
0
  6
CONTINUOUS
 62
     7
 10
211.8867908945
 20
-44.8999241652
 30
0.0
  0
VERTEX
  5
21F
  8
0
  6
CONTINUOUS
 62
     7
 10
212.2701653381
 20
-45.4441099211
 30
0.0
  0
VERTEX
  5
220
  8
0
  6
CONTINUOUS
 62
     7
 10
212.8059741849
 20
-45.9855043844
 30
0.0
  0
VERTEX
  5
221
  8
0
  6
CONTINUOUS
 62
     7
 10
213.4933039341
 20
-46.523184531
 30
0.0
  0
VERTEX
  5
222
  8
0
  6
CONTINUOUS
 62
     7
 10
214.3309827563
 20
-47.0562336697
 30
0.0
  0
VERTEX
  5
223
  8
0
  6
CONTINUOUS
 62
     7
 10
215.3175824923
 20
-47.5837430043
 30
0.0
  0
VERTEX
  5
224
  8
0
  6
CONTINUOUS
 62
     7
 10
216.451421087
 20
-48.1048131837
 30
0.0
  0
VERTEX
  5
225
  8
0
  6
CONTINUOUS
 62
     7
 10
217.7305654579
 20
-48.6185558348
 30
0.0
  0
VERTEX
  5
226
  8
0
  6
CONTINUOUS
 62
     7
 10
219.1528347905
 20
-49.1240950773
 30
0.0
  0
SEQEND
  5
249
  8
0
  6
CONTINUOUS
 62
     7
  0
ARC
  5
17F
  8
0
  6
CONTINUOUS
 62
     7
 10
212.656252691
 20
-46.9957298867
 30
0.0
 40
6.836338008014549
 50
338.2824125327
 51
341.8605279993
  0
LINE
  5
180
  8
0
  6
CONTINUOUS
 62
     7
 10
219.0073408
 20
-58.0568930839
 30
0.0
 11
210.0073408
 21
-58.0568930839
 31
0.0
  0
LINE
  5
181
  8
0
  6
CONTINUOUS
 62
     7
 10
219.0073408
 20
-58.0568930839
 30
0.0
 11
219.0073408
 21
-49.5253933409
 31
0.0
  0
LINE
  5
182
  8
0
  6
CONTINUOUS
 62
     7
 10
210.0073408
 20
-58.0568930839
 30
0.0
 11
210.0073408
 21
-43.8068930839
 31
0.0
  0
LINE
  5
183
  8
0
  6
CONTINUOUS
 62
     7
 10
219.1528347905
 20
-49.1240950773
 30
0.0
 11
219.1528347905
 21
-38.4896910906
 31
0.0
  0
POLYLINE
  5
184
  8
0
  6
CONTINUOUS
 62
     7
 66
     1
 10
0.0
 20
0.0
 30
0.0
 70
   128
  0
VERTEX
  5
227
  8
0
  6
CONTINUOUS
 62
     7
 10
220.0073408
 20
-38.4896910906
 30
0.0
  0
VERTEX
  5
228
  8
0
  6
CONTINUOUS
 62
     7
 10
219.9881260804
 20
-38.4114016831
 30
0.0
  0
VERTEX
  5
229
  8
0
  6
CONTINUOUS
 62
     7
 10
219.9312203325
 20
-38.3361208936
 30
0.0
  0
VERTEX
  5
22A
  8
0
  6
CONTINUOUS
 62
     7
 10
219.8388104123
 20
-38.2667417207
 30
0.0
  0
VERTEX
  5
22B
  8
0
  6
CONTINUOUS
 62
     7
 10
219.7144475812
 20
-38.2059303671
 30
0.0
  0
VERTEX
  5
22C
  8
0
  6
CONTINUOUS
 62
     7
 10
219.562911033
 20
-38.1560237789
 30
0.0
  0
VERTEX
  5
22D
  8
0
  6
CONTINUOUS
 62
     7
 10
219.3900242324
 20
-38.1189398383
 30
0.0
  0
VERTEX
  5
22E
  8
0
  6
CONTINUOUS
 62
     7
 10
219.202431122
 20
-38.0961036605
 30
0.0
  0
VERTEX
  5
22F
  8
0
  6
CONTINUOUS
 62
     7
 10
219.0073408
 20
-38.0883928269
 30
0.0
  0
SEQEND
  5
24A
  8
0
  6
CONTINUOUS
 62
     7
  0
LINE
  5
185
  8
0
  6
CONTINUOUS
 62
     7
 10
219.1528347905
 20
-38.4896910906
 30
0.0
 11
220.0073408
 21
-38.4896910906
 31
0.0
  0
LINE
  5
186
  8
0
  6
CONTINUOUS
 62
     7
 10
220.0073408
 20
-49.1240950773
 30
0.0
 11
219.1528347905
 21
-49.1240950773
 31
0.0
  0
POLYLINE
  5
187
  8
0
  6
CONTINUOUS
 62
     7
 66
     1
 10
0.0
 20
0.0
 30
0.0
 70
   128
  0
VERTEX
  5
230
  8
0
  6
CONTINUOUS
 62
     7
 10
219.0073408
 20
-49.5253933409
 30
0.0
  0
VERTEX
  5
231
  8
0
  6
CONTINUOUS
 62
     7
 10
219.202431122
 20
-49.5176825073
 30
0.0
  0
VERTEX
  5
232
  8
0
  6
CONTINUOUS
 62
     7
 10
219.3900242324
 20
-49.4948463295
 30
0.0
  0
VERTEX
  5
233
  8
0
  6
CONTINUOUS
 62
     7
 10
219.562911033
 20
-49.457762389
 30
0.0
  0
VERTEX
  5
234
  8
0
  6
CONTINUOUS
 62
     7
 10
219.7144475812
 20
-49.4078558008
 30
0.0
  0
VERTEX
  5
235
  8
0
  6
CONTINUOUS
 62
     7
 10
219.8388104123
 20
-49.3470444471
 30
0.0
  0
VERTEX
  5
236
  8
0
  6
CONTINUOUS
 62
     7
 10
219.9312203325
 20
-49.2776652742
 30
0.0
  0
VERTEX
  5
237
  8
0
  6
CONTINUOUS
 62
     7
 10
219.9881260804
 20
-49.2023844847
 30
0.0
  0
VERTEX
  5
238
  8
0
  6
CONTINUOUS
 62
     7
 10
220.0073408
 20
-49.1240950773
 30
0.0
  0
SEQEND
  5
24B
  8
0
  6
CONTINUOUS
 62
     7
  0
ARC
  5
188
  8
0
  6
CONTINUOUS
 62
     7
 10
219.0073408
 20
-30.5568930839
 30
0.0
 40
1.000000000000004
 50
0.0
 51
90.0
  0
ARC
  5
189
  8
0
  6
CONTINUOUS
 62
     7
 10
219.0073408
 20
-57.0568930839
 30
0.0
 40
1.0
 50
270.0
 51
0.0
  0
LINE
  5
18A
  8
0
  6
CONTINUOUS
 62
     7
 10
203.5073408
 20
-48.3068930839
 30
0.0
 11
203.5073408
 21
-39.3068930839
 31
0.0
  0
ARC
  5
18B
  8
0
  6
CONTINUOUS
 62
     7
 10
205.6071842308
 20
-56.210261066
 30
0.0
 40
6.33351938816062
 50
76.4840363535
 51
103.6983653125
  0
LINE
  5
18C
  8
0
  6
CONTINUOUS
 62
     7
 10
202.6073408
 20
-50.0568930839
 30
0.0
 11
202.6073408
 21
-37.5568930839
 31
0.0
  0
LINE
  5
18D
  8
0
  6
CONTINUOUS
 62
     7
 10
222.0073408
 20
-31.3068930839
 30
0.0
 11
220.0073408
 21
-31.3068930839
 31
0.0
  0
LINE
  5
18E
  8
0
  6
CONTINUOUS
 62
     7
 10
220.0073408
 20
-26.3068930839
 30
0.0
 11
222.0073408
 21
-26.3068930839
 31
0.0
  0
LINE
  5
18F
  8
0
  6
CONTINUOUS
 62
     7
 10
222.0073408
 20
-26.3068930839
 30
0.0
 11
222.0073408
 21
-31.3068930839
 31
0.0
  0
LINE
  5
190
  8
0
  6
CONTINUOUS
 62
     7
 10
220.0073408
 20
-31.3068930839
 30
0.0
 11
220.0073408
 21
-26.3068930839
 31
0.0
  0
LINE
  5
191
  8
0
  6
CONTINUOUS
 62
     7
 10
220.0073408
 20
-56.3068930839
 30
0.0
 11
222.0073408
 21
-56.3068930839
 31
0.0
  0
LINE
  5
192
  8
0
  6
CONTINUOUS
 62
     7
 10
222.0073408
 20
-31.3068930839
 30
0.0
 11
222.0073408
 21
-56.3068930839
 31
0.0
  0
LINE
  5
193
  8
0
  6
CONTINUOUS
 62
     7
 10
220.0073408
 20
-31.3068930839
 30
0.0
 11
220.0073408
 21
-56.3068930839
 31
0.0
  0
LINE
  5
194
  8
0
  6
CONTINUOUS
 62
     7
 10
222.0073408
 20
-61.3068930839
 30
0.0
 11
220.0073408
 21
-61.3068930839
 31
0.0
  0
LINE
  5
195
  8
0
  6
CONTINUOUS
 62
     7
 10
222.0073408
 20
-56.3068930839
 30
0.0
 11
222.0073408
 21
-61.3068930839
 31
0.0
  0
LINE
  5
196
  8
0
  6
CONTINUOUS
 62
     7
 10
220.0073408
 20
-61.3068930839
 30
0.0
 11
220.0073408
 21
-56.3068930839
 31
0.0
  0
LINE
  5
197
  8
0
  6
CONTINUOUS
 62
     7
 10
222.1073408
 20
-33.7068930839
 30
0.0
 11
222.1073408
 21
-53.9068930839
 31
0.0
  0
LINE
  5
198
  8
0
  6
CONTINUOUS
 62
     7
 10
223.1073408
 20
-33.7068930839
 30
0.0
 11
223.1073408
 21
-38.8068930839
 31
0.0
  0
LINE
  5
199
  8
0
  6
CONTINUOUS
 62
     7
 10
223.1073408
 20
-48.8068930839
 30
0.0
 11
223.1073408
 21
-53.9068930839
 31
0.0
  0
ARC
  5
19A
  8
0
  6
CONTINUOUS
 62
     7
 10
154.6925939512
 20
-44.3186562942
 30
0.0
 40
6.206388493186861
 50
139.7298363449
 51
175.2701636551
  0
LINE
  5
19B
  8
0
  6
CONTINUOUS
 62
     7
 10
202.6073408
 20
-40.3068930839
 30
0.0
 11
149.9570882683
 21
-40.3068930839
 31
0.0
  0
LINE
  5
19C
  8
0
  6
CONTINUOUS
 62
     7
 10
202.6073408
 20
-47.3068930839
 30
0.0
 11
149.9570882683
 21
-47.3068930839
 31
0.0
  0
ARC
  5
19D
  8
0
  6
CONTINUOUS
 62
     7
 10
154.8412995444
 20
-43.2335340002
 30
0.0
 40
6.359856446060493
 50
185.1723995885
 51
219.8276004115
  0
LINE
  5
19E
  8
0
  6
CONTINUOUS
 62
     7
 10
149.9570882683
 20
-40.3068930839
 30
0.0
 11
148.5073408
 21
-40.3068930839
 31
0.0
  0
LINE
  5
19F
  8
0
  6
CONTINUOUS
 62
     7
 10
148.5073408
 20
-40.3068930839
 30
0.0
 11
148.5073408
 21
-43.8068930839
 31
0.0
  0
LINE
  5
1A0
  8
0
  6
CONTINUOUS
 62
     7
 10
148.5073408
 20
-47.3068930839
 30
0.0
 11
149.9570882683
 21
-47.3068930839
 31
0.0
  0
LINE
  5
1A1
  8
0
  6
CONTINUOUS
 62
     7
 10
148.5073408
 20
-47.3068930839
 30
0.0
 11
148.5073408
 21
-43.8068930839
 31
0.0
  0
LINE
  5
1A2
  8
0
  6
CONTINUOUS
 62
     7
 10
231.9319408
 20
-48.8078930839
 30
0.0
 11
231.9319408
 21
-48.8068930839
 31
0.0
  0
LINE
  5
1A3
  8
0
  6
CONTINUOUS
 62
     7
 10
229.4043408
 20
-48.8078930839
 30
0.0
 11
229.4043408
 21
-48.8068930839
 31
0.0
  0
LINE
  5
1A4
  8
0
  6
CONTINUOUS
 62
     7
 10
229.4043408
 20
-48.8078930839
 30
0.0
 11
231.9319408
 21
-48.8078930839
 31
0.0
  0
LINE
  5
1A5
  8
0
  6
CONTINUOUS
 62
     7
 10
234.4595408
 20
-48.8078930839
 30
0.0
 11
234.4595408
 21
-48.8068930839
 31
0.0
  0
LINE
  5
1A6
  8
0
  6
CONTINUOUS
 62
     7
 10
231.9319408
 20
-48.8078930839
 30
0.0
 11
234.4595408
 21
-48.8078930839
 31
0.0
  0
LINE
  5
1A7
  8
0
  6
CONTINUOUS
 62
     7
 10
232.0989408
 20
-48.8078930839
 30
0.0
 11
231.7540408
 21
-48.8078930839
 31
0.0
  0
LINE
  5
1A8
  8
0
  6
CONTINUOUS
 62
     7
 10
273.1073408
 20
-38.8068930839
 30
0.0
 11
273.1073408
 21
-43.8068930839
 31
0.0
  0
LINE
  5
1A9
  8
0
  6
CONTINUOUS
 62
     7
 10
273.1073408
 20
-43.8068930839
 30
0.0
 11
223.1073408
 21
-43.8068930839
 31
0.0
  0
LINE
  5
1AA
  8
0
  6
CONTINUOUS
 62
     7
 10
223.1073408
 20
-43.8068930839
 30
0.0
 11
223.1073408
 21
-38.8068930839
 31
0.0
  0
LINE
  5
1AB
  8
0
  6
CONTINUOUS
 62
     7
 10
223.1073408
 20
-38.8068930839
 30
0.0
 11
273.1073408
 21
-38.8068930839
 31
0.0
  0
ARC
  5
1AC
  8
0
  6
CONTINUOUS
 62
     7
 10
278.1073408
 20
-43.8068930839
 30
0.0
 40
5.000000000000057
 50
0.0
 51
90.0
  0
LINE
  5
1AD
  8
0
  6
CONTINUOUS
 62
     7
 10
283.1073408
 20
-43.8068930839
 30
0.0
 11
273.1073408
 21
-43.8068930839
 31
0.0
  0
LINE
  5
1AE
  8
0
  6
CONTINUOUS
 62
     7
 10
273.1073408
 20
-38.8068930839
 30
0.0
 11
278.1073408
 21
-38.8068930839
 31
0.0
  0
ARC
  5
1AF
  8
0
  6
CONTINUOUS
 62
     7
 10
278.1073408
 20
-43.8068930839
 30
0.0
 40
5.000000000000057
 50
270.0
 51
0.0
  0
LINE
  5
1B0
  8
0
  6
CONTINUOUS
 62
     7
 10
278.1073408
 20
-48.8068930839
 30
0.0
 11
273.1073408
 21
-48.8068930839
 31
0.0
  0
LINE
  5
1B1
  8
0
  6
CONTINUOUS
 62
     7
 10
273.1073408
 20
-43.8068930839
 30
0.0
 11
273.1073408
 21
-48.8068930839
 31
0.0
  0
LINE
  5
1B2
  8
0
  6
CONTINUOUS
 62
     7
 10
273.1073408
 20
-48.8068930839
 30
0.0
 11
223.1073408
 21
-48.8068930839
 31
0.0
  0
LINE
  5
1B3
  8
0
  6
CONTINUOUS
 62
     7
 10
223.1073408
 20
-48.8068930839
 30
0.0
 11
223.1073408
 21
-43.8068930839
 31
0.0
  0
ENDSEC
  0
EOF
