  0
SECTION
  2
HEADER
  9
$ACADVER
  1
AC1014
  9
$ACADMAINTVER
 70
     9
  9
$DWGCODEPAGE
  3
ANSI_1252
  9
$INSBASE
 10
0.0
 20
0.0
 30
0.0
  9
$EXTMIN
 10
0.0
 20
0.0
 30
0.0
  9
$EXTMAX
 10
279.4
 20
215.9
 30
0.0
  9
$LIMMIN
 10
0.0
 20
0.0
  9
$LIMMAX
 10
279.4
 20
215.9
  9
$ORTHOMODE
 70
     0
  9
$REGENMODE
 70
     1
  9
$FILLMODE
 70
     1
  9
$QTEXTMODE
 70
     0
  9
$MIRRTEXT
 70
     1
  9
$DRAGMODE
 70
     2
  9
$LTSCALE
 40
1.0
  9
$OSMODE
 70
    37
  9
$ATTMODE
 70
     1
  9
$TEXTSIZE
 40
3.5
  9
$TRACEWID
 40
1.0
  9
$TEXTSTYLE
  7
STANDARD
  9
$CLAYER
  8
0
  9
$CELTYPE
  6
BYLAYER
  9
$CECOLOR
 62
   256
  9
$CELTSCALE
 40
1.0
  9
$DELOBJ
 70
     1
  9
$DISPSILH
 70
     0
  9
$DIMSCALE
 40
1.0
  9
$DIMASZ
 40
3.302
  9
$DIMEXO
 40
1.0
  9
$DIMDLI
 40
3.75
  9
$DIMRND
 40
0.0
  9
$DIMDLE
 40
0.0
  9
$DIMEXE
 40
1.0
  9
$DIMTP
 40
0.0
  9
$DIMTM
 40
0.0
  9
$DIMTXT
 40
3.5
  9
$DIMCEN
 40
2.5
  9
$DIMTSZ
 40
0.0
  9
$DIMTOL
 70
     0
  9
$DIMLIM
 70
     0
  9
$DIMTIH
 70
     1
  9
$DIMTOH
 70
     1
  9
$DIMSE1
 70
     0
  9
$DIMSE2
 70
     0
  9
$DIMTAD
 70
     1
  9
$DIMZIN
 70
     1
  9
$DIMBLK
  1

  9
$DIMASO
 70
     1
  9
$DIMSHO
 70
     1
  9
$DIMPOST
  1

  9
$DIMAPOST
  1

  9
$DIMALT
 70
     0
  9
$DIMALTD
 70
     3
  9
$DIMALTF
 40
0.0393700787
  9
$DIMLFAC
 40
2.0
  9
$DIMTOFL
 70
     1
  9
$DIMTVP
 40
0.0
  9
$DIMTIX
 70
     0
  9
$DIMSOXD
 70
     0
  9
$DIMSAH
 70
     0
  9
$DIMBLK1
  1

  9
$DIMBLK2
  1

  9
$DIMSTYLE
  2
ISO-25
  9
$DIMCLRD
 70
     0
  9
$DIMCLRE
 70
     0
  9
$DIMCLRT
 70
     0
  9
$DIMTFAC
 40
1.0
  9
$DIMGAP
 40
1.524
  9
$DIMJUST
 70
     0
  9
$DIMSD1
 70
     0
  9
$DIMSD2
 70
     0
  9
$DIMTOLJ
 70
     0
  9
$DIMTZIN
 70
     1
  9
$DIMALTZ
 70
     0
  9
$DIMALTTZ
 70
     0
  9
$DIMFIT
 70
     3
  9
$DIMUPT
 70
     0
  9
$DIMUNIT
 70
     2
  9
$DIMDEC
 70
     2
  9
$DIMTDEC
 70
     2
  9
$DIMALTU
 70
     2
  9
$DIMALTTD
 70
     3
  9
$DIMTXSTY
  7
STANDARD
  9
$DIMAUNIT
 70
     0
  9
$LUNITS
 70
     2
  9
$LUPREC
 70
     2
  9
$SKETCHINC
 40
1.0
  9
$FILLETRAD
 40
0.0
  9
$AUNITS
 70
     0
  9
$AUPREC
 70
     2
  9
$MENU
  1
.
  9
$ELEVATION
 40
0.0
  9
$PELEVATION
 40
0.0
  9
$THICKNESS
 40
0.0
  9
$LIMCHECK
 70
     0
  9
$CHAMFERA
 40
0.0
  9
$CHAMFERB
 40
0.0
  9
$CHAMFERC
 40
0.0
  9
$CHAMFERD
 40
0.0
  9
$SKPOLY
 70
     0
  9
$TDCREATE
 40
2459716.709244815
  9
$TDUPDATE
 40
2459716.70924515
  9
$TDINDWG
 40
0.0000000116
  9
$TDUSRTIMER
 40
0.0000000116
  9
$USRTIMER
 70
     1
  9
$ANGBASE
 50
0.0
  9
$ANGDIR
 70
     0
  9
$PDMODE
 70
     0
  9
$PDSIZE
 40
-1.0
  9
$PLINEWID
 40
0.0
  9
$COORDS
 70
     1
  9
$SPLFRAME
 70
     0
  9
$SPLINETYPE
 70
     6
  9
$SPLINESEGS
 70
     8
  9
$ATTDIA
 70
     0
  9
$ATTREQ
 70
     1
  9
$HANDLING
 70
     1
  9
$HANDSEED
  5
165
  9
$SURFTAB1
 70
     6
  9
$SURFTAB2
 70
     6
  9
$SURFTYPE
 70
     6
  9
$SURFU
 70
     6
  9
$SURFV
 70
     6
  9
$UCSNAME
  2

  9
$UCSORG
 10
0.0
 20
0.0
 30
0.0
  9
$UCSXDIR
 10
1.0
 20
0.0
 30
0.0
  9
$UCSYDIR
 10
0.0
 20
1.0
 30
0.0
  9
$PUCSNAME
  2

  9
$PUCSORG
 10
0.0
 20
0.0
 30
0.0
  9
$PUCSXDIR
 10
1.0
 20
0.0
 30
0.0
  9
$PUCSYDIR
 10
0.0
 20
1.0
 30
0.0
  9
$USERI1
 70
     0
  9
$USERI2
 70
     0
  9
$USERI3
 70
     0
  9
$USERI4
 70
     0
  9
$USERI5
 70
     0
  9
$USERR1
 40
0.0
  9
$USERR2
 40
0.0
  9
$USERR3
 40
0.0
  9
$USERR4
 40
0.0
  9
$USERR5
 40
0.0
  9
$WORLDVIEW
 70
     1
  9
$SHADEDGE
 70
     3
  9
$SHADEDIF
 70
    70
  9
$TILEMODE
 70
     1
  9
$MAXACTVP
 70
    64
  9
$PINSBASE
 10
0.0
 20
0.0
 30
0.0
  9
$PLIMCHECK
 70
     0
  9
$PEXTMIN
 10
1.0000000000E+20
 20
1.0000000000E+20
 30
1.0000000000E+20
  9
$PEXTMAX
 10
-1.0000000000E+20
 20
-1.0000000000E+20
 30
-1.0000000000E+20
  9
$PLIMMIN
 10
0.0
 20
0.0
  9
$PLIMMAX
 10
420.0
 20
297.0
  9
$UNITMODE
 70
     0
  9
$VISRETAIN
 70
     1
  9
$PLINEGEN
 70
     0
  9
$PSLTSCALE
 70
     1
  9
$TREEDEPTH
 70
  3020
  9
$PICKSTYLE
 70
     1
  9
$CMLSTYLE
  2
STANDARD
  9
$CMLJUST
 70
     0
  9
$CMLSCALE
 40
20.0
  9
$PROXYGRAPHICS
 70
     1
  9
$MEASUREMENT
 70
     1
  0
ENDSEC
  0
SECTION
  2
CLASSES
  0
CLASS
  1
ACDBDICTIONARYWDFLT
  2
AcDbDictionaryWithDefault
  3
ObjectDBX Classes
 90
        0
280
     0
281
     0
  0
CLASS
  1
VISUALSTYLE
  2
AcDbVisualStyle
  3
ObjectDBX Classes
 90
     4095
280
     0
281
     0
  0
CLASS
  1
MATERIAL
  2
AcDbMaterial
  3
ObjectDBX Classes
 90
     1153
280
     0
281
     0
  0
CLASS
  1
SCALE
  2
AcDbScale
  3
ObjectDBX Classes
 90
     1153
280
     0
281
     0
  0
CLASS
  1
TABLESTYLE
  2
AcDbTableStyle
  3
ObjectDBX Classes
 90
     4095
280
     0
281
     0
  0
CLASS
  1
MLEADERSTYLE
  2
AcDbMLeaderStyle
  3
ACDB_MLEADERSTYLE_CLASS
 90
     4095
280
     0
281
     0
  0
CLASS
  1
SUN
  2
AcDbSun
  3
SCENEOE
 90
     1153
280
     0
281
     0
  0
CLASS
  1
XRECORD
  2
AcDbXrecord
  3
ObjectDBX Classes
 90
        0
280
     0
281
     0
  0
CLASS
  1
LWPOLYLINE
  2
AcDbPolyline
  3
ObjectDBX Classes
 90
        0
280
     0
281
     1
  0
CLASS
  1
HATCH
  2
AcDbHatch
  3
ObjectDBX Classes
 90
        0
280
     0
281
     1
  0
ENDSEC
  0
SECTION
  2
TABLES
  0
TABLE
  2
VPORT
  5
8
330
0
100
AcDbSymbolTable
 70
     1
  0
VPORT
  5
29
330
8
100
AcDbSymbolTableRecord
100
AcDbViewportTableRecord
  2
*ACTIVE
 70
     0
 10
0.0
 20
0.0
 11
1.0
 21
1.0
 12
139.7
 22
107.95
 13
0.0
 23
0.0
 14
10.0
 24
10.0
 15
10.0
 25
10.0
 16
0.0
 26
0.0
 36
1.0
 17
0.0
 27
0.0
 37
0.0
 40
215.9
 41
1.2941176471
 42
50.0
 43
0.0
 44
0.0
 50
0.0
 51
0.0
 71
     0
 72
  2000
 73
     1
 74
     3
 75
     0
 76
     0
 77
     0
 78
     0
  0
ENDTAB
  0
TABLE
  2
LTYPE
  5
5
330
0
100
AcDbSymbolTable
 70
     6
  0
LTYPE
  5
14
330
5
100
AcDbSymbolTableRecord
100
AcDbLinetypeTableRecord
  2
BYBLOCK
 70
     0
  3

 72
    65
 73
     0
 40
0.0
  0
LTYPE
  5
15
330
5
100
AcDbSymbolTableRecord
100
AcDbLinetypeTableRecord
  2
BYLAYER
 70
     0
  3

 72
    65
 73
     0
 40
0.0
  0
LTYPE
  5
16
330
5
100
AcDbSymbolTableRecord
100
AcDbLinetypeTableRecord
  2
CONTINUOUS
 70
     0
  3
Solid line
 72
    65
 73
     0
 40
0.0
  0
LTYPE
  5
5E
330
5
100
AcDbSymbolTableRecord
100
AcDbLinetypeTableRecord
  2
HIDDEN
 70
     0
  3
Hidden __ __ __ __ __ __ __ __ __ __ __ __ __ __
 72
    65
 73
     2
 40
1.905
 49
1.27
 74
     0
 49
-0.635
 74
     0
  0
LTYPE
  5
5F
330
5
100
AcDbSymbolTableRecord
100
AcDbLinetypeTableRecord
  2
PHANTOM
 70
     0
  3
Phantom ______  __  __  ______  __  __  ______
 72
    65
 73
     6
 40
12.7
 49
6.35
 74
     0
 49
-1.27
 74
     0
 49
1.27
 74
     0
 49
-1.27
 74
     0
 49
1.27
 74
     0
 49
-1.27
 74
     0
  0
LTYPE
  5
60
330
5
100
AcDbSymbolTableRecord
100
AcDbLinetypeTableRecord
  2
CENTER
 70
     0
  3
Center ____ _ ____ _ ____ _ ____ _ ____ _ ____
 72
    65
 73
     4
 40
10.16
 49
6.35
 74
     0
 49
-1.27
 74
     0
 49
1.27
 74
     0
 49
-1.27
 74
     0
  0
LTYPE
  5
61
330
5
100
AcDbSymbolTableRecord
100
AcDbLinetypeTableRecord
  2
CENTERX2
 70
     0
  3
Center (2x) ________  __  ________  __  _____
 72
    65
 73
     4
 40
20.32
 49
12.7
 74
     0
 49
-2.54
 74
     0
 49
2.54
 74
     0
 49
-2.54
 74
     0
  0
LTYPE
  5
62
330
5
100
AcDbSymbolTableRecord
100
AcDbLinetypeTableRecord
  2
DOT2
 70
     0
  3
Dot (.5x) ........................................
 72
    65
 73
     2
 40
0.635
 49
0.0
 74
     0
 49
-0.635
 74
     0
  0
ENDTAB
  0
TABLE
  2
LAYER
  5
2
330
0
100
AcDbSymbolTable
 70
     1
  0
LAYER
  5
10
330
2
100
AcDbSymbolTableRecord
100
AcDbLayerTableRecord
  2
0
 70
     0
 62
     7
  6
CONTINUOUS
  0
ENDTAB
  0
TABLE
  2
STYLE
  5
3
330
0
100
AcDbSymbolTable
 70
     1
  0
STYLE
  5
11
330
3
100
AcDbSymbolTableRecord
100
AcDbTextStyleTableRecord
  2
STANDARD
 70
     0
 40
0.0
 41
1.0
 50
0.0
 71
     0
 42
3.5
  3
GOTHIC.TTF
  4

1001
ACAD
1000
CENTURY GOTHIC
1071
       34
  0
ENDTAB
  0
TABLE
  2
VIEW
  5
6
330
0
100
AcDbSymbolTable
 70
     0
  0
ENDTAB
  0
TABLE
  2
UCS
  5
7
330
0
100
AcDbSymbolTable
 70
     0
  0
ENDTAB
  0
TABLE
  2
APPID
  5
9
330
0
100
AcDbSymbolTable
 70
     1
  0
APPID
  5
12
330
9
100
AcDbSymbolTableRecord
100
AcDbRegAppTableRecord
  2
ACAD
 70
     0
  0
ENDTAB
  0
TABLE
  2
DIMSTYLE
  5
A
330
0
100
AcDbSymbolTable
 70
     1
  0
DIMSTYLE
105
27
330
A
100
AcDbSymbolTableRecord
100
AcDbDimStyleTableRecord
  2
ISO-25
 70
     0
  3

  4

  5

  6

  7

 40
1.0
 41
2.5
 42
0.625
 43
3.75
 44
1.25
 45
0.0
 46
0.0
 47
0.0
 48
0.0
140
2.5
141
2.5
142
0.0
143
0.0393700787
144
1.0
145
0.0
146
1.0
147
0.625
 71
     0
 72
     0
 73
     0
 74
     0
 75
     0
 76
     0
 77
     1
 78
     8
170
     0
171
     3
172
     1
173
     0
174
     0
175
     0
176
     0
177
     0
178
     0
270
     2
271
     2
272
     2
273
     2
274
     3
340
11
275
     0
280
     0
281
     0
282
     0
283
     0
284
     8
285
     0
286
     0
287
     3
288
     0
  0
ENDTAB
  0
TABLE
  2
BLOCK_RECORD
  5
1
330
0
100
AcDbSymbolTable
 70
     1
  0
BLOCK_RECORD
  5
1F
330
1
100
AcDbSymbolTableRecord
100
AcDbBlockTableRecord
  2
*MODEL_SPACE
  0
BLOCK_RECORD
  5
1B
330
1
100
AcDbSymbolTableRecord
100
AcDbBlockTableRecord
  2
*PAPER_SPACE
  0
BLOCK_RECORD
  5
23
330
1
100
AcDbSymbolTableRecord
100
AcDbBlockTableRecord
  2
*PAPER_SPACE0
  0
ENDTAB
  0
ENDSEC
  0
SECTION
  2
BLOCKS
  0
BLOCK
  5
20
330
1F
100
AcDbEntity
  8
0
100
AcDbBlockBegin
  2
*MODEL_SPACE
 70
     0
 10
0.0
 20
0.0
 30
0.0
  3
*MODEL_SPACE
  1

  0
ENDBLK
  5
21
330
1F
100
AcDbEntity
  8
0
100
AcDbBlockEnd
  0
BLOCK
  5
1C
330
1B
100
AcDbEntity
 67
     1
  8
0
100
AcDbBlockBegin
  2
*PAPER_SPACE
 70
     0
 10
0.0
 20
0.0
 30
0.0
  3
*PAPER_SPACE
  1

  0
ENDBLK
  5
1D
330
1B
100
AcDbEntity
 67
     1
  8
0
100
AcDbBlockEnd
  0
BLOCK
  5
24
330
23
100
AcDbEntity
  8
0
100
AcDbBlockBegin
  2
*PAPER_SPACE0
 70
     0
 10
0.0
 20
0.0
 30
0.0
  3
*PAPER_SPACE0
  1

  0
ENDBLK
  5
25
330
23
100
AcDbEntity
  8
0
100
AcDbBlockEnd
  0
ENDSEC
  0
SECTION
  2
ENTITIES
  0
LINE
  5
63
330
1F
100
AcDbEntity
  8
0
  6
CONTINUOUS
 62
     7
100
AcDbLine
 10
131.4873809498
 20
143.9655248511
 30
0.0
 11
131.5128263998
 21
143.9655248511
 31
0.0
  0
LINE
  5
64
330
1F
100
AcDbEntity
  8
0
  6
CONTINUOUS
 62
     7
100
AcDbLine
 10
131.4873809498
 20
143.9655248511
 30
0.0
 11
131.4873809498
 21
144.016415751
 31
0.0
  0
LINE
  5
65
330
1F
100
AcDbEntity
  8
0
  6
CONTINUOUS
 62
     7
100
AcDbLine
 10
126.5576018054
 20
146.9354332999
 30
0.0
 11
126.5321563555
 21
146.9354332999
 31
0.0
  0
LINE
  5
66
330
1F
100
AcDbEntity
  8
0
  6
CONTINUOUS
 62
     7
100
AcDbLine
 10
126.5576018054
 20
146.9354332999
 30
0.0
 11
126.5576018054
 21
146.8845424
 31
0.0
  0
LINE
  5
67
330
1F
100
AcDbEntity
  8
0
  6
CONTINUOUS
 62
     7
100
AcDbLine
 10
126.5576018054
 20
146.9354332999
 30
0.0
 11
126.5830472554
 21
146.9354332999
 31
0.0
  0
LINE
  5
68
330
1F
100
AcDbEntity
  8
0
  6
CONTINUOUS
 62
     7
100
AcDbLine
 10
126.5576018054
 20
146.9354332999
 30
0.0
 11
126.5576018054
 21
146.9863241998
 31
0.0
  0
LINE
  5
69
330
1F
100
AcDbEntity
  8
0
  6
CONTINUOUS
 62
     7
100
AcDbLine
 10
125.540486891
 20
147.3931350114
 30
0.0
 11
125.5659323409
 21
147.3931350114
 31
0.0
  0
LINE
  5
6A
330
1F
100
AcDbEntity
  8
0
  6
CONTINUOUS
 62
     7
100
AcDbLine
 10
125.540486891
 20
147.3931350114
 30
0.0
 11
125.540486891
 21
147.4440259113
 31
0.0
  0
LINE
  5
6B
330
1F
100
AcDbEntity
  8
0
  6
CONTINUOUS
 62
     7
100
AcDbLine
 10
126.5576018054
 20
146.9354332999
 30
0.0
 11
126.5321563555
 21
146.9354332999
 31
0.0
  0
LINE
  5
6C
330
1F
100
AcDbEntity
  8
0
  6
CONTINUOUS
 62
     7
100
AcDbLine
 10
126.5576018054
 20
146.9354332999
 30
0.0
 11
126.5576018054
 21
146.8845424
 31
0.0
  0
LINE
  5
6D
330
1F
100
AcDbEntity
  8
0
  6
CONTINUOUS
 62
     7
100
AcDbLine
 10
126.5576018054
 20
146.9354332999
 30
0.0
 11
126.5321563555
 21
146.9354332999
 31
0.0
  0
LINE
  5
6E
330
1F
100
AcDbEntity
  8
0
  6
CONTINUOUS
 62
     7
100
AcDbLine
 10
126.5576018054
 20
146.9354332999
 30
0.0
 11
126.5576018054
 21
146.9863241998
 31
0.0
  0
LINE
  5
6F
330
1F
100
AcDbEntity
  8
0
  6
CONTINUOUS
 62
     7
100
AcDbLine
 10
126.5576018054
 20
146.9354332999
 30
0.0
 11
126.5321563555
 21
146.9354332999
 31
0.0
  0
LINE
  5
70
330
1F
100
AcDbEntity
  8
0
  6
CONTINUOUS
 62
     7
100
AcDbLine
 10
126.5576018054
 20
146.9354332999
 30
0.0
 11
126.5576018054
 21
146.8845424
 31
0.0
  0
POINT
  5
71
330
1F
100
AcDbEntity
  8
0
  6
CONTINUOUS
 62
     7
100
AcDbPoint
 10
131.4873809498
 20
143.9655248511
 30
0.0
  0
POINT
  5
72
330
1F
100
AcDbEntity
  8
0
  6
CONTINUOUS
 62
     7
100
AcDbPoint
 10
126.5576018054
 20
146.9354332999
 30
0.0
  0
POINT
  5
73
330
1F
100
AcDbEntity
  8
0
  6
CONTINUOUS
 62
     7
100
AcDbPoint
 10
126.5576018054
 20
146.9354332999
 30
0.0
  0
POINT
  5
74
330
1F
100
AcDbEntity
  8
0
  6
CONTINUOUS
 62
     7
100
AcDbPoint
 10
125.540486891
 20
147.3931350114
 30
0.0
  0
POINT
  5
75
330
1F
100
AcDbEntity
  8
0
  6
CONTINUOUS
 62
     7
100
AcDbPoint
 10
126.5576018054
 20
146.9354332999
 30
0.0
  0
POINT
  5
76
330
1F
100
AcDbEntity
  8
0
  6
CONTINUOUS
 62
     7
100
AcDbPoint
 10
126.5576018054
 20
146.9354332999
 30
0.0
  0
POINT
  5
77
330
1F
100
AcDbEntity
  8
0
  6
CONTINUOUS
 62
     7
100
AcDbPoint
 10
126.5576018054
 20
146.9354332999
 30
0.0
  0
ARC
  5
78
330
1F
100
AcDbEntity
  8
0
  6
CONTINUOUS
 62
     7
100
AcDbCircle
 10
86.5576018054
 20
186.9354332999
 30
0.0
 40
5.292893218813475
100
AcDbArc
 50
90.0
 51
180.0
  0
LINE
  5
79
330
1F
100
AcDbEntity
  8
0
  6
CONTINUOUS
 62
     7
100
AcDbLine
 10
86.5576018054
 20
192.2283265187
 30
0.0
 11
86.5576018054
 21
191.5212197375
 31
0.0
  0
ARC
  5
7A
330
1F
100
AcDbEntity
  8
0
  6
CONTINUOUS
 62
     7
100
AcDbCircle
 10
86.5576018054
 20
186.9354332999
 30
0.0
 40
4.58578643762695
100
AcDbArc
 50
90.0
 51
180.0
  0
LINE
  5
7B
330
1F
100
AcDbEntity
  8
0
  6
CONTINUOUS
 62
     7
100
AcDbLine
 10
81.2647085866
 20
186.9354332999
 30
0.0
 11
81.9718153678
 21
186.9354332999
 31
0.0
  0
LINE
  5
7C
330
1F
100
AcDbEntity
  8
0
  6
CONTINUOUS
 62
     7
100
AcDbLine
 10
166.5576018054
 20
191.5212197375
 30
0.0
 11
86.5576018054
 21
191.5212197375
 31
0.0
  0
LINE
  5
7D
330
1F
100
AcDbEntity
  8
0
  6
CONTINUOUS
 62
     7
100
AcDbLine
 10
86.5576018054
 20
192.2283265187
 30
0.0
 11
166.5576018054
 21
192.2283265187
 31
0.0
  0
LINE
  5
7E
330
1F
100
AcDbEntity
  8
0
  6
CONTINUOUS
 62
     7
100
AcDbLine
 10
166.5576018054
 20
191.5212197375
 30
0.0
 11
166.5576018054
 21
192.2283265187
 31
0.0
  0
LINE
  5
7F
330
1F
100
AcDbEntity
  8
0
  6
CONTINUOUS
 62
     7
100
AcDbLine
 10
171.143388243
 20
106.9354332999
 30
0.0
 11
171.143388243
 21
186.9354332999
 31
0.0
  0
ARC
  5
80
330
1F
100
AcDbEntity
  8
0
  6
CONTINUOUS
 62
     7
100
AcDbCircle
 10
166.5576018054
 20
106.9354332999
 30
0.0
 40
4.58578643762695
100
AcDbArc
 50
270.0
 51
0.0
  0
LINE
  5
81
330
1F
100
AcDbEntity
  8
0
  6
CONTINUOUS
 62
     7
100
AcDbLine
 10
86.5576018054
 20
102.3496468623
 30
0.0
 11
166.5576018054
 21
102.3496468623
 31
0.0
  0
ARC
  5
82
330
1F
100
AcDbEntity
  8
0
  6
CONTINUOUS
 62
     7
100
AcDbCircle
 10
86.5576018054
 20
106.9354332999
 30
0.0
 40
4.585786437626922
100
AcDbArc
 50
180.0
 51
270.0
  0
LINE
  5
83
330
1F
100
AcDbEntity
  8
0
  6
CONTINUOUS
 62
     7
100
AcDbLine
 10
81.9718153678
 20
186.9354332999
 30
0.0
 11
81.9718153678
 21
106.9354332999
 31
0.0
  0
ARC
  5
84
330
1F
100
AcDbEntity
  8
0
  6
CONTINUOUS
 62
     7
100
AcDbCircle
 10
166.5576018054
 20
186.9354332999
 30
0.0
 40
4.58578643762695
100
AcDbArc
 50
0.0
 51
90.0
  0
LINE
  5
85
330
1F
100
AcDbEntity
  8
0
  6
CONTINUOUS
 62
     7
100
AcDbLine
 10
171.143388243
 20
186.9354332999
 30
0.0
 11
171.8504950242
 21
186.9354332999
 31
0.0
  0
LINE
  5
86
330
1F
100
AcDbEntity
  8
0
  6
CONTINUOUS
 62
     7
100
AcDbLine
 10
171.8504950242
 20
186.9354332999
 30
0.0
 11
171.8504950242
 21
106.9354332999
 31
0.0
  0
LINE
  5
87
330
1F
100
AcDbEntity
  8
0
  6
CONTINUOUS
 62
     7
100
AcDbLine
 10
171.143388243
 20
106.9354332999
 30
0.0
 11
171.8504950242
 21
106.9354332999
 31
0.0
  0
LINE
  5
88
330
1F
100
AcDbEntity
  8
0
  6
CONTINUOUS
 62
     7
100
AcDbLine
 10
166.5576018054
 20
102.3496468623
 30
0.0
 11
166.5576018054
 21
101.6425400811
 31
0.0
  0
LINE
  5
89
330
1F
100
AcDbEntity
  8
0
  6
CONTINUOUS
 62
     7
100
AcDbLine
 10
166.5576018054
 20
101.6425400811
 30
0.0
 11
86.5576018054
 21
101.6425400811
 31
0.0
  0
LINE
  5
8A
330
1F
100
AcDbEntity
  8
0
  6
CONTINUOUS
 62
     7
100
AcDbLine
 10
86.5576018054
 20
101.6425400811
 30
0.0
 11
86.5576018054
 21
102.3496468623
 31
0.0
  0
ARC
  5
8B
330
1F
100
AcDbEntity
  8
0
  6
CONTINUOUS
 62
     7
100
AcDbCircle
 10
166.5576018054
 20
106.9354332999
 30
0.0
 40
5.292893218813489
100
AcDbArc
 50
270.0
 51
0.0
  0
LINE
  5
8C
330
1F
100
AcDbEntity
  8
0
  6
CONTINUOUS
 62
     7
100
AcDbLine
 10
81.2647085866
 20
106.9354332999
 30
0.0
 11
81.2647085866
 21
186.9354332999
 31
0.0
  0
LINE
  5
8D
330
1F
100
AcDbEntity
  8
0
  6
CONTINUOUS
 62
     7
100
AcDbLine
 10
81.2647085866
 20
106.9354332999
 30
0.0
 11
81.9718153678
 21
106.9354332999
 31
0.0
  0
ARC
  5
8E
330
1F
100
AcDbEntity
  8
0
  6
CONTINUOUS
 62
     7
100
AcDbCircle
 10
86.5576018054
 20
106.9354332999
 30
0.0
 40
5.292893218813475
100
AcDbArc
 50
180.0
 51
270.0
  0
ARC
  5
8F
330
1F
100
AcDbEntity
  8
0
  6
CONTINUOUS
 62
     7
100
AcDbCircle
 10
166.5576018054
 20
186.9354332999
 30
0.0
 40
5.292893218813504
100
AcDbArc
 50
0.0
 51
90.0
  0
LINE
  5
90
330
1F
100
AcDbEntity
  8
0
  6
CONTINUOUS
 62
     7
100
AcDbLine
 10
166.5576018054
 20
192.2283265187
 30
0.0
 11
166.5576018054
 21
196.6425400811
 31
0.0
  0
ARC
  5
91
330
1F
100
AcDbEntity
  8
0
  6
CONTINUOUS
 62
     7
100
AcDbCircle
 10
166.5576018054
 20
186.9354332999
 30
0.0
 40
9.707106781186582
100
AcDbArc
 50
0.0
 51
90.0
  0
LINE
  5
92
330
1F
100
AcDbEntity
  8
0
  6
CONTINUOUS
 62
     7
100
AcDbLine
 10
171.8504950242
 20
186.9354332999
 30
0.0
 11
176.2647085866
 21
186.9354332999
 31
0.0
  0
LINE
  5
93
330
1F
100
AcDbEntity
  8
0
  6
CONTINUOUS
 62
     7
100
AcDbLine
 10
166.5576018054
 20
97.2283265187
 30
0.0
 11
166.5576018054
 21
101.6425400811
 31
0.0
  0
LINE
  5
94
330
1F
100
AcDbEntity
  8
0
  6
CONTINUOUS
 62
     7
100
AcDbLine
 10
86.5576018054
 20
97.2283265187
 30
0.0
 11
166.5576018054
 21
97.2283265187
 31
0.0
  0
LINE
  5
95
330
1F
100
AcDbEntity
  8
0
  6
CONTINUOUS
 62
     7
100
AcDbLine
 10
86.5576018054
 20
97.2283265187
 30
0.0
 11
86.5576018054
 21
101.6425400811
 31
0.0
  0
LINE
  5
96
330
1F
100
AcDbEntity
  8
0
  6
CONTINUOUS
 62
     7
100
AcDbLine
 10
176.2647085866
 20
106.9354332999
 30
0.0
 11
171.8504950242
 21
106.9354332999
 31
0.0
  0
ARC
  5
97
330
1F
100
AcDbEntity
  8
0
  6
CONTINUOUS
 62
     7
100
AcDbCircle
 10
166.5576018054
 20
106.9354332999
 30
0.0
 40
9.707106781186553
100
AcDbArc
 50
270.0
 51
0.0
  0
LINE
  5
98
330
1F
100
AcDbEntity
  8
0
  6
CONTINUOUS
 62
     7
100
AcDbLine
 10
176.2647085866
 20
106.9354332999
 30
0.0
 11
176.2647085866
 21
186.9354332999
 31
0.0
  0
LINE
  5
99
330
1F
100
AcDbEntity
  8
0
  6
CONTINUOUS
 62
     7
100
AcDbLine
 10
86.5576018054
 20
192.2283265187
 30
0.0
 11
86.5576018054
 21
196.6425400811
 31
0.0
  0
LINE
  5
9A
330
1F
100
AcDbEntity
  8
0
  6
CONTINUOUS
 62
     7
100
AcDbLine
 10
166.5576018054
 20
196.6425400811
 30
0.0
 11
86.5576018054
 21
196.6425400811
 31
0.0
  0
ARC
  5
9B
330
1F
100
AcDbEntity
  8
0
  6
CONTINUOUS
 62
     7
100
AcDbCircle
 10
86.5576018054
 20
106.9354332999
 30
0.0
 40
9.707106781186553
100
AcDbArc
 50
180.0
 51
270.0
  0
LINE
  5
9C
330
1F
100
AcDbEntity
  8
0
  6
CONTINUOUS
 62
     7
100
AcDbLine
 10
76.8504950242
 20
106.9354332999
 30
0.0
 11
81.2647085866
 21
106.9354332999
 31
0.0
  0
LINE
  5
9D
330
1F
100
AcDbEntity
  8
0
  6
CONTINUOUS
 62
     7
100
AcDbLine
 10
76.8504950242
 20
186.9354332999
 30
0.0
 11
76.8504950242
 21
106.9354332999
 31
0.0
  0
LINE
  5
9E
330
1F
100
AcDbEntity
  8
0
  6
CONTINUOUS
 62
     7
100
AcDbLine
 10
81.2647085866
 20
186.9354332999
 30
0.0
 11
76.8504950242
 21
186.9354332999
 31
0.0
  0
ARC
  5
9F
330
1F
100
AcDbEntity
  8
0
  6
CONTINUOUS
 62
     7
100
AcDbCircle
 10
86.5576018054
 20
186.9354332999
 30
0.0
 40
9.707106781186582
100
AcDbArc
 50
90.0
 51
180.0
  0
LINE
  5
A0
330
1F
100
AcDbEntity
  8
0
  6
CONTINUOUS
 62
     7
100
AcDbLine
 10
176.2647085866
 20
186.9354332999
 30
0.0
 11
176.5576018054
 21
186.9354332999
 31
0.0
  0
LINE
  5
A1
330
1F
100
AcDbEntity
  8
0
  6
CONTINUOUS
 62
     7
100
AcDbLine
 10
176.5576018054
 20
186.9354332999
 30
0.0
 11
176.5576018054
 21
106.9354332999
 31
0.0
  0
LINE
  5
A2
330
1F
100
AcDbEntity
  8
0
  6
CONTINUOUS
 62
     7
100
AcDbLine
 10
176.2647085866
 20
106.9354332999
 30
0.0
 11
176.5576018054
 21
106.9354332999
 31
0.0
  0
LINE
  5
A3
330
1F
100
AcDbEntity
  8
0
  6
CONTINUOUS
 62
     7
100
AcDbLine
 10
166.5576018054
 20
196.6425400811
 30
0.0
 11
166.5576018054
 21
196.9354332999
 31
0.0
  0
ARC
  5
A4
330
1F
100
AcDbEntity
  8
0
  6
CONTINUOUS
 62
     7
100
AcDbCircle
 10
166.5576018054
 20
186.9354332999
 30
0.0
 40
10.00000000000003
100
AcDbArc
 50
0.0
 51
90.0
  0
ARC
  5
A5
330
1F
100
AcDbEntity
  8
0
  6
CONTINUOUS
 62
     7
100
AcDbCircle
 10
86.5576018054
 20
106.9354332999
 30
0.0
 40
10.0
100
AcDbArc
 50
180.0
 51
270.0
  0
LINE
  5
A6
330
1F
100
AcDbEntity
  8
0
  6
CONTINUOUS
 62
     7
100
AcDbLine
 10
76.5576018054
 20
106.9354332999
 30
0.0
 11
76.8504950242
 21
106.9354332999
 31
0.0
  0
LINE
  5
A7
330
1F
100
AcDbEntity
  8
0
  6
CONTINUOUS
 62
     7
100
AcDbLine
 10
86.5576018054
 20
96.9354332999
 30
0.0
 11
86.5576018054
 21
97.2283265187
 31
0.0
  0
LINE
  5
A8
330
1F
100
AcDbEntity
  8
0
  6
CONTINUOUS
 62
     7
100
AcDbLine
 10
76.5576018054
 20
106.9354332999
 30
0.0
 11
76.5576018054
 21
186.9354332999
 31
0.0
  0
LINE
  5
A9
330
1F
100
AcDbEntity
  8
0
  6
CONTINUOUS
 62
     7
100
AcDbLine
 10
76.5576018054
 20
186.9354332999
 30
0.0
 11
76.8504950242
 21
186.9354332999
 31
0.0
  0
LINE
  5
AA
330
1F
100
AcDbEntity
  8
0
  6
CONTINUOUS
 62
     7
100
AcDbLine
 10
86.5576018054
 20
196.6425400811
 30
0.0
 11
86.5576018054
 21
196.9354332999
 31
0.0
  0
LINE
  5
AB
330
1F
100
AcDbEntity
  8
0
  6
CONTINUOUS
 62
     7
100
AcDbLine
 10
86.5576018054
 20
196.9354332999
 30
0.0
 11
166.5576018054
 21
196.9354332999
 31
0.0
  0
ARC
  5
AC
330
1F
100
AcDbEntity
  8
0
  6
CONTINUOUS
 62
     7
100
AcDbCircle
 10
166.5576018054
 20
106.9354332999
 30
0.0
 40
10.00000000000003
100
AcDbArc
 50
270.0
 51
0.0
  0
LINE
  5
AD
330
1F
100
AcDbEntity
  8
0
  6
CONTINUOUS
 62
     7
100
AcDbLine
 10
166.5576018054
 20
96.9354332999
 30
0.0
 11
166.5576018054
 21
97.2283265187
 31
0.0
  0
LINE
  5
AE
330
1F
100
AcDbEntity
  8
0
  6
CONTINUOUS
 62
     7
100
AcDbLine
 10
166.5576018054
 20
96.9354332999
 30
0.0
 11
86.5576018054
 21
96.9354332999
 31
0.0
  0
ARC
  5
AF
330
1F
100
AcDbEntity
  8
0
  6
CONTINUOUS
 62
     7
100
AcDbCircle
 10
86.5576018054
 20
186.9354332999
 30
0.0
 40
10.0
100
AcDbArc
 50
90.0
 51
180.0
  0
LINE
  5
B0
330
1F
100
AcDbEntity
  8
0
  6
CONTINUOUS
 62
     7
100
AcDbLine
 10
232.3507728786
 20
117.9354332999
 30
0.0
 11
237.3507728786
 21
117.9354332999
 31
0.0
  0
LINE
  5
B1
330
1F
100
AcDbEntity
  8
0
  6
CONTINUOUS
 62
     7
100
AcDbLine
 10
232.3507728786
 20
175.9354332999
 30
0.0
 11
232.3507728786
 21
117.9354332999
 31
0.0
  0
LINE
  5
B2
330
1F
100
AcDbEntity
  8
0
  6
CONTINUOUS
 62
     7
100
AcDbLine
 10
237.3507728786
 20
175.9354332999
 30
0.0
 11
232.3507728786
 21
175.9354332999
 31
0.0
  0
LINE
  5
B3
330
1F
100
AcDbEntity
  8
0
  6
CONTINUOUS
 62
     7
100
AcDbLine
 10
237.3507728786
 20
175.9354332999
 30
0.0
 11
237.3507728786
 21
117.9354332999
 31
0.0
  0
LINE
  5
B4
330
1F
100
AcDbEntity
  8
0
  6
CONTINUOUS
 62
     7
100
AcDbLine
 10
232.3507728786
 20
181.9354332999
 30
0.0
 11
237.3507728786
 21
181.9354332999
 31
0.0
  0
LINE
  5
B5
330
1F
100
AcDbEntity
  8
0
  6
CONTINUOUS
 62
     7
100
AcDbLine
 10
237.3507728786
 20
181.9354332999
 30
0.0
 11
237.3507728786
 21
175.9354332999
 31
0.0
  0
LINE
  5
B6
330
1F
100
AcDbEntity
  8
0
  6
CONTINUOUS
 62
     7
100
AcDbLine
 10
232.3507728786
 20
175.9354332999
 30
0.0
 11
232.3507728786
 21
181.9354332999
 31
0.0
  0
LINE
  5
B7
330
1F
100
AcDbEntity
  8
0
  6
CONTINUOUS
 62
     7
100
AcDbLine
 10
237.3507728786
 20
111.9354332999
 30
0.0
 11
232.3507728786
 21
111.9354332999
 31
0.0
  0
LINE
  5
B8
330
1F
100
AcDbEntity
  8
0
  6
CONTINUOUS
 62
     7
100
AcDbLine
 10
237.3507728786
 20
117.9354332999
 30
0.0
 11
237.3507728786
 21
111.9354332999
 31
0.0
  0
LINE
  5
B9
330
1F
100
AcDbEntity
  8
0
  6
CONTINUOUS
 62
     7
100
AcDbLine
 10
232.3507728786
 20
111.9354332999
 30
0.0
 11
232.3507728786
 21
117.9354332999
 31
0.0
  0
LINE
  5
BA
330
1F
100
AcDbEntity
  8
0
  6
CONTINUOUS
 62
     7
100
AcDbLine
 10
276.7578796598
 20
106.9354332999
 30
0.0
 11
276.7578796598
 21
186.9354332999
 31
0.0
  0
LINE
  5
BB
330
1F
100
AcDbEntity
  8
0
  6
CONTINUOUS
 62
     7
100
AcDbLine
 10
276.7578796598
 20
186.9354332999
 30
0.0
 11
277.464986441
 21
186.9354332999
 31
0.0
  0
LINE
  5
BC
330
1F
100
AcDbEntity
  8
0
  6
CONTINUOUS
 62
     7
100
AcDbLine
 10
277.464986441
 20
186.9354332999
 30
0.0
 11
277.464986441
 21
106.9354332999
 31
0.0
  0
LINE
  5
BD
330
1F
100
AcDbEntity
  8
0
  6
CONTINUOUS
 62
     7
100
AcDbLine
 10
276.7578796598
 20
106.9354332999
 30
0.0
 11
277.464986441
 21
106.9354332999
 31
0.0
  0
LINE
  5
BE
330
1F
100
AcDbEntity
  8
0
  6
CONTINUOUS
 62
     7
100
AcDbLine
 10
276.7578796598
 20
186.9354332999
 30
0.0
 11
276.7578796598
 21
196.6425400811
 31
0.0
  0
ARC
  5
BF
330
1F
100
AcDbEntity
  8
0
  6
CONTINUOUS
 62
     7
100
AcDbCircle
 10
277.464986441
 20
195.9354332999
 30
0.0
 40
1.000000000000068
100
AcDbArc
 50
90.0
 51
135.0
  0
LINE
  5
C0
330
1F
100
AcDbEntity
  8
0
  6
CONTINUOUS
 62
     7
100
AcDbLine
 10
277.464986441
 20
196.9354332999
 30
0.0
 11
277.464986441
 21
186.9354332999
 31
0.0
  0
LINE
  5
C1
330
1F
100
AcDbEntity
  8
0
  6
CONTINUOUS
 62
     7
100
AcDbLine
 10
291.6365593163
 20
186.9354332999
 30
0.0
 11
277.464986441
 21
186.9354332999
 31
0.0
  0
LINE
  5
C2
330
1F
100
AcDbEntity
  8
0
  6
CONTINUOUS
 62
     7
100
AcDbLine
 10
291.6365593163
 20
106.9354332999
 30
0.0
 11
291.6365593163
 21
186.9354332999
 31
0.0
  0
LINE
  5
C3
330
1F
100
AcDbEntity
  8
0
  6
CONTINUOUS
 62
     7
100
AcDbLine
 10
277.464986441
 20
106.9354332999
 30
0.0
 11
291.6365593163
 21
106.9354332999
 31
0.0
  0
LINE
  5
C4
330
1F
100
AcDbEntity
  8
0
  6
CONTINUOUS
 62
     7
100
AcDbLine
 10
277.464986441
 20
196.9354332999
 30
0.0
 11
291.6365593163
 21
196.9354332999
 31
0.0
  0
LINE
  5
C5
330
1F
100
AcDbEntity
  8
0
  6
CONTINUOUS
 62
     7
100
AcDbLine
 10
291.6365593163
 20
186.9354332999
 30
0.0
 11
291.6365593163
 21
196.9354332999
 31
0.0
  0
LINE
  5
C6
330
1F
100
AcDbEntity
  8
0
  6
CONTINUOUS
 62
     7
100
AcDbLine
 10
277.464986441
 20
106.9354332999
 30
0.0
 11
277.464986441
 21
96.9354332999
 31
0.0
  0
ARC
  5
C7
330
1F
100
AcDbEntity
  8
0
  6
CONTINUOUS
 62
     7
100
AcDbCircle
 10
277.464986441
 20
97.9354332999
 30
0.0
 40
1.000000000000048
100
AcDbArc
 50
225.0
 51
270.0
  0
LINE
  5
C8
330
1F
100
AcDbEntity
  8
0
  6
CONTINUOUS
 62
     7
100
AcDbLine
 10
276.7578796598
 20
97.2283265187
 30
0.0
 11
276.7578796598
 21
106.9354332999
 31
0.0
  0
LINE
  5
C9
330
1F
100
AcDbEntity
  8
0
  6
CONTINUOUS
 62
     7
100
AcDbLine
 10
291.6365593163
 20
96.9354332999
 30
0.0
 11
291.6365593163
 21
106.9354332999
 31
0.0
  0
LINE
  5
CA
330
1F
100
AcDbEntity
  8
0
  6
CONTINUOUS
 62
     7
100
AcDbLine
 10
291.6365593163
 20
96.9354332999
 30
0.0
 11
277.464986441
 21
96.9354332999
 31
0.0
  0
ARC
  5
CB
330
1F
100
AcDbEntity
  8
0
  6
CONTINUOUS
 62
     7
100
AcDbCircle
 10
291.6365593163
 20
195.9354332999
 30
0.0
 40
1.0
100
AcDbArc
 50
45.0
 51
90.0
  0
LINE
  5
CC
330
1F
100
AcDbEntity
  8
0
  6
CONTINUOUS
 62
     7
100
AcDbLine
 10
292.3436660974
 20
196.6425400811
 30
0.0
 11
292.3436660974
 21
186.9354332999
 31
0.0
  0
LINE
  5
CD
330
1F
100
AcDbEntity
  8
0
  6
CONTINUOUS
 62
     7
100
AcDbLine
 10
291.6365593163
 20
186.9354332999
 30
0.0
 11
292.3436660974
 21
186.9354332999
 31
0.0
  0
LINE
  5
CE
330
1F
100
AcDbEntity
  8
0
  6
CONTINUOUS
 62
     7
100
AcDbLine
 10
292.3436660974
 20
186.9354332999
 30
0.0
 11
292.3436660974
 21
106.9354332999
 31
0.0
  0
LINE
  5
CF
330
1F
100
AcDbEntity
  8
0
  6
CONTINUOUS
 62
     7
100
AcDbLine
 10
291.6365593163
 20
106.9354332999
 30
0.0
 11
292.3436660974
 21
106.9354332999
 31
0.0
  0
LINE
  5
D0
330
1F
100
AcDbEntity
  8
0
  6
CONTINUOUS
 62
     7
100
AcDbLine
 10
292.3436660974
 20
106.9354332999
 30
0.0
 11
292.3436660974
 21
97.2283265187
 31
0.0
  0
ARC
  5
D1
330
1F
100
AcDbEntity
  8
0
  6
CONTINUOUS
 62
     7
100
AcDbCircle
 10
291.6365593163
 20
97.9354332999
 30
0.0
 40
1.0
100
AcDbArc
 50
270.0
 51
315.0
  0
LINE
  5
D2
330
1F
100
AcDbEntity
  8
0
  6
CONTINUOUS
 62
     7
100
AcDbLine
 10
272.3436660974
 20
192.2283265187
 30
0.0
 11
272.3436660974
 21
186.9354332999
 31
0.0
  0
LINE
  5
D3
330
1F
100
AcDbEntity
  8
0
  6
CONTINUOUS
 62
     7
100
AcDbLine
 10
276.7578796598
 20
196.6425400811
 30
0.0
 11
272.3436660974
 21
192.2283265187
 31
0.0
  0
LINE
  5
D4
330
1F
100
AcDbEntity
  8
0
  6
CONTINUOUS
 62
     7
100
AcDbLine
 10
276.7578796598
 20
186.9354332999
 30
0.0
 11
272.3436660974
 21
186.9354332999
 31
0.0
  0
LINE
  5
D5
330
1F
100
AcDbEntity
  8
0
  6
CONTINUOUS
 62
     7
100
AcDbLine
 10
272.3436660974
 20
186.9354332999
 30
0.0
 11
272.3436660974
 21
106.9354332999
 31
0.0
  0
LINE
  5
D6
330
1F
100
AcDbEntity
  8
0
  6
CONTINUOUS
 62
     7
100
AcDbLine
 10
272.3436660974
 20
106.9354332999
 30
0.0
 11
276.7578796598
 21
106.9354332999
 31
0.0
  0
LINE
  5
D7
330
1F
100
AcDbEntity
  8
0
  6
CONTINUOUS
 62
     7
100
AcDbLine
 10
272.3436660974
 20
106.9354332999
 30
0.0
 11
272.3436660974
 21
101.6425400811
 31
0.0
  0
LINE
  5
D8
330
1F
100
AcDbEntity
  8
0
  6
CONTINUOUS
 62
     7
100
AcDbLine
 10
272.3436660974
 20
101.6425400811
 30
0.0
 11
276.7578796598
 21
97.2283265187
 31
0.0
  0
LINE
  5
D9
330
1F
100
AcDbEntity
  8
0
  6
CONTINUOUS
 62
     7
100
AcDbLine
 10
296.7578796598
 20
186.9354332999
 30
0.0
 11
296.7578796598
 21
192.2283265187
 31
0.0
  0
LINE
  5
DA
330
1F
100
AcDbEntity
  8
0
  6
CONTINUOUS
 62
     7
100
AcDbLine
 10
296.7578796598
 20
186.9354332999
 30
0.0
 11
292.3436660974
 21
186.9354332999
 31
0.0
  0
LINE
  5
DB
330
1F
100
AcDbEntity
  8
0
  6
CONTINUOUS
 62
     7
100
AcDbLine
 10
296.7578796598
 20
192.2283265187
 30
0.0
 11
292.3436660974
 21
196.6425400811
 31
0.0
  0
LINE
  5
DC
330
1F
100
AcDbEntity
  8
0
  6
CONTINUOUS
 62
     7
100
AcDbLine
 10
296.7578796598
 20
106.9354332999
 30
0.0
 11
296.7578796598
 21
186.9354332999
 31
0.0
  0
LINE
  5
DD
330
1F
100
AcDbEntity
  8
0
  6
CONTINUOUS
 62
     7
100
AcDbLine
 10
292.3436660974
 20
106.9354332999
 30
0.0
 11
296.7578796598
 21
106.9354332999
 31
0.0
  0
LINE
  5
DE
330
1F
100
AcDbEntity
  8
0
  6
CONTINUOUS
 62
     7
100
AcDbLine
 10
296.7578796598
 20
101.6425400811
 30
0.0
 11
296.7578796598
 21
106.9354332999
 31
0.0
  0
LINE
  5
DF
330
1F
100
AcDbEntity
  8
0
  6
CONTINUOUS
 62
     7
100
AcDbLine
 10
292.3436660974
 20
97.2283265187
 30
0.0
 11
296.7578796598
 21
101.6425400811
 31
0.0
  0
LINE
  5
E0
330
1F
100
AcDbEntity
  8
0
  6
CONTINUOUS
 62
     7
100
AcDbLine
 10
272.3436660974
 20
106.9354332999
 30
0.0
 11
272.0507728786
 21
106.9354332999
 31
0.0
  0
LINE
  5
E1
330
1F
100
AcDbEntity
  8
0
  6
CONTINUOUS
 62
     7
100
AcDbLine
 10
272.0507728786
 20
106.9354332999
 30
0.0
 11
272.0507728786
 21
186.9354332999
 31
0.0
  0
LINE
  5
E2
330
1F
100
AcDbEntity
  8
0
  6
CONTINUOUS
 62
     7
100
AcDbLine
 10
272.3436660974
 20
186.9354332999
 30
0.0
 11
272.0507728786
 21
186.9354332999
 31
0.0
  0
LINE
  5
E3
330
1F
100
AcDbEntity
  8
0
  6
CONTINUOUS
 62
     7
100
AcDbLine
 10
272.0507728786
 20
186.9354332999
 30
0.0
 11
272.0507728786
 21
191.5212197375
 31
0.0
  0
ARC
  5
E4
330
1F
100
AcDbEntity
  8
0
  6
CONTINUOUS
 62
     7
100
AcDbCircle
 10
273.0507728786
 20
191.5212197375
 30
0.0
 40
1.0
100
AcDbArc
 50
135.0
 51
180.0
  0
ARC
  5
E5
330
1F
100
AcDbEntity
  8
0
  6
CONTINUOUS
 62
     7
100
AcDbCircle
 10
273.0507728786
 20
102.3496468623
 30
0.0
 40
1.0
100
AcDbArc
 50
180.0
 51
225.0
  0
LINE
  5
E6
330
1F
100
AcDbEntity
  8
0
  6
CONTINUOUS
 62
     7
100
AcDbLine
 10
272.0507728786
 20
102.3496468623
 30
0.0
 11
272.0507728786
 21
106.9354332999
 31
0.0
  0
LINE
  5
E7
330
1F
100
AcDbEntity
  8
0
  6
CONTINUOUS
 62
     7
100
AcDbLine
 10
296.7578796598
 20
186.9354332999
 30
0.0
 11
297.0507728786
 21
186.9354332999
 31
0.0
  0
LINE
  5
E8
330
1F
100
AcDbEntity
  8
0
  6
CONTINUOUS
 62
     7
100
AcDbLine
 10
297.0507728786
 20
186.9354332999
 30
0.0
 11
297.0507728786
 21
106.9354332999
 31
0.0
  0
LINE
  5
E9
330
1F
100
AcDbEntity
  8
0
  6
CONTINUOUS
 62
     7
100
AcDbLine
 10
296.7578796598
 20
106.9354332999
 30
0.0
 11
297.0507728786
 21
106.9354332999
 31
0.0
  0
ARC
  5
EA
330
1F
100
AcDbEntity
  8
0
  6
CONTINUOUS
 62
     7
100
AcDbCircle
 10
296.0507728786
 20
191.5212197375
 30
0.0
 40
1.000000000000048
100
AcDbArc
 50
0.0
 51
45.0
  0
LINE
  5
EB
330
1F
100
AcDbEntity
  8
0
  6
CONTINUOUS
 62
     7
100
AcDbLine
 10
297.0507728786
 20
191.5212197375
 30
0.0
 11
297.0507728786
 21
186.9354332999
 31
0.0
  0
LINE
  5
EC
330
1F
100
AcDbEntity
  8
0
  6
CONTINUOUS
 62
     7
100
AcDbLine
 10
297.0507728786
 20
106.9354332999
 30
0.0
 11
297.0507728786
 21
102.3496468623
 31
0.0
  0
ARC
  5
ED
330
1F
100
AcDbEntity
  8
0
  6
CONTINUOUS
 62
     7
100
AcDbCircle
 10
296.0507728786
 20
102.3496468623
 30
0.0
 40
1.000000000000038
100
AcDbArc
 50
315.0
 51
0.0
  0
LINE
  5
EE
330
1F
100
AcDbEntity
  8
0
  6
CONTINUOUS
 62
     7
100
AcDbLine
 10
241.5231728786
 20
159.4364332999
 30
0.0
 11
241.5231728786
 21
159.4354332999
 31
0.0
  0
SPLINE
  5
EF
330
1F
100
AcDbEntity
  8
0
  6
CONTINUOUS
 62
     7
100
AcDbSpline
210
0.0
220
0.0
230
1.0
 70
    24
 71
     3
 72
    14
 73
    10
 74
     0
 42
0.00000001
 43
0.00000001
 40
0.0
 40
0.0
 40
0.0
 40
0.0
 40
0.0921005365871966
 40
0.1885811201974384
 40
0.2948525773012127
 40
0.4131718684170211
 40
0.5898806476230779
 40
0.7865010052660263
 40
1.0
 40
1.0
 40
1.0
 40
1.0
 10
244.0507728786359
 20
159.4364332998997
 30
0.0
 10
243.8775066612354
 20
159.4364332998997
 30
0.0
 10
243.5227341639132
 20
159.4364332998997
 30
0.0
 10
243.0366828804991
 20
159.4364332998997
 30
0.0
 10
242.6067292959588
 20
159.4364332998997
 30
0.0
 10
242.1875859077847
 20
159.4364332998997
 30
0.0
 10
241.8296348698825
 20
159.4364332998997
 30
0.0
 10
241.5720977683136
 20
159.4364332998997
 30
0.0
 10
241.5399225698726
 20
159.4364332998997
 30
0.0
 10
241.5231728786359
 20
159.4364332998997
 30
0.0
  0
LINE
  5
F0
330
1F
100
AcDbEntity
  8
0
  6
CONTINUOUS
 62
     7
100
AcDbLine
 10
244.0507728786
 20
159.4364332999
 30
0.0
 11
244.0507728786
 21
159.4354332999
 31
0.0
  0
LINE
  5
F1
330
1F
100
AcDbEntity
  8
0
  6
CONTINUOUS
 62
     7
100
AcDbLine
 10
246.5783728786
 20
159.4364332999
 30
0.0
 11
246.5783728786
 21
159.4354332999
 31
0.0
  0
SPLINE
  5
F2
330
1F
100
AcDbEntity
  8
0
  6
CONTINUOUS
 62
     7
100
AcDbSpline
210
0.0
220
0.0
230
1.0
 70
    24
 71
     3
 72
    14
 73
    10
 74
     0
 42
0.00000001
 43
0.00000001
 40
0.0
 40
0.0
 40
0.0
 40
0.0
 40
0.2134989947339743
 40
0.4101193523769238
 40
0.5868281315829813
 40
0.7051474226987896
 40
0.8114188798025631
 40
0.9078994634128043
 40
1.0
 40
1.0
 40
1.0
 40
1.0
 10
246.5783728786359
 20
159.4364332998997
 30
0.0
 10
246.5616231873992
 20
159.4364332998997
 30
0.0
 10
246.5294479889582
 20
159.4364332998997
 30
0.0
 10
246.2719108873893
 20
159.4364332998997
 30
0.0
 10
245.9139598494871
 20
159.4364332998997
 30
0.0
 10
245.494816461313
 20
159.4364332998997
 30
0.0
 10
245.0648628767727
 20
159.4364332998997
 30
0.0
 10
244.5788115933586
 20
159.4364332998997
 30
0.0
 10
244.2240390960364
 20
159.4364332998997
 30
0.0
 10
244.0507728786359
 20
159.4364332998997
 30
0.0
  0
LINE
  5
F3
330
1F
100
AcDbEntity
  8
0
  6
CONTINUOUS
 62
     7
100
AcDbLine
 10
272.0507728786
 20
134.4354332999
 30
0.0
 11
237.3507728786
 21
134.4354332999
 31
0.0
  0
LINE
  5
F4
330
1F
100
AcDbEntity
  8
0
  6
CONTINUOUS
 62
     7
100
AcDbLine
 10
237.3507728786
 20
159.4354332999
 30
0.0
 11
272.0507728786
 21
159.4354332999
 31
0.0
  0
LINE
  5
F5
330
1F
100
AcDbEntity
  8
0
  6
CONTINUOUS
 62
     7
100
AcDbLine
 10
237.3507728786
 20
139.4354332999
 30
0.0
 11
272.0507728786
 21
139.4354332999
 31
0.0
  0
LINE
  5
F6
330
1F
100
AcDbEntity
  8
0
  6
CONTINUOUS
 62
     7
100
AcDbLine
 10
272.0507728786
 20
154.4354332999
 30
0.0
 11
237.3507728786
 21
154.4354332999
 31
0.0
  0
LINE
  5
F7
330
1F
100
AcDbEntity
  8
0
  6
CONTINUOUS
 62
     7
100
AcDbLine
 10
126.5576018054
 20
40.0180273621
 30
0.0
 11
126.5830472554
 21
40.0180273621
 31
0.0
  0
LINE
  5
F8
330
1F
100
AcDbEntity
  8
0
  6
CONTINUOUS
 62
     7
100
AcDbLine
 10
126.5576018054
 20
40.0180273621
 30
0.0
 11
126.5576018054
 21
40.068918262
 31
0.0
  0
POINT
  5
F9
330
1F
100
AcDbEntity
  8
0
  6
CONTINUOUS
 62
     7
100
AcDbPoint
 10
126.5576018054
 20
40.0180273621
 30
0.0
  0
LINE
  5
FA
330
1F
100
AcDbEntity
  8
0
  6
CONTINUOUS
 62
     7
100
AcDbLine
 10
91.5576018054
 20
46.7180273621
 30
0.0
 11
91.5576018054
 21
51.7180273621
 31
0.0
  0
LINE
  5
FB
330
1F
100
AcDbEntity
  8
0
  6
CONTINUOUS
 62
     7
100
AcDbLine
 10
91.5576018054
 20
51.7180273621
 30
0.0
 11
97.5576018054
 21
51.7180273621
 31
0.0
  0
LINE
  5
FC
330
1F
100
AcDbEntity
  8
0
  6
CONTINUOUS
 62
     7
100
AcDbLine
 10
97.5576018054
 20
51.7180273621
 30
0.0
 11
97.5576018054
 21
46.7180273621
 31
0.0
  0
LINE
  5
FD
330
1F
100
AcDbEntity
  8
0
  6
CONTINUOUS
 62
     7
100
AcDbLine
 10
97.5576018054
 20
46.7180273621
 30
0.0
 11
91.5576018054
 21
46.7180273621
 31
0.0
  0
LINE
  5
FE
330
1F
100
AcDbEntity
  8
0
  6
CONTINUOUS
 62
     7
100
AcDbLine
 10
155.5576018054
 20
51.7180273621
 30
0.0
 11
97.5576018054
 21
51.7180273621
 31
0.0
  0
LINE
  5
FF
330
1F
100
AcDbEntity
  8
0
  6
CONTINUOUS
 62
     7
100
AcDbLine
 10
155.5576018054
 20
46.7180273621
 30
0.0
 11
155.5576018054
 21
51.7180273621
 31
0.0
  0
LINE
  5
100
330
1F
100
AcDbEntity
  8
0
  6
CONTINUOUS
 62
     7
100
AcDbLine
 10
155.5576018054
 20
46.7180273621
 30
0.0
 11
97.5576018054
 21
46.7180273621
 31
0.0
  0
LINE
  5
101
330
1F
100
AcDbEntity
  8
0
  6
CONTINUOUS
 62
     7
100
AcDbLine
 10
161.5576018054
 20
51.7180273621
 30
0.0
 11
161.5576018054
 21
46.7180273621
 31
0.0
  0
LINE
  5
102
330
1F
100
AcDbEntity
  8
0
  6
CONTINUOUS
 62
     7
100
AcDbLine
 10
161.5576018054
 20
46.7180273621
 30
0.0
 11
155.5576018054
 21
46.7180273621
 31
0.0
  0
LINE
  5
103
330
1F
100
AcDbEntity
  8
0
  6
CONTINUOUS
 62
     7
100
AcDbLine
 10
155.5576018054
 20
51.7180273621
 30
0.0
 11
161.5576018054
 21
51.7180273621
 31
0.0
  0
LINE
  5
104
330
1F
100
AcDbEntity
  8
0
  6
CONTINUOUS
 62
     7
100
AcDbLine
 10
176.5576018054
 20
6.6038137997
 30
0.0
 11
166.5576018054
 21
6.6038137997
 31
0.0
  0
LINE
  5
105
330
1F
100
AcDbEntity
  8
0
  6
CONTINUOUS
 62
     7
100
AcDbLine
 10
166.5576018054
 20
7.3109205809
 30
0.0
 11
166.5576018054
 21
6.6038137997
 31
0.0
  0
LINE
  5
106
330
1F
100
AcDbEntity
  8
0
  6
CONTINUOUS
 62
     7
100
AcDbLine
 10
166.5576018054
 20
7.3109205809
 30
0.0
 11
176.2647085866
 21
7.3109205809
 31
0.0
  0
ARC
  5
107
330
1F
100
AcDbEntity
  8
0
  6
CONTINUOUS
 62
     7
100
AcDbCircle
 10
175.5576018054
 20
6.6038137997
 30
0.0
 40
1.0
100
AcDbArc
 50
0.0
 51
45.0
  0
LINE
  5
108
330
1F
100
AcDbEntity
  8
0
  6
CONTINUOUS
 62
     7
100
AcDbLine
 10
76.8504950242
 20
7.3109205809
 30
0.0
 11
86.5576018054
 21
7.3109205809
 31
0.0
  0
LINE
  5
109
330
1F
100
AcDbEntity
  8
0
  6
CONTINUOUS
 62
     7
100
AcDbLine
 10
86.5576018054
 20
7.3109205809
 30
0.0
 11
86.5576018054
 21
6.6038137997
 31
0.0
  0
LINE
  5
10A
330
1F
100
AcDbEntity
  8
0
  6
CONTINUOUS
 62
     7
100
AcDbLine
 10
86.5576018054
 20
6.6038137997
 30
0.0
 11
76.5576018054
 21
6.6038137997
 31
0.0
  0
ARC
  5
10B
330
1F
100
AcDbEntity
  8
0
  6
CONTINUOUS
 62
     7
100
AcDbCircle
 10
77.5576018054
 20
6.6038137997
 30
0.0
 40
1.0
100
AcDbArc
 50
135.0
 51
180.0
  0
LINE
  5
10C
330
1F
100
AcDbEntity
  8
0
  6
CONTINUOUS
 62
     7
100
AcDbLine
 10
86.5576018054
 20
7.3109205809
 30
0.0
 11
166.5576018054
 21
7.3109205809
 31
0.0
  0
LINE
  5
10D
330
1F
100
AcDbEntity
  8
0
  6
CONTINUOUS
 62
     7
100
AcDbLine
 10
166.5576018054
 20
6.6038137997
 30
0.0
 11
86.5576018054
 21
6.6038137997
 31
0.0
  0
LINE
  5
10E
330
1F
100
AcDbEntity
  8
0
  6
CONTINUOUS
 62
     7
100
AcDbLine
 10
86.5576018054
 20
6.6038137997
 30
0.0
 11
86.5576018054
 21
-7.5677590755
 31
0.0
  0
LINE
  5
10F
330
1F
100
AcDbEntity
  8
0
  6
CONTINUOUS
 62
     7
100
AcDbLine
 10
76.5576018054
 20
-7.5677590755
 30
0.0
 11
86.5576018054
 21
-7.5677590755
 31
0.0
  0
LINE
  5
110
330
1F
100
AcDbEntity
  8
0
  6
CONTINUOUS
 62
     7
100
AcDbLine
 10
76.5576018054
 20
-7.5677590755
 30
0.0
 11
76.5576018054
 21
6.6038137997
 31
0.0
  0
LINE
  5
111
330
1F
100
AcDbEntity
  8
0
  6
CONTINUOUS
 62
     7
100
AcDbLine
 10
176.5576018054
 20
6.6038137997
 30
0.0
 11
176.5576018054
 21
-7.5677590755
 31
0.0
  0
LINE
  5
112
330
1F
100
AcDbEntity
  8
0
  6
CONTINUOUS
 62
     7
100
AcDbLine
 10
166.5576018054
 20
-7.5677590755
 30
0.0
 11
176.5576018054
 21
-7.5677590755
 31
0.0
  0
LINE
  5
113
330
1F
100
AcDbEntity
  8
0
  6
CONTINUOUS
 62
     7
100
AcDbLine
 10
166.5576018054
 20
-7.5677590755
 30
0.0
 11
166.5576018054
 21
6.6038137997
 31
0.0
  0
LINE
  5
114
330
1F
100
AcDbEntity
  8
0
  6
CONTINUOUS
 62
     7
100
AcDbLine
 10
86.5576018054
 20
-7.5677590755
 30
0.0
 11
166.5576018054
 21
-7.5677590755
 31
0.0
  0
LINE
  5
115
330
1F
100
AcDbEntity
  8
0
  6
CONTINUOUS
 62
     7
100
AcDbLine
 10
166.5576018054
 20
-8.2748658567
 30
0.0
 11
86.5576018054
 21
-8.2748658567
 31
0.0
  0
LINE
  5
116
330
1F
100
AcDbEntity
  8
0
  6
CONTINUOUS
 62
     7
100
AcDbLine
 10
86.5576018054
 20
-8.2748658567
 30
0.0
 11
86.5576018054
 21
-7.5677590755
 31
0.0
  0
LINE
  5
117
330
1F
100
AcDbEntity
  8
0
  6
CONTINUOUS
 62
     7
100
AcDbLine
 10
166.5576018054
 20
-8.2748658567
 30
0.0
 11
166.5576018054
 21
-7.5677590755
 31
0.0
  0
LINE
  5
118
330
1F
100
AcDbEntity
  8
0
  6
CONTINUOUS
 62
     7
100
AcDbLine
 10
86.5576018054
 20
-8.2748658567
 30
0.0
 11
76.8504950242
 21
-8.2748658567
 31
0.0
  0
ARC
  5
119
330
1F
100
AcDbEntity
  8
0
  6
CONTINUOUS
 62
     7
100
AcDbCircle
 10
77.5576018054
 20
-7.5677590755
 30
0.0
 40
1.000000000000002
100
AcDbArc
 50
180.0
 51
225.0
  0
LINE
  5
11A
330
1F
100
AcDbEntity
  8
0
  6
CONTINUOUS
 62
     7
100
AcDbLine
 10
176.2647085866
 20
-8.2748658567
 30
0.0
 11
166.5576018054
 21
-8.2748658567
 31
0.0
  0
ARC
  5
11B
330
1F
100
AcDbEntity
  8
0
  6
CONTINUOUS
 62
     7
100
AcDbCircle
 10
175.5576018054
 20
-7.5677590755
 30
0.0
 40
1.0
100
AcDbArc
 50
315.0
 51
0.0
  0
LINE
  5
11C
330
1F
100
AcDbEntity
  8
0
  6
CONTINUOUS
 62
     7
100
AcDbLine
 10
86.5576018054
 20
11.7251341433
 30
0.0
 11
81.2647085866
 21
11.7251341433
 31
0.0
  0
LINE
  5
11D
330
1F
100
AcDbEntity
  8
0
  6
CONTINUOUS
 62
     7
100
AcDbLine
 10
86.5576018054
 20
7.3109205809
 30
0.0
 11
86.5576018054
 21
11.7251341433
 31
0.0
  0
LINE
  5
11E
330
1F
100
AcDbEntity
  8
0
  6
CONTINUOUS
 62
     7
100
AcDbLine
 10
76.8504950242
 20
7.3109205809
 30
0.0
 11
81.2647085866
 21
11.7251341433
 31
0.0
  0
LINE
  5
11F
330
1F
100
AcDbEntity
  8
0
  6
CONTINUOUS
 62
     7
100
AcDbLine
 10
166.5576018054
 20
11.7251341433
 30
0.0
 11
86.5576018054
 21
11.7251341433
 31
0.0
  0
LINE
  5
120
330
1F
100
AcDbEntity
  8
0
  6
CONTINUOUS
 62
     7
100
AcDbLine
 10
166.5576018054
 20
7.3109205809
 30
0.0
 11
166.5576018054
 21
11.7251341433
 31
0.0
  0
LINE
  5
121
330
1F
100
AcDbEntity
  8
0
  6
CONTINUOUS
 62
     7
100
AcDbLine
 10
171.8504950242
 20
11.7251341433
 30
0.0
 11
166.5576018054
 21
11.7251341433
 31
0.0
  0
LINE
  5
122
330
1F
100
AcDbEntity
  8
0
  6
CONTINUOUS
 62
     7
100
AcDbLine
 10
176.2647085866
 20
7.3109205809
 30
0.0
 11
171.8504950242
 21
11.7251341433
 31
0.0
  0
LINE
  5
123
330
1F
100
AcDbEntity
  8
0
  6
CONTINUOUS
 62
     7
100
AcDbLine
 10
166.5576018054
 20
-12.6890794191
 30
0.0
 11
171.8504950242
 21
-12.6890794191
 31
0.0
  0
LINE
  5
124
330
1F
100
AcDbEntity
  8
0
  6
CONTINUOUS
 62
     7
100
AcDbLine
 10
166.5576018054
 20
-12.6890794191
 30
0.0
 11
166.5576018054
 21
-8.2748658567
 31
0.0
  0
LINE
  5
125
330
1F
100
AcDbEntity
  8
0
  6
CONTINUOUS
 62
     7
100
AcDbLine
 10
171.8504950242
 20
-12.6890794191
 30
0.0
 11
176.2647085866
 21
-8.2748658567
 31
0.0
  0
LINE
  5
126
330
1F
100
AcDbEntity
  8
0
  6
CONTINUOUS
 62
     7
100
AcDbLine
 10
81.2647085866
 20
-12.6890794191
 30
0.0
 11
86.5576018054
 21
-12.6890794191
 31
0.0
  0
LINE
  5
127
330
1F
100
AcDbEntity
  8
0
  6
CONTINUOUS
 62
     7
100
AcDbLine
 10
81.2647085866
 20
-12.6890794191
 30
0.0
 11
76.8504950242
 21
-8.2748658567
 31
0.0
  0
LINE
  5
128
330
1F
100
AcDbEntity
  8
0
  6
CONTINUOUS
 62
     7
100
AcDbLine
 10
86.5576018054
 20
-12.6890794191
 30
0.0
 11
86.5576018054
 21
-8.2748658567
 31
0.0
  0
LINE
  5
129
330
1F
100
AcDbEntity
  8
0
  6
CONTINUOUS
 62
     7
100
AcDbLine
 10
86.5576018054
 20
-12.6890794191
 30
0.0
 11
166.5576018054
 21
-12.6890794191
 31
0.0
  0
LINE
  5
12A
330
1F
100
AcDbEntity
  8
0
  6
CONTINUOUS
 62
     7
100
AcDbLine
 10
86.5576018054
 20
12.0180273621
 30
0.0
 11
166.5576018054
 21
12.0180273621
 31
0.0
  0
LINE
  5
12B
330
1F
100
AcDbEntity
  8
0
  6
CONTINUOUS
 62
     7
100
AcDbLine
 10
166.5576018054
 20
12.0180273621
 30
0.0
 11
166.5576018054
 21
11.7251341433
 31
0.0
  0
LINE
  5
12C
330
1F
100
AcDbEntity
  8
0
  6
CONTINUOUS
 62
     7
100
AcDbLine
 10
86.5576018054
 20
11.7251341433
 30
0.0
 11
86.5576018054
 21
12.0180273621
 31
0.0
  0
LINE
  5
12D
330
1F
100
AcDbEntity
  8
0
  6
CONTINUOUS
 62
     7
100
AcDbLine
 10
166.5576018054
 20
12.0180273621
 30
0.0
 11
171.143388243
 21
12.0180273621
 31
0.0
  0
ARC
  5
12E
330
1F
100
AcDbEntity
  8
0
  6
CONTINUOUS
 62
     7
100
AcDbCircle
 10
171.143388243
 20
11.0180273621
 30
0.0
 40
1.000000000000004
100
AcDbArc
 50
45.0
 51
90.0
  0
ARC
  5
12F
330
1F
100
AcDbEntity
  8
0
  6
CONTINUOUS
 62
     7
100
AcDbCircle
 10
81.9718153678
 20
11.0180273621
 30
0.0
 40
1.000000000000002
100
AcDbArc
 50
90.0
 51
135.0
  0
LINE
  5
130
330
1F
100
AcDbEntity
  8
0
  6
CONTINUOUS
 62
     7
100
AcDbLine
 10
81.9718153678
 20
12.0180273621
 30
0.0
 11
86.5576018054
 21
12.0180273621
 31
0.0
  0
LINE
  5
131
330
1F
100
AcDbEntity
  8
0
  6
CONTINUOUS
 62
     7
100
AcDbLine
 10
86.5576018054
 20
-12.6890794191
 30
0.0
 11
86.5576018054
 21
-12.9819726379
 31
0.0
  0
LINE
  5
132
330
1F
100
AcDbEntity
  8
0
  6
CONTINUOUS
 62
     7
100
AcDbLine
 10
86.5576018054
 20
-12.9819726379
 30
0.0
 11
81.9718153678
 21
-12.9819726379
 31
0.0
  0
ARC
  5
133
330
1F
100
AcDbEntity
  8
0
  6
CONTINUOUS
 62
     7
100
AcDbCircle
 10
81.9718153678
 20
-11.9819726379
 30
0.0
 40
1.000000000000002
100
AcDbArc
 50
225.0
 51
270.0
  0
LINE
  5
134
330
1F
100
AcDbEntity
  8
0
  6
CONTINUOUS
 62
     7
100
AcDbLine
 10
171.143388243
 20
-12.9819726379
 30
0.0
 11
166.5576018054
 21
-12.9819726379
 31
0.0
  0
LINE
  5
135
330
1F
100
AcDbEntity
  8
0
  6
CONTINUOUS
 62
     7
100
AcDbLine
 10
166.5576018054
 20
-12.9819726379
 30
0.0
 11
166.5576018054
 21
-12.6890794191
 31
0.0
  0
ARC
  5
136
330
1F
100
AcDbEntity
  8
0
  6
CONTINUOUS
 62
     7
100
AcDbCircle
 10
171.143388243
 20
-11.9819726379
 30
0.0
 40
1.000000000000002
100
AcDbArc
 50
270.0
 51
315.0
  0
LINE
  5
137
330
1F
100
AcDbEntity
  8
0
  6
CONTINUOUS
 62
     7
100
AcDbLine
 10
166.5576018054
 20
-12.9819726379
 30
0.0
 11
86.5576018054
 21
-12.9819726379
 31
0.0
  0
SPLINE
  5
138
330
1F
100
AcDbEntity
  8
0
  6
CONTINUOUS
 62
     7
100
AcDbSpline
210
0.0
220
0.0
230
1.0
 70
     8
 71
     3
 72
    14
 73
    10
 74
     0
 42
0.00000001
 43
0.00000001
 40
0.0
 40
0.0
 40
0.0
 40
0.0
 40
0.0902891402792937
 40
0.1854497523410863
 40
0.2910419221567778
 40
0.4092940885583089
 40
0.5867099877506506
 40
0.7847116609745663
 40
0.9999999999999999
 40
0.9999999999999999
 40
0.9999999999999999
 40
0.9999999999999999
 10
122.2301018054162
 20
40.01802736208629
 30
0.0
 10
122.248222185962
 20
40.18001015286649
 30
0.0
 10
122.2854406163751
 20
40.51271537456628
 30
0.0
 10
122.5661453850912
 20
40.96664833867445
 30
0.0
 10
122.9739023896909
 20
41.36765394121208
 30
0.0
 10
123.5799192112824
 20
41.75885726365199
 30
0.0
 10
124.4005154782861
 20
42.09272576208668
 30
0.0
 10
125.4339516247384
 20
42.33290183131748
 30
0.0
 10
126.1727511649939
 20
42.36290059938209
 30
0.0
 10
126.5576018054163
 20
42.37852736208629
 30
0.0
  0
SPLINE
  5
139
330
1F
100
AcDbEntity
  8
0
  6
CONTINUOUS
 62
     7
100
AcDbSpline
210
0.0
220
0.0
230
1.0
 70
     8
 71
     3
 72
    14
 73
    10
 74
     0
 42
0.00000001
 43
0.00000001
 40
0.0
 40
0.0
 40
0.0
 40
0.0
 40
0.215288339025435
 40
0.4132900122493511
 40
0.5907059114416927
 40
0.7089580778432235
 40
0.8145502476589145
 40
0.9097108597207068
 40
1.0
 40
1.0
 40
1.0
 40
1.0
 10
126.5576018054163
 20
37.65752736208629
 30
0.0
 10
126.1727511649939
 20
37.67315412479051
 30
0.0
 10
125.4339516247384
 20
37.70315289285513
 30
0.0
 10
124.4005154782861
 20
37.94332896208588
 30
0.0
 10
123.5799192112824
 20
38.27719746052059
 30
0.0
 10
122.9739023896909
 20
38.66840078296051
 30
0.0
 10
122.5661453850912
 20
39.06940638549813
 30
0.0
 10
122.2854406163751
 20
39.5233393496063
 30
0.0
 10
122.248222185962
 20
39.85604457130609
 30
0.0
 10
122.2301018054162
 20
40.01802736208629
 30
0.0
  0
SPLINE
  5
13A
330
1F
100
AcDbEntity
  8
0
  6
CONTINUOUS
 62
     7
100
AcDbSpline
210
0.0
220
0.0
230
1.0
 70
     8
 71
     3
 72
    14
 73
    10
 74
     0
 42
0.00000001
 43
0.00000001
 40
0.0
 40
0.0
 40
0.0
 40
0.0
 40
0.0902891402792949
 40
0.1854497523410859
 40
0.291041922156777
 40
0.4092940885583086
 40
0.5867099877506495
 40
0.7847116609745654
 40
0.9999999999999999
 40
0.9999999999999999
 40
0.9999999999999999
 40
0.9999999999999999
 10
130.8851018054163
 20
40.01802736208629
 30
0.0
 10
130.8669814248705
 20
39.85604457130609
 30
0.0
 10
130.8297629944574
 20
39.52333934960631
 30
0.0
 10
130.5490582257413
 20
39.06940638549815
 30
0.0
 10
130.1413012211416
 20
38.6684007829605
 30
0.0
 10
129.5352843995501
 20
38.27719746052058
 30
0.0
 10
128.7146881325464
 20
37.94332896208589
 30
0.0
 10
127.6812519860941
 20
37.70315289285513
 30
0.0
 10
126.9424524458387
 20
37.67315412479051
 30
0.0
 10
126.5576018054163
 20
37.65752736208629
 30
0.0
  0
SPLINE
  5
13B
330
1F
100
AcDbEntity
  8
0
  6
CONTINUOUS
 62
     7
100
AcDbSpline
210
0.0
220
0.0
230
1.0
 70
     8
 71
     3
 72
    14
 73
    10
 74
     0
 42
0.00000001
 43
0.00000001
 40
0.0
 40
0.0
 40
0.0
 40
0.0
 40
0.213498994733975
 40
0.410119352376925
 40
0.5868281315829822
 40
0.7051474226987903
 40
0.8114188798025637
 40
0.9078994634128043
 40
1.0
 40
1.0
 40
1.0
 40
1.0
 10
126.5576018054163
 20
42.54562736208629
 30
0.0
 10
126.9578876586841
 20
42.52887767084955
 30
0.0
 10
127.7268138782778
 20
42.49670247240855
 30
0.0
 10
128.8021709004828
 20
42.23916537083967
 30
0.0
 10
129.6556808116769
 20
41.88121433293747
 30
0.0
 10
130.2855872376429
 20
41.46207094476345
 30
0.0
 10
130.709587392123
 20
41.03211736022305
 30
0.0
 10
131.0004997856736
 20
40.54606607680895
 30
0.0
 10
131.0388648251705
 20
40.19129357948677
 30
0.0
 10
131.0576018054163
 20
40.01802736208629
 30
0.0
  0
SPLINE
  5
13C
330
1F
100
AcDbEntity
  8
0
  6
CONTINUOUS
 62
     7
100
AcDbSpline
210
0.0
220
0.0
230
1.0
 70
     8
 71
     3
 72
    14
 73
    10
 74
     0
 42
0.00000001
 43
0.00000001
 40
0.0
 40
0.0
 40
0.0
 40
0.0
 40
0.0921005365871966
 40
0.1885811201974381
 40
0.294852577301212
 40
0.4131718684170202
 40
0.5898806476230772
 40
0.7865010052660264
 40
1.0
 40
1.0
 40
1.0
 40
1.0
 10
131.0576018054163
 20
40.01802736208629
 30
0.0
 10
131.0388648251705
 20
39.84476114468582
 30
0.0
 10
131.0004997856736
 20
39.48998864736362
 30
0.0
 10
130.709587392123
 20
39.00393736394953
 30
0.0
 10
130.2855872376429
 20
38.57398377940913
 30
0.0
 10
129.6556808116769
 20
38.1548403912351
 30
0.0
 10
128.8021709004828
 20
37.7968893533329
 30
0.0
 10
127.7268138782778
 20
37.53935225176404
 30
0.0
 10
126.9578876586841
 20
37.50717705332302
 30
0.0
 10
126.5576018054163
 20
37.49042736208629
 30
0.0
  0
SPLINE
  5
13D
330
1F
100
AcDbEntity
  8
0
  6
CONTINUOUS
 62
     7
100
AcDbSpline
210
0.0
220
0.0
230
1.0
 70
     8
 71
     3
 72
    14
 73
    10
 74
     0
 42
0.00000001
 43
0.00000001
 40
0.0
 40
0.0
 40
0.0
 40
0.0
 40
0.2134989947339743
 40
0.4101193523769238
 40
0.5868281315829813
 40
0.7051474226987896
 40
0.8114188798025631
 40
0.9078994634128043
 40
1.0
 40
1.0
 40
1.0
 40
1.0
 10
126.5576018054163
 20
37.49042736208629
 30
0.0
 10
126.1573159521484
 20
37.50717705332302
 30
0.0
 10
125.3883897325548
 20
37.53935225176402
 30
0.0
 10
124.3130327103497
 20
37.79688935333291
 30
0.0
 10
123.4595227991556
 20
38.1548403912351
 30
0.0
 10
122.8296163731896
 20
38.57398377940914
 30
0.0
 10
122.4056162187095
 20
39.00393736394953
 30
0.0
 10
122.1147038251589
 20
39.48998864736362
 30
0.0
 10
122.076338785662
 20
39.84476114468583
 30
0.0
 10
122.0576018054162
 20
40.01802736208629
 30
0.0
  0
SPLINE
  5
13E
330
1F
100
AcDbEntity
  8
0
  6
CONTINUOUS
 62
     7
100
AcDbSpline
210
0.0
220
0.0
230
1.0
 70
     8
 71
     3
 72
    14
 73
    10
 74
     0
 42
0.00000001
 43
0.00000001
 40
0.0
 40
0.0
 40
0.0
 40
0.0
 40
0.0921005365871966
 40
0.1885811201974384
 40
0.2948525773012127
 40
0.4131718684170211
 40
0.5898806476230779
 40
0.7865010052660263
 40
1.0
 40
1.0
 40
1.0
 40
1.0
 10
122.0576018054162
 20
40.01802736208629
 30
0.0
 10
122.076338785662
 20
40.19129357948677
 30
0.0
 10
122.1147038251589
 20
40.54606607680896
 30
0.0
 10
122.4056162187095
 20
41.03211736022305
 30
0.0
 10
122.8296163731897
 20
41.46207094476345
 30
0.0
 10
123.4595227991556
 20
41.88121433293749
 30
0.0
 10
124.3130327103497
 20
42.23916537083966
 30
0.0
 10
125.3883897325547
 20
42.49670247240856
 30
0.0
 10
126.1573159521484
 20
42.52887767084955
 30
0.0
 10
126.5576018054163
 20
42.54562736208629
 30
0.0
  0
SPLINE
  5
13F
330
1F
100
AcDbEntity
  8
0
  6
CONTINUOUS
 62
     7
100
AcDbSpline
210
0.0
220
0.0
230
1.0
 70
     8
 71
     3
 72
    14
 73
    10
 74
     0
 42
0.00000001
 43
0.00000001
 40
0.0
 40
0.0
 40
0.0
 40
0.0
 40
0.2152883390254353
 40
0.4132900122493516
 40
0.5907059114416936
 40
0.7089580778432243
 40
0.8145502476589151
 40
0.9097108597207069
 40
1.0
 40
1.0
 40
1.0
 40
1.0
 10
126.5576018054163
 20
42.37852736208629
 30
0.0
 10
126.9424524458387
 20
42.36290059938209
 30
0.0
 10
127.6812519860941
 20
42.33290183131747
 30
0.0
 10
128.7146881325464
 20
42.09272576208667
 30
0.0
 10
129.5352843995501
 20
41.758857263652
 30
0.0
 10
130.1413012211416
 20
41.36765394121206
 30
0.0
 10
130.5490582257413
 20
40.96664833867445
 30
0.0
 10
130.8297629944574
 20
40.51271537456626
 30
0.0
 10
130.8669814248705
 20
40.18001015286648
 30
0.0
 10
130.8851018054163
 20
40.01802736208629
 30
0.0
  0
LINE
  5
140
330
1F
100
AcDbEntity
  8
0
  6
CONTINUOUS
 62
     7
100
AcDbLine
 10
122.8660018054
 20
39.6552273621
 30
0.0
 11
122.8660018054
 21
39.9264273621
 31
0.0
  0
LINE
  5
141
330
1F
100
AcDbEntity
  8
0
  6
CONTINUOUS
 62
     7
100
AcDbLine
 10
122.8660018054
 20
39.9264273621
 30
0.0
 11
123.4911018054
 21
39.9264273621
 31
0.0
  0
LINE
  5
142
330
1F
100
AcDbEntity
  8
0
  6
CONTINUOUS
 62
     7
100
AcDbLine
 10
123.4911018054
 20
39.9264273621
 30
0.0
 11
123.4911018054
 21
39.6138273621
 31
0.0
  0
LINE
  5
143
330
1F
100
AcDbEntity
  8
0
  6
CONTINUOUS
 62
     7
100
AcDbLine
 10
123.4911018054
 20
39.6138273621
 30
0.0
 11
124.6228018054
 21
39.6138273621
 31
0.0
  0
LINE
  5
144
330
1F
100
AcDbEntity
  8
0
  6
CONTINUOUS
 62
     7
100
AcDbLine
 10
124.6228018054
 20
39.6138273621
 30
0.0
 11
124.6228018054
 21
40.4330273621
 31
0.0
  0
LINE
  5
145
330
1F
100
AcDbEntity
  8
0
  6
CONTINUOUS
 62
     7
100
AcDbLine
 10
124.6228018054
 20
40.4330273621
 30
0.0
 11
123.9330018054
 21
40.4330273621
 31
0.0
  0
LINE
  5
146
330
1F
100
AcDbEntity
  8
0
  6
CONTINUOUS
 62
     7
100
AcDbLine
 10
123.9330018054
 20
40.8426273621
 30
0.0
 11
125.2480018054
 21
40.8426273621
 31
0.0
  0
LINE
  5
147
330
1F
100
AcDbEntity
  8
0
  6
CONTINUOUS
 62
     7
100
AcDbLine
 10
125.2480018054
 20
40.8426273621
 30
0.0
 11
125.2480018054
 21
39.6546273621
 31
0.0
  0
SPLINE
  5
148
330
1F
100
AcDbEntity
  8
0
  6
CONTINUOUS
 62
     7
100
AcDbSpline
210
0.0
220
0.0
230
1.0
 70
     8
 71
     3
 72
    11
 73
     7
 74
     0
 42
0.00000001
 43
0.00000001
 40
0.0
 40
0.0
 40
0.0
 40
0.0
 40
0.2833448308640329
 40
0.5580866109706035
 40
0.7754665892499429
 40
1.0
 40
1.0
 40
1.0
 40
1.0
 10
125.2480018054163
 20
39.65462736208629
 30
0.0
 10
125.2390147676083
 20
39.58605234636207
 30
0.0
 10
125.2213135607162
 20
39.45098442221438
 30
0.0
 10
125.0979680457257
 20
39.30117036583412
 30
0.0
 10
124.9476598835877
 20
39.20997726209331
 30
0.0
 10
124.8409966983177
 20
39.19900320924675
 30
0.0
 10
124.7868018054163
 20
39.19342736208629
 30
0.0
  0
LINE
  5
149
330
1F
100
AcDbEntity
  8
0
  6
CONTINUOUS
 62
     7
100
AcDbLine
 10
124.7868018054
 20
39.1934273621
 30
0.0
 11
123.3277018054
 21
39.1934273621
 31
0.0
  0
SPLINE
  5
14A
330
1F
100
AcDbEntity
  8
0
  6
CONTINUOUS
 62
     7
100
AcDbSpline
210
0.0
220
0.0
230
1.0
 70
     8
 71
     3
 72
    11
 73
     7
 74
     0
 42
0.00000001
 43
0.00000001
 40
0.0
 40
0.0
 40
0.0
 40
0.0
 40
0.2832327603404957
 40
0.5580114153644091
 40
0.7754417085638381
 40
1.0
 40
1.0
 40
1.0
 40
1.0
 10
123.3277018054162
 20
39.19342736208629
 30
0.0
 10
123.2590781693524
 20
39.2024336869376
 30
0.0
 10
123.1238792176442
 20
39.22017751032679
 30
0.0
 10
122.9739234226109
 20
39.34367942343367
 30
0.0
 10
122.8825871242625
 20
39.4941631571668
 30
0.0
 10
122.8715893657166
 20
39.60096515793136
 30
0.0
 10
122.8660018054163
 20
39.65522736208629
 30
0.0
  0
LINE
  5
14B
330
1F
100
AcDbEntity
  8
0
  6
CONTINUOUS
 62
     7
100
AcDbLine
 10
123.9330018054
 20
40.4330273621
 30
0.0
 11
123.9330018054
 21
40.8426273621
 31
0.0
  0
LINE
  5
14C
330
1F
100
AcDbEntity
  8
0
  6
CONTINUOUS
 62
     7
100
AcDbLine
 10
127.8456018054
 20
40.3808273621
 30
0.0
 11
127.8456018054
 21
39.1934273621
 31
0.0
  0
LINE
  5
14D
330
1F
100
AcDbEntity
  8
0
  6
CONTINUOUS
 62
     7
100
AcDbLine
 10
127.8456018054
 20
39.1934273621
 30
0.0
 11
127.2203018054
 21
39.1934273621
 31
0.0
  0
LINE
  5
14E
330
1F
100
AcDbEntity
  8
0
  6
CONTINUOUS
 62
     7
100
AcDbLine
 10
127.2203018054
 20
39.1934273621
 30
0.0
 11
127.2203018054
 21
40.4330273621
 31
0.0
  0
LINE
  5
14F
330
1F
100
AcDbEntity
  8
0
  6
CONTINUOUS
 62
     7
100
AcDbLine
 10
127.2203018054
 20
40.4330273621
 30
0.0
 11
126.0349018054
 21
40.4330273621
 31
0.0
  0
LINE
  5
150
330
1F
100
AcDbEntity
  8
0
  6
CONTINUOUS
 62
     7
100
AcDbLine
 10
126.0349018054
 20
40.4330273621
 30
0.0
 11
126.0349018054
 21
39.1934273621
 31
0.0
  0
LINE
  5
151
330
1F
100
AcDbEntity
  8
0
  6
CONTINUOUS
 62
     7
100
AcDbLine
 10
126.0349018054
 20
39.1934273621
 30
0.0
 11
125.4204018054
 21
39.1934273621
 31
0.0
  0
SPLINE
  5
152
330
1F
100
AcDbEntity
  8
0
  6
CONTINUOUS
 62
     7
100
AcDbSpline
210
0.0
220
0.0
230
1.0
 70
     8
 71
     3
 72
    11
 73
     7
 74
     0
 42
0.00000001
 43
0.00000001
 40
0.0
 40
0.0
 40
0.0
 40
0.0
 40
0.2832834002916871
 40
0.5580419236669862
 40
0.7754510728848657
 40
1.0
 40
1.0
 40
1.0
 40
1.0
 10
127.3839018054163
 20
40.84262736208629
 30
0.0
 10
127.4525407948883
 20
40.8336241223363
 30
0.0
 10
127.5877532135619
 20
40.81588857826929
 30
0.0
 10
127.737717186562
 20
40.69237805266341
 30
0.0
 10
127.8290259360852
 20
40.54188644787108
 30
0.0
 10
127.8400173274513
 20
40.43508882479863
 30
0.0
 10
127.8456018054163
 20
40.38082736208629
 30
0.0
  0
LINE
  5
153
330
1F
100
AcDbEntity
  8
0
  6
CONTINUOUS
 62
     7
100
AcDbLine
 10
125.4204018054
 20
40.8426273621
 30
0.0
 11
127.3839018054
 21
40.8426273621
 31
0.0
  0
LINE
  5
154
330
1F
100
AcDbEntity
  8
0
  6
CONTINUOUS
 62
     7
100
AcDbLine
 10
125.4204018054
 20
39.1934273621
 30
0.0
 11
125.4204018054
 21
40.8426273621
 31
0.0
  0
LINE
  5
155
330
1F
100
AcDbEntity
  8
0
  6
CONTINUOUS
 62
     7
100
AcDbLine
 10
130.2492018054
 20
40.4330273621
 30
0.0
 11
130.2492018054
 21
40.8426273621
 31
0.0
  0
LINE
  5
156
330
1F
100
AcDbEntity
  8
0
  6
CONTINUOUS
 62
     7
100
AcDbLine
 10
128.6216018054
 20
40.4330273621
 30
0.0
 11
130.2492018054
 21
40.4330273621
 31
0.0
  0
LINE
  5
157
330
1F
100
AcDbEntity
  8
0
  6
CONTINUOUS
 62
     7
100
AcDbLine
 10
128.6216018054
 20
39.1934273621
 30
0.0
 11
128.6216018054
 21
40.4330273621
 31
0.0
  0
LINE
  5
158
330
1F
100
AcDbEntity
  8
0
  6
CONTINUOUS
 62
     7
100
AcDbLine
 10
127.9965018054
 20
39.1934273621
 30
0.0
 11
128.6216018054
 21
39.1934273621
 31
0.0
  0
LINE
  5
159
330
1F
100
AcDbEntity
  8
0
  6
CONTINUOUS
 62
     7
100
AcDbLine
 10
127.9965018054
 20
40.3808273621
 30
0.0
 11
127.9965018054
 21
39.1934273621
 31
0.0
  0
LINE
  5
15A
330
1F
100
AcDbEntity
  8
0
  6
CONTINUOUS
 62
     7
100
AcDbLine
 10
130.2492018054
 20
40.8426273621
 30
0.0
 11
128.4583018054
 21
40.8426273621
 31
0.0
  0
SPLINE
  5
15B
330
1F
100
AcDbEntity
  8
0
  6
CONTINUOUS
 62
     7
100
AcDbSpline
210
0.0
220
0.0
230
1.0
 70
     8
 71
     3
 72
    11
 73
     7
 74
     0
 42
0.00000001
 43
0.00000001
 40
0.0
 40
0.0
 40
0.0
 40
0.0
 40
0.2832831090848536
 40
0.5580598110863044
 40
0.7754688048580538
 40
1.0
 40
1.0
 40
1.0
 40
1.0
 10
128.4583018054163
 20
40.84262736208629
 30
0.0
 10
128.3896572223952
 20
40.83362302962611
 30
0.0
 10
128.254429311502
 20
40.81588474622502
 30
0.0
 10
128.1044350307732
 20
40.69238268529573
 30
0.0
 10
128.0130873948694
 20
40.54189302749522
 30
0.0
 10
128.002089415494
 20
40.43508965633595
 30
0.0
 10
127.9965018054163
 20
40.38082736208629
 30
0.0
  0
LINE
  5
15C
330
1F
100
AcDbEntity
  8
0
  6
CONTINUOUS
 62
     7
100
AcDbLine
 10
128.8480018054
 20
39.8510273621
 30
0.0
 11
129.8936018054
 21
39.8510273621
 31
0.0
  0
LINE
  5
15D
330
1F
100
AcDbEntity
  8
0
  6
CONTINUOUS
 62
     7
100
AcDbLine
 10
128.8480018054
 20
40.1959273621
 30
0.0
 11
128.8480018054
 21
39.8510273621
 31
0.0
  0
LINE
  5
15E
330
1F
100
AcDbEntity
  8
0
  6
CONTINUOUS
 62
     7
100
AcDbLine
 10
129.8936018054
 20
40.1959273621
 30
0.0
 11
128.8480018054
 21
40.1959273621
 31
0.0
  0
LINE
  5
15F
330
1F
100
AcDbEntity
  8
0
  6
CONTINUOUS
 62
     7
100
AcDbLine
 10
129.8936018054
 20
39.8510273621
 30
0.0
 11
129.8936018054
 21
40.1959273621
 31
0.0
  0
LINE
  5
160
330
1F
100
AcDbEntity
  8
0
  6
CONTINUOUS
 62
     7
100
AcDbLine
 10
114.0576018054
 20
12.0180273621
 30
0.0
 11
114.0576018054
 21
46.7180273621
 31
0.0
  0
LINE
  5
161
330
1F
100
AcDbEntity
  8
0
  6
CONTINUOUS
 62
     7
100
AcDbLine
 10
139.0576018054
 20
46.7180273621
 30
0.0
 11
139.0576018054
 21
12.0180273621
 31
0.0
  0
LINE
  5
162
330
1F
100
AcDbEntity
  8
0
  6
CONTINUOUS
 62
     7
100
AcDbLine
 10
119.0576018054
 20
46.7180273621
 30
0.0
 11
119.0576018054
 21
12.0180273621
 31
0.0
  0
LINE
  5
163
330
1F
100
AcDbEntity
  8
0
  6
CONTINUOUS
 62
     7
100
AcDbLine
 10
134.0576018054
 20
12.0180273621
 30
0.0
 11
134.0576018054
 21
46.7180273621
 31
0.0
  0
ENDSEC
  0
SECTION
  2
OBJECTS
  0
DICTIONARY
  5
C
330
0
100
AcDbDictionary
  3
ACAD_GROUP
350
D
  3
ACAD_MLINESTYLE
350
17
  3
ACAD_SCALELIST
350
47
  3
DWGPROPS
350
164
  0
DICTIONARY
  5
D
102
{ACAD_REACTORS
330
C
102
}
330
C
100
AcDbDictionary
  0
DICTIONARY
  5
17
102
{ACAD_REACTORS
330
C
102
}
330
C
100
AcDbDictionary
  3
STANDARD
350
18
  0
DICTIONARY
  5
47
102
{ACAD_REACTORS
330
C
102
}
330
C
100
AcDbDictionary
  0
XRECORD
  5
164
102
{ACAD_REACTORS
330
C
102
}
330
C
100
AcDbXrecord
  1
DWGPROPS COOKIE
  2

  3

  4

  6

  7

  8
Pedro.Queiros
  9

300
=
301
=
302
=
303
=
304
=
305
=
306
=
307
=
308
=
309
=
 40
0.0
 41
2459716.667578148
 42
2459716.667578484
  1

 90
        0
  0
MLINESTYLE
  5
18
102
{ACAD_REACTORS
330
17
102
}
330
17
100
AcDbMlineStyle
  2
Standard
 70
     0
  3

 62
   256
 51
90.0
 52
90.0
 71
     2
 49
0.5
 62
   256
  6
BYLAYER
 49
-0.5
 62
   256
  6
BYLAYER
  0
ENDSEC
  0
EOF
