  0
SECTION
  2
HEADER
  9
$ACADVER
  1
AC1015
  9
$ACADMAINTVER
 70
     6
  9
$DWGCODEPAGE
  3
ANSI_1252
  9
$INSBASE
 10
0.0
 20
0.0
 30
0.0
  9
$EXTMIN
 10
0.0
 20
0.0
 30
0.0
  9
$EXTMAX
 10
279.4
 20
215.9
 30
0.0
  9
$LIMMIN
 10
0.0
 20
0.0
  9
$LIMMAX
 10
279.4
 20
215.9
  9
$ORTHOMODE
 70
     0
  9
$REGENMODE
 70
     1
  9
$FILLMODE
 70
     1
  9
$QTEXTMODE
 70
     0
  9
$MIRRTEXT
 70
     1
  9
$LTSCALE
 40
1.0
  9
$ATTMODE
 70
     1
  9
$TEXTSIZE
 40
3.5
  9
$TRACEWID
 40
1.0
  9
$TEXTSTYLE
  7
Standard
  9
$CLAYER
  8
0
  9
$CELTYPE
  6
ByLayer
  9
$CECOLOR
 62
   256
  9
$CELTSCALE
 40
1.0
  9
$DISPSILH
 70
     0
  9
$DIMSCALE
 40
1.0
  9
$DIMASZ
 40
3.302
  9
$DIMEXO
 40
1.0
  9
$DIMDLI
 40
3.75
  9
$DIMRND
 40
0.0
  9
$DIMDLE
 40
0.0
  9
$DIMEXE
 40
1.0
  9
$DIMTP
 40
0.0
  9
$DIMTM
 40
0.0
  9
$DIMTXT
 40
3.5
  9
$DIMCEN
 40
2.5
  9
$DIMTSZ
 40
0.0
  9
$DIMTOL
 70
     0
  9
$DIMLIM
 70
     0
  9
$DIMTIH
 70
     1
  9
$DIMTOH
 70
     1
  9
$DIMSE1
 70
     0
  9
$DIMSE2
 70
     0
  9
$DIMTAD
 70
     1
  9
$DIMZIN
 70
     0
  9
$DIMBLK
  1

  9
$DIMASO
 70
     1
  9
$DIMSHO
 70
     1
  9
$DIMPOST
  1

  9
$DIMAPOST
  1

  9
$DIMALT
 70
     0
  9
$DIMALTD
 70
     3
  9
$DIMALTF
 40
0.0393700787
  9
$DIMLFAC
 40
5.0
  9
$DIMTOFL
 70
     1
  9
$DIMTVP
 40
0.0
  9
$DIMTIX
 70
     0
  9
$DIMSOXD
 70
     0
  9
$DIMSAH
 70
     0
  9
$DIMBLK1
  1

  9
$DIMBLK2
  1

  9
$DIMSTYLE
  2
ISO-25
  9
$DIMCLRD
 70
     0
  9
$DIMCLRE
 70
     0
  9
$DIMCLRT
 70
     0
  9
$DIMTFAC
 40
1.0
  9
$DIMGAP
 40
1.524
  9
$DIMJUST
 70
     0
  9
$DIMSD1
 70
     0
  9
$DIMSD2
 70
     0
  9
$DIMTOLJ
 70
     0
  9
$DIMTZIN
 70
     0
  9
$DIMALTZ
 70
     0
  9
$DIMALTTZ
 70
     0
  9
$DIMUPT
 70
     0
  9
$DIMDEC
 70
     2
  9
$DIMTDEC
 70
     2
  9
$DIMALTU
 70
     2
  9
$DIMALTTD
 70
     3
  9
$DIMTXSTY
  7
Standard
  9
$DIMAUNIT
 70
     0
  9
$DIMADEC
 70
     2
  9
$DIMALTRND
 40
0.0
  9
$DIMAZIN
 70
     0
  9
$DIMDSEP
 70
    44
  9
$DIMATFIT
 70
     3
  9
$DIMFRAC
 70
     0
  9
$DIMLDRBLK
  1

  9
$DIMLUNIT
 70
     2
  9
$DIMLWD
 70
    -2
  9
$DIMLWE
 70
    -2
  9
$DIMTMOVE
 70
     0
  9
$LUNITS
 70
     2
  9
$LUPREC
 70
     2
  9
$SKETCHINC
 40
1.0
  9
$FILLETRAD
 40
10.0
  9
$AUNITS
 70
     0
  9
$AUPREC
 70
     2
  9
$MENU
  1
.
  9
$ELEVATION
 40
0.0
  9
$PELEVATION
 40
0.0
  9
$THICKNESS
 40
0.0
  9
$LIMCHECK
 70
     0
  9
$CHAMFERA
 40
0.0
  9
$CHAMFERB
 40
0.0
  9
$CHAMFERC
 40
0.0
  9
$CHAMFERD
 40
0.0
  9
$SKPOLY
 70
     0
  9
$TDCREATE
 40
2458201.635727616
  9
$TDUCREATE
 40
2458201.635727616
  9
$TDUPDATE
 40
2458201.635727847
  9
$TDUUPDATE
 40
2458201.635727847
  9
$TDINDWG
 40
0.0000000116
  9
$TDUSRTIMER
 40
0.0000000116
  9
$USRTIMER
 70
     1
  9
$ANGBASE
 50
0.0
  9
$ANGDIR
 70
     0
  9
$PDMODE
 70
     0
  9
$PDSIZE
 40
-1.0
  9
$PLINEWID
 40
0.0
  9
$SPLFRAME
 70
     0
  9
$SPLINETYPE
 70
     6
  9
$SPLINESEGS
 70
     8
  9
$HANDSEED
  5
15E
  9
$SURFTAB1
 70
     6
  9
$SURFTAB2
 70
     6
  9
$SURFTYPE
 70
     6
  9
$SURFU
 70
     6
  9
$SURFV
 70
     6
  9
$UCSBASE
  2

  9
$UCSNAME
  2

  9
$UCSORG
 10
0.0
 20
0.0
 30
0.0
  9
$UCSXDIR
 10
1.0
 20
0.0
 30
0.0
  9
$UCSYDIR
 10
0.0
 20
1.0
 30
0.0
  9
$UCSORTHOREF
  2

  9
$UCSORTHOVIEW
 70
     0
  9
$UCSORGTOP
 10
0.0
 20
0.0
 30
0.0
  9
$UCSORGBOTTOM
 10
0.0
 20
0.0
 30
0.0
  9
$UCSORGLEFT
 10
0.0
 20
0.0
 30
0.0
  9
$UCSORGRIGHT
 10
0.0
 20
0.0
 30
0.0
  9
$UCSORGFRONT
 10
0.0
 20
0.0
 30
0.0
  9
$UCSORGBACK
 10
0.0
 20
0.0
 30
0.0
  9
$PUCSBASE
  2

  9
$PUCSNAME
  2

  9
$PUCSORG
 10
0.0
 20
0.0
 30
0.0
  9
$PUCSXDIR
 10
1.0
 20
0.0
 30
0.0
  9
$PUCSYDIR
 10
0.0
 20
1.0
 30
0.0
  9
$PUCSORTHOREF
  2

  9
$PUCSORTHOVIEW
 70
     0
  9
$PUCSORGTOP
 10
0.0
 20
0.0
 30
0.0
  9
$PUCSORGBOTTOM
 10
0.0
 20
0.0
 30
0.0
  9
$PUCSORGLEFT
 10
0.0
 20
0.0
 30
0.0
  9
$PUCSORGRIGHT
 10
0.0
 20
0.0
 30
0.0
  9
$PUCSORGFRONT
 10
0.0
 20
0.0
 30
0.0
  9
$PUCSORGBACK
 10
0.0
 20
0.0
 30
0.0
  9
$USERI1
 70
     0
  9
$USERI2
 70
     0
  9
$USERI3
 70
     0
  9
$USERI4
 70
     0
  9
$USERI5
 70
     0
  9
$USERR1
 40
0.0
  9
$USERR2
 40
0.0
  9
$USERR3
 40
0.0
  9
$USERR4
 40
0.0
  9
$USERR5
 40
0.0
  9
$WORLDVIEW
 70
     1
  9
$SHADEDGE
 70
     3
  9
$SHADEDIF
 70
    70
  9
$TILEMODE
 70
     1
  9
$MAXACTVP
 70
    64
  9
$PINSBASE
 10
0.0
 20
0.0
 30
0.0
  9
$PLIMCHECK
 70
     0
  9
$PEXTMIN
 10
1.0000000000E+20
 20
1.0000000000E+20
 30
1.0000000000E+20
  9
$PEXTMAX
 10
-1.0000000000E+20
 20
-1.0000000000E+20
 30
-1.0000000000E+20
  9
$PLIMMIN
 10
0.0
 20
0.0
  9
$PLIMMAX
 10
420.0
 20
297.0
  9
$UNITMODE
 70
     0
  9
$VISRETAIN
 70
     1
  9
$PLINEGEN
 70
     0
  9
$PSLTSCALE
 70
     1
  9
$TREEDEPTH
 70
  3020
  9
$CMLSTYLE
  2
Standard
  9
$CMLJUST
 70
     0
  9
$CMLSCALE
 40
20.0
  9
$PROXYGRAPHICS
 70
     1
  9
$MEASUREMENT
 70
     1
  9
$CELWEIGHT
370
    -1
  9
$ENDCAPS
280
     0
  9
$JOINSTYLE
280
     0
  9
$LWDISPLAY
290
     1
  9
$INSUNITS
 70
     4
  9
$HYPERLINKBASE
  1

  9
$STYLESHEET
  1

  9
$XEDIT
290
     1
  9
$CEPSNTYPE
380
     0
  9
$PSTYLEMODE
290
     1
  9
$FINGERPRINTGUID
  2
{AB4652E2-0A61-4C0F-A090-7041FFD2F3A0}
  9
$VERSIONGUID
  2
{FAEB1C32-E019-11D5-929B-00C0DF256EC4}
  9
$EXTNAMES
290
     1
  9
$PSVPSCALE
 40
0.0
  9
$OLESTARTUP
290
     0
  0
ENDSEC
  0
SECTION
  2
CLASSES
  0
CLASS
  1
ACDBDICTIONARYWDFLT
  2
AcDbDictionaryWithDefault
  3
ObjectDBX Classes
 90
        0
280
     0
281
     0
  0
CLASS
  1
VISUALSTYLE
  2
AcDbVisualStyle
  3
ObjectDBX Classes
 90
     4095
280
     0
281
     0
  0
CLASS
  1
MATERIAL
  2
AcDbMaterial
  3
ObjectDBX Classes
 90
     1153
280
     0
281
     0
  0
CLASS
  1
SCALE
  2
AcDbScale
  3
ObjectDBX Classes
 90
     1153
280
     0
281
     0
  0
CLASS
  1
TABLESTYLE
  2
AcDbTableStyle
  3
ObjectDBX Classes
 90
     4095
280
     0
281
     0
  0
CLASS
  1
MLEADERSTYLE
  2
AcDbMLeaderStyle
  3
ACDB_MLEADERSTYLE_CLASS
 90
     4095
280
     0
281
     0
  0
CLASS
  1
SUN
  2
AcDbSun
  3
SCENEOE
 90
     1153
280
     0
281
     0
  0
CLASS
  1
ACDBPLACEHOLDER
  2
AcDbPlaceHolder
  3
ObjectDBX Classes
 90
        0
280
     0
281
     0
  0
CLASS
  1
LAYOUT
  2
AcDbLayout
  3
ObjectDBX Classes
 90
        0
280
     0
281
     0
  0
ENDSEC
  0
SECTION
  2
TABLES
  0
TABLE
  2
VPORT
  5
8
330
0
100
AcDbSymbolTable
 70
     1
  0
VPORT
  5
29
330
8
100
AcDbSymbolTableRecord
100
AcDbViewportTableRecord
  2
*Active
 70
     0
 10
0.0
 20
0.0
 11
1.0
 21
1.0
 12
139.7
 22
107.95
 13
0.0
 23
0.0
 14
10.0
 24
10.0
 15
10.0
 25
10.0
 16
0.0
 26
0.0
 36
1.0
 17
0.0
 27
0.0
 37
0.0
 40
215.9
 41
1.2941176471
 42
50.0
 43
0.0
 44
0.0
 50
0.0
 51
0.0
 71
     0
 72
  2000
 73
     1
 74
     3
 75
     0
 76
     0
 77
     0
 78
     0
281
     0
 65
     1
110
0.0
120
0.0
130
0.0
111
1.0
121
0.0
131
0.0
112
0.0
122
1.0
132
0.0
 79
     0
146
0.0
  0
ENDTAB
  0
TABLE
  2
LTYPE
  5
5
330
0
100
AcDbSymbolTable
 70
     6
  0
LTYPE
  5
14
330
5
100
AcDbSymbolTableRecord
100
AcDbLinetypeTableRecord
  2
ByBlock
 70
     0
  3

 72
    65
 73
     0
 40
0.0
  0
LTYPE
  5
15
330
5
100
AcDbSymbolTableRecord
100
AcDbLinetypeTableRecord
  2
ByLayer
 70
     0
  3

 72
    65
 73
     0
 40
0.0
  0
LTYPE
  5
16
330
5
100
AcDbSymbolTableRecord
100
AcDbLinetypeTableRecord
  2
Continuous
 70
     0
  3
Solid line
 72
    65
 73
     0
 40
0.0
  0
LTYPE
  5
6E
330
5
100
AcDbSymbolTableRecord
100
AcDbLinetypeTableRecord
  2
HIDDEN
 70
     0
  3
Hidden __ __ __ __ __ __ __ __ __ __ __ __ __ __
 72
    65
 73
     2
 40
1.905
 49
1.27
 74
     0
 49
-0.635
 74
     0
  0
LTYPE
  5
6F
330
5
100
AcDbSymbolTableRecord
100
AcDbLinetypeTableRecord
  2
PHANTOM
 70
     0
  3
Phantom ______  __  __  ______  __  __  ______
 72
    65
 73
     6
 40
12.7
 49
6.35
 74
     0
 49
-1.27
 74
     0
 49
1.27
 74
     0
 49
-1.27
 74
     0
 49
1.27
 74
     0
 49
-1.27
 74
     0
  0
LTYPE
  5
70
330
5
100
AcDbSymbolTableRecord
100
AcDbLinetypeTableRecord
  2
CENTER
 70
     0
  3
Center ____ _ ____ _ ____ _ ____ _ ____ _ ____
 72
    65
 73
     4
 40
10.16
 49
6.35
 74
     0
 49
-1.27
 74
     0
 49
1.27
 74
     0
 49
-1.27
 74
     0
  0
LTYPE
  5
71
330
5
100
AcDbSymbolTableRecord
100
AcDbLinetypeTableRecord
  2
CENTERX2
 70
     0
  3
Center (2x) ________  __  ________  __  _____
 72
    65
 73
     4
 40
20.32
 49
12.7
 74
     0
 49
-2.54
 74
     0
 49
2.54
 74
     0
 49
-2.54
 74
     0
  0
LTYPE
  5
72
330
5
100
AcDbSymbolTableRecord
100
AcDbLinetypeTableRecord
  2
DOT2
 70
     0
  3
Dot (.5x) ........................................
 72
    65
 73
     2
 40
0.635
 49
0.0
 74
     0
 49
-0.635
 74
     0
  0
ENDTAB
  0
TABLE
  2
LAYER
  5
2
330
0
100
AcDbSymbolTable
 70
     1
  0
LAYER
  5
10
330
2
100
AcDbSymbolTableRecord
100
AcDbLayerTableRecord
  2
0
 70
     0
 62
     7
  6
Continuous
370
    -3
390
F
  0
ENDTAB
  0
TABLE
  2
STYLE
  5
3
330
0
100
AcDbSymbolTable
 70
     1
  0
STYLE
  5
11
330
3
100
AcDbSymbolTableRecord
100
AcDbTextStyleTableRecord
  2
Standard
 70
     0
 40
0.0
 41
1.0
 50
0.0
 71
     0
 42
3.5
  3
txt
  4

  0
ENDTAB
  0
TABLE
  2
VIEW
  5
6
330
0
100
AcDbSymbolTable
 70
     0
  0
ENDTAB
  0
TABLE
  2
UCS
  5
7
330
0
100
AcDbSymbolTable
 70
     0
  0
ENDTAB
  0
TABLE
  2
APPID
  5
9
330
0
100
AcDbSymbolTable
 70
     1
  0
APPID
  5
12
330
9
100
AcDbSymbolTableRecord
100
AcDbRegAppTableRecord
  2
ACAD
 70
     0
  0
ENDTAB
  0
TABLE
  2
DIMSTYLE
  5
A
330
0
100
AcDbSymbolTable
 70
     1
100
AcDbDimStyleTable
  0
DIMSTYLE
105
27
330
A
100
AcDbSymbolTableRecord
100
AcDbDimStyleTableRecord
  2
ISO-25
 70
     0
 41
2.5
 42
0.625
 43
3.75
 44
1.25
 73
     0
 74
     0
 77
     1
 78
     8
140
2.5
141
2.5
143
0.0393700787
147
0.625
171
     3
172
     1
178
     0
271
     2
272
     2
274
     3
278
    44
283
     0
284
     8
340
11
  0
ENDTAB
  0
TABLE
  2
BLOCK_RECORD
  5
1
330
0
100
AcDbSymbolTable
 70
     1
  0
BLOCK_RECORD
  5
1F
330
1
100
AcDbSymbolTableRecord
100
AcDbBlockTableRecord
  2
*Model_Space
340
22
  0
BLOCK_RECORD
  5
1B
330
1
100
AcDbSymbolTableRecord
100
AcDbBlockTableRecord
  2
*Paper_Space
340
1E
  0
BLOCK_RECORD
  5
23
330
1
100
AcDbSymbolTableRecord
100
AcDbBlockTableRecord
  2
*Paper_Space0
340
26
  0
ENDTAB
  0
ENDSEC
  0
SECTION
  2
BLOCKS
  0
BLOCK
  5
20
330
1F
100
AcDbEntity
  8
0
100
AcDbBlockBegin
  2
*Model_Space
 70
     0
 10
0.0
 20
0.0
 30
0.0
  3
*Model_Space
  1

  0
ENDBLK
  5
21
330
1F
100
AcDbEntity
  8
0
100
AcDbBlockEnd
  0
BLOCK
  5
1C
330
1B
100
AcDbEntity
 67
     1
  8
0
100
AcDbBlockBegin
  2
*Paper_Space
 70
     0
 10
0.0
 20
0.0
 30
0.0
  3
*Paper_Space
  1

  0
ENDBLK
  5
1D
330
1B
100
AcDbEntity
 67
     1
  8
0
100
AcDbBlockEnd
  0
BLOCK
  5
24
330
23
100
AcDbEntity
  8
0
100
AcDbBlockBegin
  2
*Paper_Space0
 70
     0
 10
0.0
 20
0.0
 30
0.0
  3
*Paper_Space0
  1

  0
ENDBLK
  5
25
330
23
100
AcDbEntity
  8
0
100
AcDbBlockEnd
  0
ENDSEC
  0
SECTION
  2
ENTITIES
  0
LINE
  5
73
330
1F
100
AcDbEntity
  8
0
  6
Continuous
 62
     7
370
    15
100
AcDbLine
 10
149.8532909923
 20
253.6162733966
 30
0.0
 11
149.8532909923
 21
5.6162699991
 31
0.0
  0
LINE
  5
74
330
1F
100
AcDbEntity
  8
0
  6
Continuous
 62
     7
370
    15
100
AcDbLine
 10
168.8532847934
 20
5.6162699991
 30
0.0
 11
168.8532847934
 21
253.6162733966
 31
0.0
  0
LINE
  5
75
330
1F
100
AcDbEntity
  8
0
  6
Continuous
 62
     7
370
    15
100
AcDbLine
 10
22.5103972503
 20
253.6162733966
 30
0.0
 11
22.5103972503
 21
5.6162699991
 31
0.0
  0
LINE
  5
76
330
1F
100
AcDbEntity
  8
0
  6
Continuous
 62
     7
370
    15
100
AcDbLine
 10
41.5103975707
 20
5.6162699991
 30
0.0
 11
41.5103975707
 21
253.6162733966
 31
0.0
  0
LINE
  5
77
330
1F
100
AcDbEntity
  8
0
  6
Continuous
 62
     7
370
    15
100
AcDbLine
 10
149.8532909923
 20
-29.9337208337
 30
0.0
 11
149.8532909923
 21
-36.1337214774
 31
0.0
  0
LINE
  5
78
330
1F
100
AcDbEntity
  8
0
  6
Continuous
 62
     7
370
    15
100
AcDbLine
 10
149.8532909923
 20
5.6162699991
 30
0.0
 11
149.8532909923
 21
-10.8837261862
 31
0.0
  0
LINE
  5
79
330
1F
100
AcDbEntity
  8
0
  6
Continuous
 62
     7
370
    15
100
AcDbLine
 10
168.8532847934
 20
-36.1337214774
 30
0.0
 11
168.8532847934
 21
5.6162699991
 31
0.0
  0
LINE
  5
7A
330
1F
100
AcDbEntity
  8
0
  6
Continuous
 62
     7
370
    15
100
AcDbLine
 10
149.8532909923
 20
-36.1337214774
 30
0.0
 11
150.1032877737
 21
-36.3837331599
 31
0.0
  0
LINE
  5
7B
330
1F
100
AcDbEntity
  8
0
  6
Continuous
 62
     7
370
    15
100
AcDbLine
 10
168.6032880121
 20
-36.3837331599
 30
0.0
 11
168.8532847934
 21
-36.1337214774
 31
0.0
  0
LINE
  5
7C
330
1F
100
AcDbEntity
  8
0
  6
Continuous
 62
     7
370
    15
100
AcDbLine
 10
168.8532847934
 20
253.6162733966
 30
0.0
 11
168.8532847934
 21
295.3662723237
 31
0.0
  0
LINE
  5
7D
330
1F
100
AcDbEntity
  8
0
  6
Continuous
 62
     7
370
    15
100
AcDbLine
 10
149.8532909923
 20
270.1162695819
 30
0.0
 11
149.8532909923
 21
253.6162733966
 31
0.0
  0
LINE
  5
7E
330
1F
100
AcDbEntity
  8
0
  6
Continuous
 62
     7
370
    15
100
AcDbLine
 10
149.8532909923
 20
295.3662723237
 30
0.0
 11
149.8532909923
 21
289.16627168
 31
0.0
  0
LINE
  5
7F
330
1F
100
AcDbEntity
  8
0
  6
Continuous
 62
     7
370
    15
100
AcDbLine
 10
168.8532847934
 20
295.3662723237
 30
0.0
 11
168.6032880121
 21
295.6162691051
 31
0.0
  0
LINE
  5
80
330
1F
100
AcDbEntity
  8
0
  6
Continuous
 62
     7
370
    15
100
AcDbLine
 10
150.1032877737
 20
295.6162691051
 30
0.0
 11
149.8532909923
 21
295.3662723237
 31
0.0
  0
LINE
  5
81
330
1F
100
AcDbEntity
  8
0
  6
Continuous
 62
     7
370
    15
100
AcDbLine
 10
22.5103972503
 20
5.6162699991
 30
0.0
 11
22.5103972503
 21
-36.1337214774
 31
0.0
  0
LINE
  5
82
330
1F
100
AcDbEntity
  8
0
  6
Continuous
 62
     7
370
    15
100
AcDbLine
 10
41.5103975707
 20
-10.8837261862
 30
0.0
 11
41.5103975707
 21
5.6162699991
 31
0.0
  0
LINE
  5
83
330
1F
100
AcDbEntity
  8
0
  6
Continuous
 62
     7
370
    15
100
AcDbLine
 10
41.5103975707
 20
-36.1337214774
 30
0.0
 11
41.5103975707
 21
-29.9337208337
 31
0.0
  0
LINE
  5
84
330
1F
100
AcDbEntity
  8
0
  6
Continuous
 62
     7
370
    15
100
AcDbLine
 10
22.5103972503
 20
-36.1337214774
 30
0.0
 11
22.7603968256
 21
-36.3837331599
 31
0.0
  0
LINE
  5
85
330
1F
100
AcDbEntity
  8
0
  6
Continuous
 62
     7
370
    15
100
AcDbLine
 10
41.260397064
 20
-36.3837331599
 30
0.0
 11
41.5103975707
 21
-36.1337214774
 31
0.0
  0
LINE
  5
86
330
1F
100
AcDbEntity
  8
0
  6
Continuous
 62
     7
370
    15
100
AcDbLine
 10
41.5103975707
 20
289.16627168
 30
0.0
 11
41.5103975707
 21
295.3662723237
 31
0.0
  0
LINE
  5
87
330
1F
100
AcDbEntity
  8
0
  6
Continuous
 62
     7
370
    15
100
AcDbLine
 10
41.5103975707
 20
253.6162733966
 30
0.0
 11
41.5103975707
 21
270.1162695819
 31
0.0
  0
LINE
  5
88
330
1F
100
AcDbEntity
  8
0
  6
Continuous
 62
     7
370
    15
100
AcDbLine
 10
22.5103972503
 20
295.3662723237
 30
0.0
 11
22.5103972503
 21
253.6162733966
 31
0.0
  0
LINE
  5
89
330
1F
100
AcDbEntity
  8
0
  6
Continuous
 62
     7
370
    15
100
AcDbLine
 10
22.7603968256
 20
295.6162691051
 30
0.0
 11
22.5103972503
 21
295.3662723237
 31
0.0
  0
LINE
  5
8A
330
1F
100
AcDbEntity
  8
0
  6
Continuous
 62
     7
370
    15
100
AcDbLine
 10
41.5103975707
 20
295.3662723237
 30
0.0
 11
41.260397064
 21
295.6162691051
 31
0.0
  0
LINE
  5
8B
330
1F
100
AcDbEntity
  8
0
  6
Continuous
 62
     7
370
    15
100
AcDbLine
 10
78.4103963547
 20
289.1162782842
 30
0.0
 11
41.4601247781
 21
289.1162782842
 31
0.0
  0
LINE
  5
8C
330
1F
100
AcDbEntity
  8
0
  6
Continuous
 62
     7
370
    15
100
AcDbLine
 10
74.3996817642
 20
270.1162695819
 30
0.0
 11
78.4103963547
 21
270.1162695819
 31
0.0
  0
LINE
  5
8D
330
1F
100
AcDbEntity
  8
0
  6
Continuous
 62
     7
370
    15
100
AcDbLine
 10
41.460130366
 20
270.1162695819
 30
0.0
 11
68.3920066827
 21
270.1162695819
 31
0.0
  0
LINE
  5
8E
330
1F
100
AcDbEntity
  8
0
  6
Continuous
 62
     7
370
    15
100
AcDbLine
 10
122.971678155
 20
-29.8837274379
 30
0.0
 11
149.9035675102
 21
-29.8837274379
 31
0.0
  0
LINE
  5
8F
330
1F
100
AcDbEntity
  8
0
  6
Continuous
 62
     7
370
    15
100
AcDbLine
 10
112.9532847577
 20
-29.8837274379
 30
0.0
 11
116.9639993482
 21
-29.8837274379
 31
0.0
  0
LINE
  5
90
330
1F
100
AcDbEntity
  8
0
  6
Continuous
 62
     7
370
    15
100
AcDbLine
 10
149.903552609
 20
-10.8837261862
 30
0.0
 11
112.9532847577
 21
-10.8837261862
 31
0.0
  0
LINE
  5
91
330
1F
100
AcDbEntity
  8
0
  6
Continuous
 62
     7
370
    15
100
AcDbLine
 10
78.4103963547
 20
-10.8837261862
 30
0.0
 11
41.460130366
 21
-10.8837261862
 31
0.0
  0
LINE
  5
92
330
1F
100
AcDbEntity
  8
0
  6
Continuous
 62
     7
370
    15
100
AcDbLine
 10
74.3996817642
 20
-29.8837274379
 30
0.0
 11
78.4103963547
 21
-29.8837274379
 31
0.0
  0
LINE
  5
93
330
1F
100
AcDbEntity
  8
0
  6
Continuous
 62
     7
370
    15
100
AcDbLine
 10
41.4601247781
 20
-29.8837274379
 30
0.0
 11
68.3920066827
 21
-29.8837274379
 31
0.0
  0
LINE
  5
94
330
1F
100
AcDbEntity
  8
0
  6
Continuous
 62
     7
370
    15
100
AcDbLine
 10
122.971678155
 20
270.1162695819
 30
0.0
 11
149.903552609
 21
270.1162695819
 31
0.0
  0
LINE
  5
95
330
1F
100
AcDbEntity
  8
0
  6
Continuous
 62
     7
370
    15
100
AcDbLine
 10
112.9532847577
 20
270.1162695819
 30
0.0
 11
116.9639993482
 21
270.1162695819
 31
0.0
  0
LINE
  5
96
330
1F
100
AcDbEntity
  8
0
  6
Continuous
 62
     7
370
    15
100
AcDbLine
 10
149.9035675102
 20
289.1162782842
 30
0.0
 11
112.9532847577
 21
289.1162782842
 31
0.0
  0
LINE
  5
97
330
1F
100
AcDbEntity
  8
0
  6
Continuous
 62
     7
370
    15
100
AcDbLine
 10
168.8532847934
 20
253.6162733966
 30
0.0
 11
149.8532909923
 21
253.6162733966
 31
0.0
  0
LINE
  5
98
330
1F
100
AcDbEntity
  8
0
  6
Continuous
 62
     7
370
    15
100
AcDbLine
 10
168.8532847934
 20
5.6162699991
 30
0.0
 11
149.8532909923
 21
5.6162699991
 31
0.0
  0
LINE
  5
99
330
1F
100
AcDbEntity
  8
0
  6
Continuous
 62
     7
370
    15
100
AcDbLine
 10
41.5103975707
 20
253.6162733966
 30
0.0
 11
22.5103972503
 21
253.6162733966
 31
0.0
  0
LINE
  5
9A
330
1F
100
AcDbEntity
  8
0
  6
Continuous
 62
     7
370
    15
100
AcDbLine
 10
41.5103975707
 20
5.6162699991
 30
0.0
 11
22.5103972503
 21
5.6162699991
 31
0.0
  0
LINE
  5
9B
330
1F
100
AcDbEntity
  8
0
  6
Continuous
 62
     7
370
    15
100
AcDbLine
 10
167.993159967
 20
-36.1337214774
 30
0.0
 11
168.8532847934
 21
-36.1337214774
 31
0.0
  0
LINE
  5
9C
330
1F
100
AcDbEntity
  8
0
  6
Continuous
 62
     7
370
    15
100
AcDbLine
 10
167.993159967
 20
-4.3837279147
 30
0.0
 11
167.993159967
 21
-36.1337214774
 31
0.0
  0
LINE
  5
9D
330
1F
100
AcDbEntity
  8
0
  6
Continuous
 62
     7
370
    15
100
AcDbLine
 10
167.993159967
 20
-4.3837279147
 30
0.0
 11
150.7134158188
 21
-4.3837279147
 31
0.0
  0
LINE
  5
9E
330
1F
100
AcDbEntity
  8
0
  6
Continuous
 62
     7
370
    15
100
AcDbLine
 10
150.7134158188
 20
-36.1337214774
 30
0.0
 11
150.7134158188
 21
-29.0005654162
 31
0.0
  0
LINE
  5
9F
330
1F
100
AcDbEntity
  8
0
  6
Continuous
 62
     7
370
    15
100
AcDbLine
 10
150.7134158188
 20
-11.7668807572
 30
0.0
 11
150.7134158188
 21
-4.3837279147
 31
0.0
  0
LINE
  5
A0
330
1F
100
AcDbEntity
  8
0
  6
Continuous
 62
     7
370
    15
100
AcDbLine
 10
149.8532909923
 20
-36.1337214774
 30
0.0
 11
150.7134158188
 21
-36.1337214774
 31
0.0
  0
SPLINE
  5
A1
330
1F
100
AcDbEntity
  8
0
  6
Continuous
 62
     7
370
    15
100
AcDbSpline
210
0.0
220
0.0
230
1.0
 70
     8
 71
     3
 72
    10
 73
     6
 74
     0
 42
0.000000001
 43
0.00000001
 40
0.0
 40
0.0
 40
0.0
 40
0.0
 40
0.1717879341868278
 40
0.7230941414167719
 40
1.0
 40
1.0
 40
1.0
 40
1.0
 10
149.9178577237817
 20
-10.89795679510055
 30
0.0
 10
149.899098331457
 20
-10.8792936871917
 30
0.0
 10
149.8201358202031
 20
-10.80073645874963
 30
0.0
 10
150.1668775711277
 20
-11.14570757593064
 30
0.0
 10
150.5688776316581
 20
-11.54525823614391
 30
0.0
 10
150.7032830291482
 20
-11.67884469688354
 30
0.0
  0
SPLINE
  5
A2
330
1F
100
AcDbEntity
  8
0
  6
Continuous
 62
     7
370
    15
100
AcDbSpline
210
0.0
220
0.0
230
1.0
 70
     8
 71
     3
 72
     9
 73
     5
 74
     0
 42
0.000000001
 43
0.00000001
 40
0.0
 40
0.0
 40
0.0
 40
0.0
 40
0.5923942371942711
 40
1.0
 40
1.0
 40
1.0
 40
1.0
 10
150.7032830291482
 20
-29.08861637771545
 30
0.0
 10
150.4219670487927
 20
-29.36827515595747
 30
0.0
 10
149.9470873779708
 20
-29.84035736183197
 30
0.0
 10
149.8804519690229
 20
-29.90668521747053
 30
0.0
 10
149.8532909923288
 20
-29.93372083366333
 30
0.0
  0
LINE
  5
A3
330
1F
100
AcDbEntity
  8
0
  6
Continuous
 62
     7
370
    15
100
AcDbLine
 10
150.7032830291
 20
-29.0886163777
 30
0.0
 11
150.7032830291
 21
-29.0337204999
 31
0.0
  0
LINE
  5
A4
330
1F
100
AcDbEntity
  8
0
  6
Continuous
 62
     7
370
    15
100
AcDbLine
 10
150.7032830291
 20
-11.7337256736
 30
0.0
 11
150.7032830291
 21
-11.6788446969
 31
0.0
  0
LINE
  5
A5
330
1F
100
AcDbEntity
  8
0
  6
Continuous
 62
     7
370
    15
100
AcDbLine
 10
150.9890723997
 20
-36.3837331599
 30
0.0
 11
150.1032877737
 21
-36.3837331599
 31
0.0
  0
LINE
  5
A6
330
1F
100
AcDbEntity
  8
0
  6
Continuous
 62
     7
370
    15
100
AcDbLine
 10
150.7134158188
 20
-36.1337214774
 30
0.0
 11
150.9890723997
 21
-36.3837331599
 31
0.0
  0
LINE
  5
A7
330
1F
100
AcDbEntity
  8
0
  6
Continuous
 62
     7
370
    15
100
AcDbLine
 10
167.7175033861
 20
-36.3837331599
 30
0.0
 11
167.993159967
 21
-36.1337214774
 31
0.0
  0
LINE
  5
A8
330
1F
100
AcDbEntity
  8
0
  6
Continuous
 62
     7
370
    15
100
AcDbLine
 10
150.9890723997
 20
-36.3837331599
 30
0.0
 11
167.7175033861
 21
-36.3837331599
 31
0.0
  0
LINE
  5
A9
330
1F
100
AcDbEntity
  8
0
  6
Continuous
 62
     7
370
    15
100
AcDbLine
 10
168.6032880121
 20
-36.3837331599
 30
0.0
 11
167.7175033861
 21
-36.3837331599
 31
0.0
  0
LINE
  5
AA
330
1F
100
AcDbEntity
  8
0
  6
Continuous
 62
     7
370
    15
100
AcDbLine
 10
150.7134158188
 20
263.616278761
 30
0.0
 11
167.993159967
 21
263.616278761
 31
0.0
  0
LINE
  5
AB
330
1F
100
AcDbEntity
  8
0
  6
Continuous
 62
     7
370
    15
100
AcDbLine
 10
167.993159967
 20
295.3662723237
 30
0.0
 11
167.993159967
 21
263.616278761
 31
0.0
  0
LINE
  5
AC
330
1F
100
AcDbEntity
  8
0
  6
Continuous
 62
     7
370
    15
100
AcDbLine
 10
168.8532847934
 20
295.3662723237
 30
0.0
 11
167.993159967
 21
295.3662723237
 31
0.0
  0
LINE
  5
AD
330
1F
100
AcDbEntity
  8
0
  6
Continuous
 62
     7
370
    15
100
AcDbLine
 10
150.7134158188
 20
295.3662723237
 30
0.0
 11
149.8532909923
 21
295.3662723237
 31
0.0
  0
LINE
  5
AE
330
1F
100
AcDbEntity
  8
0
  6
Continuous
 62
     7
370
    15
100
AcDbLine
 10
150.7134158188
 20
263.616278761
 30
0.0
 11
150.7134158188
 21
270.9994316035
 31
0.0
  0
LINE
  5
AF
330
1F
100
AcDbEntity
  8
0
  6
Continuous
 62
     7
370
    15
100
AcDbLine
 10
150.7134158188
 20
288.2331162626
 30
0.0
 11
150.7134158188
 21
295.3662723237
 31
0.0
  0
SPLINE
  5
B0
330
1F
100
AcDbEntity
  8
0
  6
Continuous
 62
     7
370
    15
100
AcDbSpline
210
0.0
220
0.0
230
1.0
 70
     8
 71
     3
 72
     9
 73
     5
 74
     0
 42
0.000000001
 43
0.00000001
 40
0.0
 40
0.0
 40
0.0
 40
0.0
 40
0.5848159933637302
 40
1.0
 40
1.0
 40
1.0
 40
1.0
 10
150.7032830291482
 20
270.9113955432135
 30
0.0
 10
150.4165748324609
 20
270.6263595082234
 30
0.0
 10
149.9263211459325
 20
270.138965117125
 30
0.0
 10
149.9203407065613
 20
270.1329836149067
 30
0.0
 10
149.9178577237817
 20
270.1305001908499
 30
0.0
  0
LINE
  5
B1
330
1F
100
AcDbEntity
  8
0
  6
Continuous
 62
     7
370
    15
100
AcDbLine
 10
150.7032830291
 20
270.9113955432
 30
0.0
 11
150.7032830291
 21
270.9662765199
 31
0.0
  0
LINE
  5
B2
330
1F
100
AcDbEntity
  8
0
  6
Continuous
 62
     7
370
    15
100
AcDbLine
 10
150.7032830291
 20
288.2662713462
 30
0.0
 11
150.7032830291
 21
288.3211523229
 31
0.0
  0
SPLINE
  5
B3
330
1F
100
AcDbEntity
  8
0
  6
Continuous
 62
     7
370
    15
100
AcDbSpline
210
0.0
220
0.0
230
1.0
 70
     8
 71
     3
 72
     9
 73
     5
 74
     0
 42
0.000000001
 43
0.00000001
 40
0.0
 40
0.0
 40
0.0
 40
0.0
 40
0.5910341554269348
 40
1.0
 40
1.0
 40
1.0
 40
1.0
 10
149.8532909923288
 20
289.1662716799933
 30
0.0
 10
149.9109490075002
 20
289.108886845542
 30
0.0
 10
150.0085034629273
 20
289.0117945981239
 30
0.0
 10
150.5016165989888
 20
288.5216178646709
 30
0.0
 10
150.7032830291482
 20
288.3211523228842
 30
0.0
  0
LINE
  5
B4
330
1F
100
AcDbEntity
  8
0
  6
Continuous
 62
     7
370
    15
100
AcDbLine
 10
167.7175033861
 20
295.6162691051
 30
0.0
 11
168.6032880121
 21
295.6162691051
 31
0.0
  0
LINE
  5
B5
330
1F
100
AcDbEntity
  8
0
  6
Continuous
 62
     7
370
    15
100
AcDbLine
 10
167.993159967
 20
295.3662723237
 30
0.0
 11
167.7175033861
 21
295.6162691051
 31
0.0
  0
LINE
  5
B6
330
1F
100
AcDbEntity
  8
0
  6
Continuous
 62
     7
370
    15
100
AcDbLine
 10
150.9890723997
 20
295.6162691051
 30
0.0
 11
150.7134158188
 21
295.3662723237
 31
0.0
  0
LINE
  5
B7
330
1F
100
AcDbEntity
  8
0
  6
Continuous
 62
     7
370
    15
100
AcDbLine
 10
167.7175033861
 20
295.6162691051
 30
0.0
 11
150.9890723997
 21
295.6162691051
 31
0.0
  0
LINE
  5
B8
330
1F
100
AcDbEntity
  8
0
  6
Continuous
 62
     7
370
    15
100
AcDbLine
 10
150.1032877737
 20
295.6162691051
 30
0.0
 11
150.9890723997
 21
295.6162691051
 31
0.0
  0
LINE
  5
B9
330
1F
100
AcDbEntity
  8
0
  6
Continuous
 62
     7
370
    15
100
AcDbLine
 10
40.6502764695
 20
-4.3837279147
 30
0.0
 11
23.3705183514
 21
-4.3837279147
 31
0.0
  0
LINE
  5
BA
330
1F
100
AcDbEntity
  8
0
  6
Continuous
 62
     7
370
    15
100
AcDbLine
 10
23.3705183514
 20
-36.1337214774
 30
0.0
 11
23.3705183514
 21
-4.3837279147
 31
0.0
  0
LINE
  5
BB
330
1F
100
AcDbEntity
  8
0
  6
Continuous
 62
     7
370
    15
100
AcDbLine
 10
22.5103972503
 20
-36.1337214774
 30
0.0
 11
23.3705183514
 21
-36.1337214774
 31
0.0
  0
LINE
  5
BC
330
1F
100
AcDbEntity
  8
0
  6
Continuous
 62
     7
370
    15
100
AcDbLine
 10
40.6502764695
 20
-36.1337214774
 30
0.0
 11
41.5103975707
 21
-36.1337214774
 31
0.0
  0
LINE
  5
BD
330
1F
100
AcDbEntity
  8
0
  6
Continuous
 62
     7
370
    15
100
AcDbLine
 10
40.6502764695
 20
-4.3837279147
 30
0.0
 11
40.6502764695
 21
-11.7668807572
 31
0.0
  0
LINE
  5
BE
330
1F
100
AcDbEntity
  8
0
  6
Continuous
 62
     7
370
    15
100
AcDbLine
 10
40.6502764695
 20
-29.0005654162
 30
0.0
 11
40.6502764695
 21
-36.1337214774
 31
0.0
  0
SPLINE
  5
BF
330
1F
100
AcDbEntity
  8
0
  6
Continuous
 62
     7
370
    15
100
AcDbSpline
210
0.0
220
0.0
230
1.0
 70
     8
 71
     3
 72
     9
 73
     5
 74
     0
 42
0.000000001
 43
0.00000001
 40
0.0
 40
0.0
 40
0.0
 40
0.0
 40
0.5848159827983754
 40
1.0
 40
1.0
 40
1.0
 40
1.0
 10
40.66039808327879
 20
-11.67884469688354
 30
0.0
 10
40.94710945399063
 20
-11.39381187207464
 30
0.0
 10
41.43736857676616
 20
-10.90642296138686
 30
0.0
 10
41.44334293188633
 20
-10.90044058299408
 30
0.0
 10
41.4458233886453
 20
-10.89795679510055
 30
0.0
  0
LINE
  5
C0
330
1F
100
AcDbEntity
  8
0
  6
Continuous
 62
     7
370
    15
100
AcDbLine
 10
40.6603980833
 20
-11.6788446969
 30
0.0
 11
40.6603980833
 21
-11.7337256736
 31
0.0
  0
LINE
  5
C1
330
1F
100
AcDbEntity
  8
0
  6
Continuous
 62
     7
370
    15
100
AcDbLine
 10
40.6603980833
 20
-29.0337204999
 30
0.0
 11
40.6603980833
 21
-29.0886163777
 31
0.0
  0
SPLINE
  5
C2
330
1F
100
AcDbEntity
  8
0
  6
Continuous
 62
     7
370
    15
100
AcDbSpline
210
0.0
220
0.0
230
1.0
 70
     8
 71
     3
 72
     9
 73
     5
 74
     0
 42
0.000000001
 43
0.00000001
 40
0.0
 40
0.0
 40
0.0
 40
0.0
 40
0.5910349194098913
 40
1.0
 40
1.0
 40
1.0
 40
1.0
 10
41.51039757067884
 20
-29.93372083366333
 30
0.0
 10
41.45273664004774
 20
-29.87633417806429
 30
0.0
 10
41.35517737791707
 20
-29.7792389748632
 30
0.0
 10
40.86206416722821
 20
-29.28907594196642
 30
0.0
 10
40.66039808327879
 20
-29.08861637771548
 30
0.0
  0
LINE
  5
C3
330
1F
100
AcDbEntity
  8
0
  6
Continuous
 62
     7
370
    15
100
AcDbLine
 10
23.3705183514
 20
-36.1337214774
 30
0.0
 11
23.6461879709
 21
-36.3837331599
 31
0.0
  0
LINE
  5
C4
330
1F
100
AcDbEntity
  8
0
  6
Continuous
 62
     7
370
    15
100
AcDbLine
 10
40.3746068501
 20
-36.3837331599
 30
0.0
 11
40.6502764695
 21
-36.1337214774
 31
0.0
  0
LINE
  5
C5
330
1F
100
AcDbEntity
  8
0
  6
Continuous
 62
     7
370
    15
100
AcDbLine
 10
23.6461879709
 20
-36.3837331599
 30
0.0
 11
40.3746068501
 21
-36.3837331599
 31
0.0
  0
LINE
  5
C6
330
1F
100
AcDbEntity
  8
0
  6
Continuous
 62
     7
370
    15
100
AcDbLine
 10
23.6461879709
 20
-36.3837331599
 30
0.0
 11
22.7603968256
 21
-36.3837331599
 31
0.0
  0
LINE
  5
C7
330
1F
100
AcDbEntity
  8
0
  6
Continuous
 62
     7
370
    15
100
AcDbLine
 10
41.260397064
 20
-36.3837331599
 30
0.0
 11
40.3746068501
 21
-36.3837331599
 31
0.0
  0
LINE
  5
C8
330
1F
100
AcDbEntity
  8
0
  6
Continuous
 62
     7
370
    15
100
AcDbLine
 10
23.3705183514
 20
295.3662723237
 30
0.0
 11
22.5103972503
 21
295.3662723237
 31
0.0
  0
LINE
  5
C9
330
1F
100
AcDbEntity
  8
0
  6
Continuous
 62
     7
370
    15
100
AcDbLine
 10
23.3705183514
 20
263.616278761
 30
0.0
 11
23.3705183514
 21
295.3662723237
 31
0.0
  0
LINE
  5
CA
330
1F
100
AcDbEntity
  8
0
  6
Continuous
 62
     7
370
    15
100
AcDbLine
 10
23.3705183514
 20
263.616278761
 30
0.0
 11
40.6502764695
 21
263.616278761
 31
0.0
  0
LINE
  5
CB
330
1F
100
AcDbEntity
  8
0
  6
Continuous
 62
     7
370
    15
100
AcDbLine
 10
40.6502764695
 20
295.3662723237
 30
0.0
 11
40.6502764695
 21
288.2331162626
 31
0.0
  0
LINE
  5
CC
330
1F
100
AcDbEntity
  8
0
  6
Continuous
 62
     7
370
    15
100
AcDbLine
 10
40.6502764695
 20
270.9994316035
 30
0.0
 11
40.6502764695
 21
263.616278761
 31
0.0
  0
LINE
  5
CD
330
1F
100
AcDbEntity
  8
0
  6
Continuous
 62
     7
370
    15
100
AcDbLine
 10
41.5103975707
 20
295.3662723237
 30
0.0
 11
40.6502764695
 21
295.3662723237
 31
0.0
  0
SPLINE
  5
CE
330
1F
100
AcDbEntity
  8
0
  6
Continuous
 62
     7
370
    15
100
AcDbSpline
210
0.0
220
0.0
230
1.0
 70
     8
 71
     3
 72
    10
 73
     6
 74
     0
 42
0.000000001
 43
0.00000001
 40
0.0
 40
0.0
 40
0.0
 40
0.0
 40
0.1717878023426526
 40
0.723093214556868
 40
1.0
 40
1.0
 40
1.0
 40
1.0
 10
41.4458233886453
 20
270.1305001908499
 30
0.0
 10
41.46458698568998
 20
270.1118371281173
 30
0.0
 10
41.54356715493751
 20
270.0332801302351
 30
0.0
 10
41.19681460701825
 20
270.3782482210698
 30
0.0
 10
40.79480657459847
 20
270.7778062072234
 30
0.0
 10
40.66039808327879
 20
270.9113955432135
 30
0.0
  0
SPLINE
  5
CF
330
1F
100
AcDbEntity
  8
0
  6
Continuous
 62
     7
370
    15
100
AcDbSpline
210
0.0
220
0.0
230
1.0
 70
     8
 71
     3
 72
     9
 73
     5
 74
     0
 42
0.000000001
 43
0.00000001
 40
0.0
 40
0.0
 40
0.0
 40
0.0
 40
0.5923945582736786
 40
1.0
 40
1.0
 40
1.0
 40
1.0
 10
40.66039808327879
 20
288.3211523228842
 30
0.0
 10
40.94171299192202
 20
288.6008175367949
 30
0.0
 10
41.41659059623868
 20
289.0729103506209
 30
0.0
 10
41.48323354294761
 20
289.1392366993297
 30
0.0
 10
41.51039757067884
 20
289.1662716799933
 30
0.0
  0
LINE
  5
D0
330
1F
100
AcDbEntity
  8
0
  6
Continuous
 62
     7
370
    15
100
AcDbLine
 10
40.6603980833
 20
288.3211523229
 30
0.0
 11
40.6603980833
 21
288.2662713462
 31
0.0
  0
LINE
  5
D1
330
1F
100
AcDbEntity
  8
0
  6
Continuous
 62
     7
370
    15
100
AcDbLine
 10
40.6603980833
 20
270.9662765199
 30
0.0
 11
40.6603980833
 21
270.9113955432
 31
0.0
  0
LINE
  5
D2
330
1F
100
AcDbEntity
  8
0
  6
Continuous
 62
     7
370
    15
100
AcDbLine
 10
23.6461879709
 20
295.6162691051
 30
0.0
 11
23.3705183514
 21
295.3662723237
 31
0.0
  0
LINE
  5
D3
330
1F
100
AcDbEntity
  8
0
  6
Continuous
 62
     7
370
    15
100
AcDbLine
 10
40.3746068501
 20
295.6162691051
 30
0.0
 11
23.6461879709
 21
295.6162691051
 31
0.0
  0
LINE
  5
D4
330
1F
100
AcDbEntity
  8
0
  6
Continuous
 62
     7
370
    15
100
AcDbLine
 10
40.6502764695
 20
295.3662723237
 30
0.0
 11
40.3746068501
 21
295.6162691051
 31
0.0
  0
LINE
  5
D5
330
1F
100
AcDbEntity
  8
0
  6
Continuous
 62
     7
370
    15
100
AcDbLine
 10
22.7603968256
 20
295.6162691051
 30
0.0
 11
23.6461879709
 21
295.6162691051
 31
0.0
  0
LINE
  5
D6
330
1F
100
AcDbEntity
  8
0
  6
Continuous
 62
     7
370
    15
100
AcDbLine
 10
40.3746068501
 20
295.6162691051
 30
0.0
 11
41.260397064
 21
295.6162691051
 31
0.0
  0
LINE
  5
D7
330
1F
100
AcDbEntity
  8
0
  6
Continuous
 62
     7
370
    15
100
AcDbLine
 10
23.6603971594
 20
270.9994316035
 30
0.0
 11
40.6603980833
 21
270.9994316035
 31
0.0
  0
LINE
  5
D8
330
1F
100
AcDbEntity
  8
0
  6
Continuous
 62
     7
370
    15
100
AcDbLine
 10
23.6603971594
 20
288.2331162626
 30
0.0
 11
23.6603971594
 21
270.9994316035
 31
0.0
  0
LINE
  5
D9
330
1F
100
AcDbEntity
  8
0
  6
Continuous
 62
     7
370
    15
100
AcDbLine
 10
40.6603980833
 20
288.2331162626
 30
0.0
 11
23.6603971594
 21
288.2331162626
 31
0.0
  0
SPLINE
  5
DA
330
1F
100
AcDbEntity
  8
0
  6
Continuous
 62
     7
370
    15
100
AcDbSpline
210
0.0
220
0.0
230
1.0
 70
     8
 71
     3
 72
    10
 73
     6
 74
     0
 42
0.000000001
 43
0.00000001
 40
0.0
 40
0.0
 40
0.0
 40
0.0
 40
0.3672882841350143
 40
0.7860858012303495
 40
0.9999999999999999
 40
0.9999999999999999
 40
0.9999999999999999
 40
0.9999999999999999
 10
73.43914546305861
 20
270.3205943041999
 30
0.0
 10
73.6393800080269
 20
270.284007112857
 30
0.0
 10
74.06793038524923
 20
270.2057016703372
 30
0.0
 10
74.41271226163212
 20
270.1215410466581
 30
0.0
 10
74.40297413733218
 20
270.1240159185888
 30
0.0
 10
74.39968176419463
 20
270.1248526507575
 30
0.0
  0
SPLINE
  5
DB
330
1F
100
AcDbEntity
  8
0
  6
Continuous
 62
     7
370
    15
100
AcDbSpline
210
0.0
220
0.0
230
1.0
 70
     8
 71
     3
 72
    15
 73
    11
 74
     0
 42
0.000000001
 43
0.00000001
 40
0.0
 40
0.0
 40
0.0
 40
0.0
 40
0.0054884929921983
 40
0.1209071259075475
 40
0.2359435801325178
 40
0.3630789638467586
 40
0.5081739275510337
 40
0.6680863907893523
 40
0.8335282840473265
 40
1.0
 40
1.0
 40
1.0
 40
1.0
 10
68.39200668270315
 20
270.1178342038352
 30
0.0
 10
68.3898056780313
 20
270.1173156558507
 30
0.0
 10
68.3413192994644
 20
270.1058924570733
 30
0.0
 10
68.50594038151347
 20
270.1456561249125
 30
0.0
 10
68.86620470586382
 20
270.2268073275973
 30
0.0
 10
69.49502068199872
 20
270.3462901030534
 30
0.0
 10
70.35406933588706
 20
270.4587339025639
 30
0.0
 10
71.39590108019003
 20
270.5100858173412
 30
0.0
 10
72.50473039894706
 20
270.459798204944
 30
0.0
 10
73.12703017538696
 20
270.3670914843016
 30
0.0
 10
73.43914546305861
 20
270.3205943041999
 30
0.0
  0
LINE
  5
DC
330
1F
100
AcDbEntity
  8
0
  6
Continuous
 62
     7
370
    15
100
AcDbLine
 10
78.4103963547
 20
270.1162695819
 30
0.0
 11
78.4103963547
 21
289.1162782842
 31
0.0
  0
LINE
  5
DD
330
1F
100
AcDbEntity
  8
0
  6
Continuous
 62
     7
370
    15
100
AcDbLine
 10
23.4103975841
 20
271.2758630449
 30
0.0
 11
23.4103975841
 21
287.9566848212
 31
0.0
  0
LINE
  5
DE
330
1F
100
AcDbEntity
  8
0
  6
Continuous
 62
     7
370
    15
100
AcDbLine
 10
23.4103975841
 20
287.9566848212
 30
0.0
 11
23.6603971594
 21
288.2331162626
 31
0.0
  0
LINE
  5
DF
330
1F
100
AcDbEntity
  8
0
  6
Continuous
 62
     7
370
    15
100
AcDbLine
 10
23.6603971594
 20
270.9994316035
 30
0.0
 11
23.4103975841
 21
271.2758630449
 31
0.0
  0
LINE
  5
E0
330
1F
100
AcDbEntity
  8
0
  6
Continuous
 62
     7
370
    15
100
AcDbLine
 10
112.9532847577
 20
-20.3837230867
 30
0.0
 11
112.9532847577
 21
-29.8837274379
 31
0.0
  0
LINE
  5
E1
330
1F
100
AcDbEntity
  8
0
  6
Continuous
 62
     7
370
    15
100
AcDbLine
 10
112.9532847577
 20
-10.8837261862
 30
0.0
 11
112.9532847577
 21
-20.3837230867
 31
0.0
  0
LINE
  5
E2
330
1F
100
AcDbEntity
  8
0
  6
Continuous
 62
     7
370
    15
100
AcDbLine
 10
167.7032876783
 20
-11.7668807572
 30
0.0
 11
150.7032830291
 21
-11.7668807572
 31
0.0
  0
LINE
  5
E3
330
1F
100
AcDbEntity
  8
0
  6
Continuous
 62
     7
370
    15
100
AcDbLine
 10
167.7032876783
 20
-29.0005654162
 30
0.0
 11
167.7032876783
 21
-11.7668807572
 31
0.0
  0
LINE
  5
E4
330
1F
100
AcDbEntity
  8
0
  6
Continuous
 62
     7
370
    15
100
AcDbLine
 10
150.7032830291
 20
-29.0005654162
 30
0.0
 11
167.7032876783
 21
-29.0005654162
 31
0.0
  0
SPLINE
  5
E5
330
1F
100
AcDbEntity
  8
0
  6
Continuous
 62
     7
370
    15
100
AcDbSpline
210
0.0
220
0.0
230
1.0
 70
     8
 71
     3
 72
    17
 73
    13
 74
     0
 42
0.000000001
 43
0.00000001
 40
0.0
 40
0.0
 40
0.0
 40
0.0
 40
0.03762024903948
 40
0.1221317362506499
 40
0.2104359388395171
 40
0.3100662456521281
 40
0.4230621980236988
 40
0.5445717089975519
 40
0.66815961488074
 40
0.7908449251294739
 40
0.9057529729870535
 40
1.0
 40
1.0
 40
1.0
 40
1.0
 10
116.9639993482324
 20
-29.87515927017151
 30
0.0
 10
116.9550866238856
 20
-29.87728864556294
 30
0.0
 10
116.9261520334195
 20
-29.8842015267991
 30
0.0
 10
117.1594426525611
 20
-29.82827359941917
 30
0.0
 10
117.6196007771671
 20
-29.73001039560158
 30
0.0
 10
118.3376017720433
 20
-29.60760070556778
 30
0.0
 10
119.278403485201
 20
-29.51122038020448
 30
0.0
 10
120.3604710194057
 20
-29.49659626618603
 30
0.0
 10
121.4297510358837
 20
-29.58549327161164
 30
0.0
 10
122.3067045529609
 20
-29.73072038729088
 30
0.0
 10
122.8801575754951
 20
-29.85948761770879
 30
0.0
 10
122.9432487457364
 20
-29.87511912702523
 30
0.0
 10
122.9716781550142
 20
-29.88216281593262
 30
0.0
  0
LINE
  5
E6
330
1F
100
AcDbEntity
  8
0
  6
Continuous
 62
     7
370
    15
100
AcDbLine
 10
167.9532844597
 20
-12.0433121985
 30
0.0
 11
167.9532844597
 21
-28.7241339749
 31
0.0
  0
LINE
  5
E7
330
1F
100
AcDbEntity
  8
0
  6
Continuous
 62
     7
370
    15
100
AcDbLine
 10
167.9532844597
 20
-28.7241339749
 30
0.0
 11
167.7032876783
 21
-29.0005654162
 31
0.0
  0
LINE
  5
E8
330
1F
100
AcDbEntity
  8
0
  6
Continuous
 62
     7
370
    15
100
AcDbLine
 10
167.7032876783
 20
-11.7668807572
 30
0.0
 11
167.9532844597
 21
-12.0433121985
 31
0.0
  0
LINE
  5
E9
330
1F
100
AcDbEntity
  8
0
  6
Continuous
 62
     7
370
    15
100
AcDbLine
 10
78.4103963547
 20
-29.8837274379
 30
0.0
 11
78.4103963547
 21
-10.8837261862
 31
0.0
  0
LINE
  5
EA
330
1F
100
AcDbEntity
  8
0
  6
Continuous
 62
     7
370
    15
100
AcDbLine
 10
23.6603971594
 20
-29.0005654162
 30
0.0
 11
40.6603980833
 21
-29.0005654162
 31
0.0
  0
LINE
  5
EB
330
1F
100
AcDbEntity
  8
0
  6
Continuous
 62
     7
370
    15
100
AcDbLine
 10
23.6603971594
 20
-11.7668807572
 30
0.0
 11
23.6603971594
 21
-29.0005654162
 31
0.0
  0
LINE
  5
EC
330
1F
100
AcDbEntity
  8
0
  6
Continuous
 62
     7
370
    15
100
AcDbLine
 10
40.6603980833
 20
-11.7668807572
 30
0.0
 11
23.6603971594
 21
-11.7668807572
 31
0.0
  0
SPLINE
  5
ED
330
1F
100
AcDbEntity
  8
0
  6
Continuous
 62
     7
370
    15
100
AcDbSpline
210
0.0
220
0.0
230
1.0
 70
     8
 71
     3
 72
    10
 73
     6
 74
     0
 42
0.000000001
 43
0.00000001
 40
0.0
 40
0.0
 40
0.0
 40
0.0
 40
0.3672882649907436
 40
0.7860857602569779
 40
1.0
 40
1.0
 40
1.0
 40
1.0
 10
73.43914546305861
 20
-29.67940271556796
 30
0.0
 10
73.63938000845171
 20
-29.71599063015679
 30
0.0
 10
74.06793038658327
 20
-29.79429762059796
 30
0.0
 10
74.41271227466753
 20
-29.87844757443708
 30
0.0
 10
74.40297414102265
 20
-29.8759901153475
 30
0.0
 10
74.39968176419463
 20
-29.87515927017151
 30
0.0
  0
SPLINE
  5
EE
330
1F
100
AcDbEntity
  8
0
  6
Continuous
 62
     7
370
    15
100
AcDbSpline
210
0.0
220
0.0
230
1.0
 70
     8
 71
     3
 72
    15
 73
    11
 74
     0
 42
0.000000001
 43
0.00000001
 40
0.0
 40
0.0
 40
0.0
 40
0.0
 40
0.0054884938483174
 40
0.1209071447671683
 40
0.2359436169360264
 40
0.3630790204813989
 40
0.5081740068182192
 40
0.6680864950003812
 40
0.8335285112459624
 40
1.0
 40
1.0
 40
1.0
 40
1.0
 10
68.39200668270315
 20
-29.88216281593262
 30
0.0
 10
68.38980567803094
 20
-29.88268136392427
 30
0.0
 10
68.34131929945596
 20
-29.89410456286209
 30
0.0
 10
68.50594038254383
 20
-29.85434087463287
 30
0.0
 10
68.8662047020842
 20
-29.77318976634843
 30
0.0
 10
69.49502069864265
 20
-29.653706590063
 30
0.0
 10
70.35406926107521
 20
-29.54126458545397
 30
0.0
 10
71.39590160955909
 20
-29.48990502621029
 30
0.0
 10
72.50472905192201
 20
-29.54022269305317
 30
0.0
 10
73.12702994387627
 20
-29.63291354385686
 30
0.0
 10
73.43914546305861
 20
-29.67940271556793
 30
0.0
  0
LINE
  5
EF
330
1F
100
AcDbEntity
  8
0
  6
Continuous
 62
     7
370
    15
100
AcDbLine
 10
23.4103975841
 20
-28.7241339749
 30
0.0
 11
23.4103975841
 21
-12.0433121985
 31
0.0
  0
LINE
  5
F0
330
1F
100
AcDbEntity
  8
0
  6
Continuous
 62
     7
370
    15
100
AcDbLine
 10
23.4103975841
 20
-12.0433121985
 30
0.0
 11
23.6603971594
 21
-11.7668807572
 31
0.0
  0
LINE
  5
F1
330
1F
100
AcDbEntity
  8
0
  6
Continuous
 62
     7
370
    15
100
AcDbLine
 10
23.6603971594
 20
-29.0005654162
 30
0.0
 11
23.4103975841
 21
-28.7241339749
 31
0.0
  0
LINE
  5
F2
330
1F
100
AcDbEntity
  8
0
  6
Continuous
 62
     7
370
    15
100
AcDbLine
 10
112.9532847577
 20
279.6162664825
 30
0.0
 11
112.9532847577
 21
270.1162695819
 31
0.0
  0
LINE
  5
F3
330
1F
100
AcDbEntity
  8
0
  6
Continuous
 62
     7
370
    15
100
AcDbLine
 10
112.9532847577
 20
289.1162782842
 30
0.0
 11
112.9532847577
 21
279.6162664825
 31
0.0
  0
LINE
  5
F4
330
1F
100
AcDbEntity
  8
0
  6
Continuous
 62
     7
370
    15
100
AcDbLine
 10
167.7032876783
 20
288.2331162626
 30
0.0
 11
150.7032830291
 21
288.2331162626
 31
0.0
  0
LINE
  5
F5
330
1F
100
AcDbEntity
  8
0
  6
Continuous
 62
     7
370
    15
100
AcDbLine
 10
167.7032876783
 20
270.9994316035
 30
0.0
 11
167.7032876783
 21
288.2331162626
 31
0.0
  0
LINE
  5
F6
330
1F
100
AcDbEntity
  8
0
  6
Continuous
 62
     7
370
    15
100
AcDbLine
 10
150.7032830291
 20
270.9994316035
 30
0.0
 11
167.7032876783
 21
270.9994316035
 31
0.0
  0
SPLINE
  5
F7
330
1F
100
AcDbEntity
  8
0
  6
Continuous
 62
     7
370
    15
100
AcDbSpline
210
0.0
220
0.0
230
1.0
 70
     8
 71
     3
 72
    17
 73
    13
 74
     0
 42
0.000000001
 43
0.00000001
 40
0.0
 40
0.0
 40
0.0
 40
0.0
 40
0.0376202618085238
 40
0.1221317478983787
 40
0.2104359493156084
 40
0.310066254806305
 40
0.4230622056786231
 40
0.544571715040264
 40
0.6681596192836635
 40
0.7908449279045847
 40
0.9057529742375416
 40
1.0
 40
1.0
 40
1.0
 40
1.0
 10
116.9639993482324
 20
270.1248526507575
 30
0.0
 10
116.9550866210622
 20
270.1227174665936
 30
0.0
 10
116.9261520284913
 20
270.1157857292404
 30
0.0
 10
117.1594426489867
 20
270.171726987089
 30
0.0
 10
117.6196007782781
 20
270.2699855156031
 30
0.0
 10
118.3376017716846
 20
270.3923966721134
 30
0.0
 10
119.2784034853106
 20
270.4887765302104
 30
0.0
 10
120.3604710193748
 20
270.5034007843634
 30
0.0
 10
121.4297510358921
 20
270.4145037398975
 30
0.0
 10
122.3067045529588
 20
270.2692766345316
 30
0.0
 10
122.8801575754955
 20
270.1405094016629
 30
0.0
 10
122.9432487457366
 20
270.1248778926195
 30
0.0
 10
122.9716781550142
 20
270.1178342038352
 30
0.0
  0
LINE
  5
F8
330
1F
100
AcDbEntity
  8
0
  6
Continuous
 62
     7
370
    15
100
AcDbLine
 10
167.9532844597
 20
287.9566848212
 30
0.0
 11
167.9532844597
 21
271.2758630449
 31
0.0
  0
LINE
  5
F9
330
1F
100
AcDbEntity
  8
0
  6
Continuous
 62
     7
370
    15
100
AcDbLine
 10
167.9532844597
 20
271.2758630449
 30
0.0
 11
167.7032876783
 21
270.9994316035
 31
0.0
  0
LINE
  5
FA
330
1F
100
AcDbEntity
  8
0
  6
Continuous
 62
     7
370
    15
100
AcDbLine
 10
167.7032876783
 20
288.2331162626
 30
0.0
 11
167.9532844597
 21
287.9566848212
 31
0.0
  0
LINE
  5
FB
330
1F
100
AcDbEntity
  8
0
  6
Continuous
 62
     7
370
    15
100
AcDbLine
 10
-64.7875222743
 20
253.6162733966
 30
0.0
 11
-64.7875222743
 21
5.6162699991
 31
0.0
  0
LINE
  5
FC
330
1F
100
AcDbEntity
  8
0
  6
Continuous
 62
     7
370
    15
100
AcDbLine
 10
-45.7875219539
 20
5.6162699991
 30
0.0
 11
-45.7875219539
 21
253.6162733966
 31
0.0
  0
LINE
  5
FD
330
1F
100
AcDbEntity
  8
0
  6
Continuous
 62
     7
370
    15
100
AcDbLine
 10
-64.7875222743
 20
5.6162699991
 30
0.0
 11
-64.7875222743
 21
-4.3837279147
 31
0.0
  0
LINE
  5
FE
330
1F
100
AcDbEntity
  8
0
  6
Continuous
 62
     7
370
    15
100
AcDbLine
 10
-45.7875219539
 20
-4.3837279147
 30
0.0
 11
-45.7875219539
 21
5.6162699991
 31
0.0
  0
LINE
  5
FF
330
1F
100
AcDbEntity
  8
0
  6
Continuous
 62
     7
370
    15
100
AcDbLine
 10
-45.7875219539
 20
253.6162733966
 30
0.0
 11
-45.7875219539
 21
263.616278761
 31
0.0
  0
LINE
  5
100
330
1F
100
AcDbEntity
  8
0
  6
Continuous
 62
     7
370
    15
100
AcDbLine
 10
-64.7875222743
 20
263.616278761
 30
0.0
 11
-64.7875222743
 21
253.6162733966
 31
0.0
  0
LINE
  5
101
330
1F
100
AcDbEntity
  8
0
  6
Continuous
 62
     7
370
    15
100
AcDbLine
 10
-45.7875219539
 20
253.6162733966
 30
0.0
 11
-64.7875222743
 21
253.6162733966
 31
0.0
  0
LINE
  5
102
330
1F
100
AcDbEntity
  8
0
  6
Continuous
 62
     7
370
    15
100
AcDbLine
 10
-45.7875219539
 20
5.6162699991
 30
0.0
 11
-64.7875222743
 21
5.6162699991
 31
0.0
  0
LINE
  5
103
330
1F
100
AcDbEntity
  8
0
  6
Continuous
 62
     7
370
    15
100
AcDbLine
 10
-55.2875219395
 20
5.6162699991
 30
0.0
 11
-64.7875222743
 21
5.6162699991
 31
0.0
  0
LINE
  5
104
330
1F
100
AcDbEntity
  8
0
  6
Continuous
 62
     7
370
    15
100
AcDbLine
 10
-45.7875219539
 20
5.6162699991
 30
0.0
 11
-55.2875219395
 21
5.6162699991
 31
0.0
  0
LINE
  5
105
330
1F
100
AcDbEntity
  8
0
  6
Continuous
 62
     7
370
    15
100
AcDbLine
 10
-45.7875219539
 20
-4.3837279147
 30
0.0
 11
-51.3375218392
 21
-4.3837279147
 31
0.0
  0
LINE
  5
106
330
1F
100
AcDbEntity
  8
0
  6
Continuous
 62
     7
370
    15
100
AcDbLine
 10
-51.3375218392
 20
-36.1337214774
 30
0.0
 11
-51.3375218392
 21
-4.3837279147
 31
0.0
  0
LINE
  5
107
330
1F
100
AcDbEntity
  8
0
  6
Continuous
 62
     7
370
    15
100
AcDbLine
 10
-59.2375219234
 20
-36.1337214774
 30
0.0
 11
-51.3375218392
 21
-36.1337214774
 31
0.0
  0
LINE
  5
108
330
1F
100
AcDbEntity
  8
0
  6
Continuous
 62
     7
370
    15
100
AcDbLine
 10
-59.2375219234
 20
-4.3837279147
 30
0.0
 11
-59.2375219234
 21
-36.1337214774
 31
0.0
  0
LINE
  5
109
330
1F
100
AcDbEntity
  8
0
  6
Continuous
 62
     7
370
    15
100
AcDbLine
 10
-59.2375219234
 20
-4.3837279147
 30
0.0
 11
-64.7875222743
 21
-4.3837279147
 31
0.0
  0
LINE
  5
10A
330
1F
100
AcDbEntity
  8
0
  6
Continuous
 62
     7
370
    15
100
AcDbLine
 10
-51.3375218392
 20
-36.3837331599
 30
0.0
 11
-59.2375219234
 21
-36.3837331599
 31
0.0
  0
LINE
  5
10B
330
1F
100
AcDbEntity
  8
0
  6
Continuous
 62
     7
370
    15
100
AcDbLine
 10
-59.2375219234
 20
-36.3837331599
 30
0.0
 11
-59.2375219234
 21
-36.1337214774
 31
0.0
  0
LINE
  5
10C
330
1F
100
AcDbEntity
  8
0
  6
Continuous
 62
     7
370
    15
100
AcDbLine
 10
-51.3375218392
 20
-36.1337214774
 30
0.0
 11
-51.3375218392
 21
-36.3837331599
 31
0.0
  0
LINE
  5
10D
330
1F
100
AcDbEntity
  8
0
  6
Continuous
 62
     7
370
    15
100
AcDbLine
 10
-59.2375219234
 20
295.6162691051
 30
0.0
 11
-51.3375218392
 21
295.6162691051
 31
0.0
  0
LINE
  5
10E
330
1F
100
AcDbEntity
  8
0
  6
Continuous
 62
     7
370
    15
100
AcDbLine
 10
-51.3375218392
 20
295.6162691051
 30
0.0
 11
-51.3375218392
 21
295.3662723237
 31
0.0
  0
LINE
  5
10F
330
1F
100
AcDbEntity
  8
0
  6
Continuous
 62
     7
370
    15
100
AcDbLine
 10
-51.3375218392
 20
295.3662723237
 30
0.0
 11
-59.2375219234
 21
295.3662723237
 31
0.0
  0
LINE
  5
110
330
1F
100
AcDbEntity
  8
0
  6
Continuous
 62
     7
370
    15
100
AcDbLine
 10
-59.2375219234
 20
295.3662723237
 30
0.0
 11
-59.2375219234
 21
295.6162691051
 31
0.0
  0
LINE
  5
111
330
1F
100
AcDbEntity
  8
0
  6
Continuous
 62
     7
370
    15
100
AcDbLine
 10
-64.7875222743
 20
263.616278761
 30
0.0
 11
-59.2375219234
 21
263.616278761
 31
0.0
  0
LINE
  5
112
330
1F
100
AcDbEntity
  8
0
  6
Continuous
 62
     7
370
    15
100
AcDbLine
 10
-59.2375219234
 20
295.3662723237
 30
0.0
 11
-59.2375219234
 21
263.616278761
 31
0.0
  0
LINE
  5
113
330
1F
100
AcDbEntity
  8
0
  6
Continuous
 62
     7
370
    15
100
AcDbLine
 10
-51.3375218392
 20
263.616278761
 30
0.0
 11
-51.3375218392
 21
295.3662723237
 31
0.0
  0
LINE
  5
114
330
1F
100
AcDbEntity
  8
0
  6
Continuous
 62
     7
370
    15
100
AcDbLine
 10
-51.3375218392
 20
263.616278761
 30
0.0
 11
-45.7875219539
 21
263.616278761
 31
0.0
  0
LINE
  5
115
330
1F
100
AcDbEntity
  8
0
  6
Continuous
 62
     7
370
    15
100
AcDbLine
 10
-55.2875219395
 20
253.6162733966
 30
0.0
 11
-45.7875219539
 21
253.6162733966
 31
0.0
  0
LINE
  5
116
330
1F
100
AcDbEntity
  8
0
  6
Continuous
 62
     7
370
    15
100
AcDbLine
 10
-64.7875222743
 20
253.6162733966
 30
0.0
 11
-55.2875219395
 21
253.6162733966
 31
0.0
  0
ARC
  5
117
330
1F
100
AcDbEntity
  8
0
  6
Continuous
 62
     7
370
    15
100
AcDbCircle
 10
-55.2875219481
 20
-20.3837266922
 30
0.0
 40
9.250000000000016
100
AcDbArc
 50
295.6220277472
 51
64.3779722528
  0
LINE
  5
118
330
1F
100
AcDbEntity
  8
0
  6
Continuous
 62
     7
370
    15
100
AcDbLine
 10
-51.2875219241
 20
-12.0433121985
 30
0.0
 11
-51.2875219241
 21
-11.7668807572
 31
0.0
  0
ARC
  5
119
330
1F
100
AcDbEntity
  8
0
  6
Continuous
 62
     7
370
    15
100
AcDbCircle
 10
-55.2875219481
 20
-20.3837266922
 30
0.0
 40
9.50000000000002
100
AcDbArc
 50
294.9010623704
 51
65.0989376296
  0
LINE
  5
11A
330
1F
100
AcDbEntity
  8
0
  6
Continuous
 62
     7
370
    15
100
AcDbLine
 10
-51.2875219241
 20
-29.0005654162
 30
0.0
 11
-51.2875219241
 21
-28.7241339749
 31
0.0
  0
LINE
  5
11B
330
1F
100
AcDbEntity
  8
0
  6
Continuous
 62
     7
370
    15
100
AcDbLine
 10
-51.2875219241
 20
-28.7241339749
 30
0.0
 11
-51.2875219241
 21
-12.0433121985
 31
0.0
  0
ARC
  5
11C
330
1F
100
AcDbEntity
  8
0
  6
Continuous
 62
     7
370
    15
100
AcDbCircle
 10
-55.2875219481
 20
-20.3837266922
 30
0.0
 40
9.250000000000012
100
AcDbArc
 50
115.6220277472
 51
244.3779722528
  0
LINE
  5
11D
330
1F
100
AcDbEntity
  8
0
  6
Continuous
 62
     7
370
    15
100
AcDbLine
 10
-59.2875218384
 20
-12.0433121985
 30
0.0
 11
-59.2875218384
 21
-28.7241339749
 31
0.0
  0
ARC
  5
11E
330
1F
100
AcDbEntity
  8
0
  6
Continuous
 62
     7
370
    15
100
AcDbCircle
 10
-55.2875219481
 20
-20.3837266922
 30
0.0
 40
9.50000000000002
100
AcDbArc
 50
114.9010623704
 51
245.0989376296
  0
LINE
  5
11F
330
1F
100
AcDbEntity
  8
0
  6
Continuous
 62
     7
370
    15
100
AcDbLine
 10
-59.2875218384
 20
-11.7668807572
 30
0.0
 11
-59.2875218384
 21
-12.0433121985
 31
0.0
  0
LINE
  5
120
330
1F
100
AcDbEntity
  8
0
  6
Continuous
 62
     7
370
    15
100
AcDbLine
 10
-59.2875218384
 20
-28.7241339749
 30
0.0
 11
-59.2875218384
 21
-29.0005654162
 31
0.0
  0
ARC
  5
121
330
1F
100
AcDbEntity
  8
0
  6
Continuous
 62
     7
370
    15
100
AcDbCircle
 10
-55.2875219481
 20
279.6162733078
 30
0.0
 40
9.25000000000009
100
AcDbArc
 50
295.6220277472
 51
64.3779722528
  0
LINE
  5
122
330
1F
100
AcDbEntity
  8
0
  6
Continuous
 62
     7
370
    15
100
AcDbLine
 10
-51.2875219241
 20
287.9566848212
 30
0.0
 11
-51.2875219241
 21
288.2331162626
 31
0.0
  0
ARC
  5
123
330
1F
100
AcDbEntity
  8
0
  6
Continuous
 62
     7
370
    15
100
AcDbCircle
 10
-55.2875219481
 20
279.6162733078
 30
0.0
 40
9.500000000000057
100
AcDbArc
 50
294.9010623704
 51
65.0989376296
  0
LINE
  5
124
330
1F
100
AcDbEntity
  8
0
  6
Continuous
 62
     7
370
    15
100
AcDbLine
 10
-51.2875219241
 20
270.9994316035
 30
0.0
 11
-51.2875219241
 21
271.2758630449
 31
0.0
  0
LINE
  5
125
330
1F
100
AcDbEntity
  8
0
  6
Continuous
 62
     7
370
    15
100
AcDbLine
 10
-51.2875219241
 20
271.2758630449
 30
0.0
 11
-51.2875219241
 21
287.9566848212
 31
0.0
  0
ARC
  5
126
330
1F
100
AcDbEntity
  8
0
  6
Continuous
 62
     7
370
    15
100
AcDbCircle
 10
-55.2875219481
 20
279.6162733078
 30
0.0
 40
9.25000000000007
100
AcDbArc
 50
115.6220277472
 51
244.3779722528
  0
ARC
  5
127
330
1F
100
AcDbEntity
  8
0
  6
Continuous
 62
     7
370
    15
100
AcDbCircle
 10
-55.2875219481
 20
279.6162733078
 30
0.0
 40
9.500000000000034
100
AcDbArc
 50
114.9010623704
 51
245.0989376296
  0
LINE
  5
128
330
1F
100
AcDbEntity
  8
0
  6
Continuous
 62
     7
370
    15
100
AcDbLine
 10
-59.2875218384
 20
288.2331162626
 30
0.0
 11
-59.2875218384
 21
287.9566848212
 31
0.0
  0
LINE
  5
129
330
1F
100
AcDbEntity
  8
0
  6
Continuous
 62
     7
370
    15
100
AcDbLine
 10
-59.2875218384
 20
271.2758630449
 30
0.0
 11
-59.2875218384
 21
270.9994316035
 31
0.0
  0
LINE
  5
12A
330
1F
100
AcDbEntity
  8
0
  6
Continuous
 62
     7
370
    15
100
AcDbLine
 10
-59.2875218384
 20
287.9566848212
 30
0.0
 11
-59.2875218384
 21
271.2758630449
 31
0.0
  0
LINE
  5
12B
330
1F
100
AcDbEntity
  8
0
  6
Continuous
 62
     7
370
    15
100
AcDbLine
 10
112.9532847577
 20
353.0553622092
 30
0.0
 11
167.7032876783
 21
353.0553622092
 31
0.0
  0
LINE
  5
12C
330
1F
100
AcDbEntity
  8
0
  6
Continuous
 62
     7
370
    15
100
AcDbLine
 10
167.7032876783
 20
372.0553625295
 30
0.0
 11
112.9532847577
 21
372.0553625295
 31
0.0
  0
LINE
  5
12D
330
1F
100
AcDbEntity
  8
0
  6
Continuous
 62
     7
370
    15
100
AcDbLine
 10
167.7032876783
 20
353.0553622092
 30
0.0
 11
167.9532844597
 21
353.3053617845
 31
0.0
  0
LINE
  5
12E
330
1F
100
AcDbEntity
  8
0
  6
Continuous
 62
     7
370
    15
100
AcDbLine
 10
167.9532844597
 20
371.8053620229
 30
0.0
 11
167.7032876783
 21
372.0553625295
 31
0.0
  0
LINE
  5
12F
330
1F
100
AcDbEntity
  8
0
  6
Continuous
 62
     7
370
    15
100
AcDbLine
 10
78.4103963547
 20
372.0553625295
 30
0.0
 11
23.6603971594
 21
372.0553625295
 31
0.0
  0
LINE
  5
130
330
1F
100
AcDbEntity
  8
0
  6
Continuous
 62
     7
370
    15
100
AcDbLine
 10
23.6603971594
 20
353.0553622092
 30
0.0
 11
78.4103963547
 21
353.0553622092
 31
0.0
  0
LINE
  5
131
330
1F
100
AcDbEntity
  8
0
  6
Continuous
 62
     7
370
    15
100
AcDbLine
 10
23.4103975841
 20
353.3053617845
 30
0.0
 11
23.6603971594
 21
353.0553622092
 31
0.0
  0
LINE
  5
132
330
1F
100
AcDbEntity
  8
0
  6
Continuous
 62
     7
370
    15
100
AcDbLine
 10
23.6603971594
 20
372.0553625295
 30
0.0
 11
23.4103975841
 21
371.8053620229
 31
0.0
  0
ARC
  5
133
330
1F
100
AcDbEntity
  8
0
  6
Continuous
 62
     7
370
    15
100
AcDbCircle
 10
159.3532881915
 20
362.5553622034
 30
0.0
 40
9.250000000000085
100
AcDbArc
 50
154.7209647763
 51
205.2790352237
  0
LINE
  5
134
330
1F
100
AcDbEntity
  8
0
  6
Continuous
 62
     7
370
    15
100
AcDbLine
 10
150.9890723997
 20
358.6053620944
 30
0.0
 11
150.7134158188
 21
358.6053620944
 31
0.0
  0
ARC
  5
135
330
1F
100
AcDbEntity
  8
0
  6
Continuous
 62
     7
370
    15
100
AcDbCircle
 10
159.3532881915
 20
362.5553622034
 30
0.0
 40
9.50000000000002
100
AcDbArc
 50
155.4309567565
 51
204.5690432435
  0
LINE
  5
136
330
1F
100
AcDbEntity
  8
0
  6
Continuous
 62
     7
370
    15
100
AcDbLine
 10
150.7134158188
 20
366.5053621786
 30
0.0
 11
150.9890723997
 21
366.5053621786
 31
0.0
  0
ARC
  5
137
330
1F
100
AcDbEntity
  8
0
  6
Continuous
 62
     7
370
    15
100
AcDbCircle
 10
159.3532881915
 20
362.5553622034
 30
0.0
 40
9.250000000000062
100
AcDbArc
 50
334.7209647763
 51
25.2790352237
  0
LINE
  5
138
330
1F
100
AcDbEntity
  8
0
  6
Continuous
 62
     7
370
    15
100
AcDbLine
 10
167.7175033861
 20
366.5053621786
 30
0.0
 11
167.993159967
 21
366.5053621786
 31
0.0
  0
ARC
  5
139
330
1F
100
AcDbEntity
  8
0
  6
Continuous
 62
     7
370
    15
100
AcDbCircle
 10
159.3532881915
 20
362.5553622034
 30
0.0
 40
9.50000000000002
100
AcDbArc
 50
335.4309567565
 51
24.5690432435
  0
LINE
  5
13A
330
1F
100
AcDbEntity
  8
0
  6
Continuous
 62
     7
370
    15
100
AcDbLine
 10
167.993159967
 20
358.6053620944
 30
0.0
 11
167.7175033861
 21
358.6053620944
 31
0.0
  0
LINE
  5
13B
330
1F
100
AcDbEntity
  8
0
  6
Continuous
 62
     7
370
    15
100
AcDbLine
 10
167.7175033861
 20
358.6053620944
 30
0.0
 11
150.9890723997
 21
358.6053620944
 31
0.0
  0
LINE
  5
13C
330
1F
100
AcDbEntity
  8
0
  6
Continuous
 62
     7
370
    15
100
AcDbLine
 10
150.9890723997
 20
366.5053621786
 30
0.0
 11
167.7175033861
 21
366.5053621786
 31
0.0
  0
LINE
  5
13D
330
1F
100
AcDbEntity
  8
0
  6
Continuous
 62
     7
370
    15
100
AcDbLine
 10
167.993159967
 20
366.5053621786
 30
0.0
 11
167.9344046884
 21
366.6314409035
 31
0.0
  0
ARC
  5
13E
330
1F
100
AcDbEntity
  8
0
  6
Continuous
 62
     7
370
    15
100
AcDbCircle
 10
32.0103972222
 20
362.5553622034
 30
0.0
 40
9.250000000000064
100
AcDbArc
 50
154.7209647763
 51
205.2790352237
  0
LINE
  5
13F
330
1F
100
AcDbEntity
  8
0
  6
Continuous
 62
     7
370
    15
100
AcDbLine
 10
23.6461879709
 20
358.6053620944
 30
0.0
 11
23.3705183514
 21
358.6053620944
 31
0.0
  0
ARC
  5
140
330
1F
100
AcDbEntity
  8
0
  6
Continuous
 62
     7
370
    15
100
AcDbCircle
 10
32.0103972222
 20
362.5553622034
 30
0.0
 40
9.500000000000027
100
AcDbArc
 50
155.4309567565
 51
204.5690432435
  0
LINE
  5
141
330
1F
100
AcDbEntity
  8
0
  6
Continuous
 62
     7
370
    15
100
AcDbLine
 10
23.3705183514
 20
366.5053621786
 30
0.0
 11
23.6461879709
 21
366.5053621786
 31
0.0
  0
ARC
  5
142
330
1F
100
AcDbEntity
  8
0
  6
Continuous
 62
     7
370
    15
100
AcDbCircle
 10
32.0103972222
 20
362.5553622034
 30
0.0
 40
9.250000000000068
100
AcDbArc
 50
334.7209647763
 51
25.2790352237
  0
LINE
  5
143
330
1F
100
AcDbEntity
  8
0
  6
Continuous
 62
     7
370
    15
100
AcDbLine
 10
40.3746068501
 20
366.5053621786
 30
0.0
 11
40.6502764695
 21
366.5053621786
 31
0.0
  0
ARC
  5
144
330
1F
100
AcDbEntity
  8
0
  6
Continuous
 62
     7
370
    15
100
AcDbCircle
 10
32.0103972222
 20
362.5553622034
 30
0.0
 40
9.500000000000014
100
AcDbArc
 50
335.4309567565
 51
24.5690432435
  0
LINE
  5
145
330
1F
100
AcDbEntity
  8
0
  6
Continuous
 62
     7
370
    15
100
AcDbLine
 10
40.6502764695
 20
358.6053620944
 30
0.0
 11
40.3746068501
 21
358.6053620944
 31
0.0
  0
LINE
  5
146
330
1F
100
AcDbEntity
  8
0
  6
Continuous
 62
     7
370
    15
100
AcDbLine
 10
23.6461879709
 20
366.5053621786
 30
0.0
 11
40.3746068501
 21
366.5053621786
 31
0.0
  0
LINE
  5
147
330
1F
100
AcDbEntity
  8
0
  6
Continuous
 62
     7
370
    15
100
AcDbLine
 10
40.3746068501
 20
358.6053620944
 30
0.0
 11
23.6461879709
 21
358.6053620944
 31
0.0
  0
LINE
  5
148
330
1F
100
AcDbEntity
  8
0
  6
Continuous
 62
     7
370
    15
100
AcDbLine
 10
112.9532847577
 20
372.0553625295
 30
0.0
 11
112.9532847577
 21
353.0553622092
 31
0.0
  0
LINE
  5
149
330
1F
100
AcDbEntity
  8
0
  6
Continuous
 62
     7
370
    15
100
AcDbLine
 10
167.7032876783
 20
366.5553620937
 30
0.0
 11
167.7032876783
 21
372.0553625295
 31
0.0
  0
LINE
  5
14A
330
1F
100
AcDbEntity
  8
0
  6
Continuous
 62
     7
370
    15
100
AcDbLine
 10
150.7032830291
 20
366.5553620937
 30
0.0
 11
167.7032876783
 21
366.5553620937
 31
0.0
  0
LINE
  5
14B
330
1F
100
AcDbEntity
  8
0
  6
Continuous
 62
     7
370
    15
100
AcDbLine
 10
167.7032876783
 20
358.5553621794
 30
0.0
 11
150.7032830291
 21
358.5553621794
 31
0.0
  0
LINE
  5
14C
330
1F
100
AcDbEntity
  8
0
  6
Continuous
 62
     7
370
    15
100
AcDbLine
 10
167.7032876783
 20
353.0553622092
 30
0.0
 11
167.7032876783
 21
358.5553621794
 31
0.0
  0
SPLINE
  5
14D
330
1F
100
AcDbEntity
  8
0
  6
Continuous
 62
     7
370
    15
100
AcDbSpline
210
0.0
220
0.0
230
1.0
 70
    11
 71
     3
 72
    26
 73
    22
 74
     0
 42
0.000000001
 43
0.00000001
 40
0.0
 40
0.0
 40
0.0
 40
0.0
 40
0.0468435969208874
 40
0.1002564646069708
 40
0.1463463846757318
 40
0.1885964042542207
 40
0.2327425246380705
 40
0.282550930008167
 40
0.3390412528924372
 40
0.3997877784480705
 40
0.4615733606871084
 40
0.5229077062424059
 40
0.5803539473620037
 40
0.6295156665556781
 40
0.6725124395735442
 40
0.7153667751173448
 40
0.7627285689123291
 40
0.8167806714739113
 40
0.8763527309534163
 40
0.9379846986717902
 40
1.0
 40
1.0
 40
1.0
 40
1.0
 10
117.924543099949
 20
360.5956685184109
 30
0.0
 10
117.7217802143264
 20
360.7855295635372
 30
0.0
 10
117.2878193017953
 20
361.1918774616951
 30
0.0
 10
116.9349871874866
 20
362.015929229957
 30
0.0
 10
116.9039210690685
 20
362.8747484649679
 30
0.0
 10
117.1491163192838
 20
363.635841909584
 30
0.0
 10
117.6228050720391
 20
364.298612711608
 30
0.0
 10
118.3365906953813
 20
364.8446777313801
 30
0.0
 10
119.2786085750795
 20
365.1919573446265
 30
0.0
 10
120.3608344128806
 20
365.2389914607266
 30
0.0
 10
121.4280639869718
 20
364.9345042530841
 30
0.0
 10
122.3128578440731
 20
364.3051881740639
 30
0.0
 10
122.8671461640916
 20
363.4520621588491
 30
0.0
 10
123.028993634951
 20
362.5551462795365
 30
0.0
 10
122.8782124554541
 20
361.752157770656
 30
0.0
 10
122.4913892442852
 20
361.0530388089567
 30
0.0
 10
121.8706279569837
 20
360.4561905193974
 30
0.0
 10
121.0089982439569
 20
360.0197450538029
 30
0.0
 10
119.9679612070612
 20
359.8529709538685
 30
0.0
 10
118.8589111045256
 20
360.0048345007693
 30
0.0
 10
118.2366421581398
 20
360.3983172183345
 30
0.0
 10
117.924543099949
 20
360.5956685184109
 30
0.0
  0
CIRCLE
  5
14E
330
1F
100
AcDbEntity
  8
0
  6
Continuous
 62
     7
370
    15
100
AcDbCircle
 10
119.9532881915
 20
362.5553622034
 30
0.0
 40
2.5
  0
LINE
  5
14F
330
1F
100
AcDbEntity
  8
0
  6
Continuous
 62
     7
370
    15
100
AcDbLine
 10
167.9532844597
 20
358.5553621794
 30
0.0
 11
167.9532844597
 21
353.3053617845
 31
0.0
  0
LINE
  5
150
330
1F
100
AcDbEntity
  8
0
  6
Continuous
 62
     7
370
    15
100
AcDbLine
 10
167.7032876783
 20
358.5553621794
 30
0.0
 11
167.9532844597
 21
358.5553621794
 31
0.0
  0
LINE
  5
151
330
1F
100
AcDbEntity
  8
0
  6
Continuous
 62
     7
370
    15
100
AcDbLine
 10
167.9532844597
 20
371.8053620229
 30
0.0
 11
167.9532844597
 21
366.5553620937
 31
0.0
  0
LINE
  5
152
330
1F
100
AcDbEntity
  8
0
  6
Continuous
 62
     7
370
    15
100
AcDbLine
 10
167.9532844597
 20
366.5553620937
 30
0.0
 11
167.7032876783
 21
366.5553620937
 31
0.0
  0
LINE
  5
153
330
1F
100
AcDbEntity
  8
0
  6
Continuous
 62
     7
370
    15
100
AcDbLine
 10
23.6603971594
 20
358.5553621794
 30
0.0
 11
23.6603971594
 21
353.0553622092
 31
0.0
  0
LINE
  5
154
330
1F
100
AcDbEntity
  8
0
  6
Continuous
 62
     7
370
    15
100
AcDbLine
 10
40.6603980833
 20
358.5553621794
 30
0.0
 11
23.6603971594
 21
358.5553621794
 31
0.0
  0
LINE
  5
155
330
1F
100
AcDbEntity
  8
0
  6
Continuous
 62
     7
370
    15
100
AcDbLine
 10
23.6603971594
 20
366.5553620937
 30
0.0
 11
40.6603980833
 21
366.5553620937
 31
0.0
  0
LINE
  5
156
330
1F
100
AcDbEntity
  8
0
  6
Continuous
 62
     7
370
    15
100
AcDbLine
 10
23.6603971594
 20
372.0553625295
 30
0.0
 11
23.6603971594
 21
366.5553620937
 31
0.0
  0
SPLINE
  5
157
330
1F
100
AcDbEntity
  8
0
  6
Continuous
 62
     7
370
    15
100
AcDbSpline
210
0.0
220
0.0
230
1.0
 70
    11
 71
     3
 72
    26
 73
    22
 74
     0
 42
0.000000001
 43
0.00000001
 40
0.0
 40
0.0
 40
0.0
 40
0.0
 40
0.046843457045218
 40
0.1002563328435862
 40
0.1463462542544172
 40
0.1885962760159954
 40
0.2327425177423778
 40
0.2825507572106931
 40
0.339040887273817
 40
0.3997876240563331
 40
0.4615732051735403
 40
0.5229075569925046
 40
0.5803536906375696
 40
0.6295154828016034
 40
0.6725122936950502
 40
0.7153667318670163
 40
0.7627283745528745
 40
0.8167804851905025
 40
0.8763525470637882
 40
0.9379845192772147
 40
1.0
 40
1.0
 40
1.0
 40
1.0
 10
73.43914546305861
 20
364.5150559874791
 30
0.0
 10
73.64190687099014
 20
364.3251947418052
 30
0.0
 10
74.07586534638183
 20
363.9188457351126
 30
0.0
 10
74.42869784668922
 20
363.0947952508996
 30
0.0
 10
74.45976348570231
 20
362.2359760911577
 30
0.0
 10
74.21456919082186
 20
361.4748811468049
 30
0.0
 10
73.74087573682806
 20
360.8121141069361
 30
0.0
 10
73.02709500738325
 20
360.2660463577976
 30
0.0
 10
72.08507757185556
 20
359.9187664558079
 30
0.0
 10
71.002851546244
 20
359.871732983161
 30
0.0
 10
69.93562138651153
 20
360.1762201082395
 30
0.0
 10
69.05082532250884
 20
360.8055349869448
 30
0.0
 10
68.49654641907068
 20
361.6586642996407
 30
0.0
 10
68.33468385420359
 20
362.5555774834065
 30
0.0
 10
68.48547317965911
 20
363.3585675409003
 30
0.0
 10
68.87229959530889
 20
364.0576832302502
 30
0.0
 10
69.49305673123423
 20
364.6545351705308
 30
0.0
 10
70.35468682363545
 20
365.0909791434908
 30
0.0
 10
71.39572365108924
 20
365.2577538501473
 30
0.0
 10
72.50477449714602
 20
365.1058889664768
 30
0.0
 10
73.12704512357506
 20
364.7124071253573
 30
0.0
 10
73.43914546305861
 20
364.5150559874791
 30
0.0
  0
LINE
  5
158
330
1F
100
AcDbEntity
  8
0
  6
Continuous
 62
     7
370
    15
100
AcDbLine
 10
78.4103963547
 20
353.0553622092
 30
0.0
 11
78.4103963547
 21
372.0553625295
 31
0.0
  0
CIRCLE
  5
159
330
1F
100
AcDbEntity
  8
0
  6
Continuous
 62
     7
370
    15
100
AcDbCircle
 10
71.4103972222
 20
362.5553622034
 30
0.0
 40
2.5
  0
LINE
  5
15A
330
1F
100
AcDbEntity
  8
0
  6
Continuous
 62
     7
370
    15
100
AcDbLine
 10
23.4103975841
 20
353.3053617845
 30
0.0
 11
23.4103975841
 21
358.5553621794
 31
0.0
  0
LINE
  5
15B
330
1F
100
AcDbEntity
  8
0
  6
Continuous
 62
     7
370
    15
100
AcDbLine
 10
23.4103975841
 20
358.5553621794
 30
0.0
 11
23.6603971594
 21
358.5553621794
 31
0.0
  0
LINE
  5
15C
330
1F
100
AcDbEntity
  8
0
  6
Continuous
 62
     7
370
    15
100
AcDbLine
 10
23.4103975841
 20
366.5553620937
 30
0.0
 11
23.4103975841
 21
371.8053620229
 31
0.0
  0
LINE
  5
15D
330
1F
100
AcDbEntity
  8
0
  6
Continuous
 62
     7
370
    15
100
AcDbLine
 10
23.6603971594
 20
366.5553620937
 30
0.0
 11
23.4103975841
 21
366.5553620937
 31
0.0
  0
ENDSEC
  0
SECTION
  2
OBJECTS
  0
DICTIONARY
  5
C
330
0
100
AcDbDictionary
281
     1
  3
ACAD_GROUP
350
D
  3
ACAD_LAYOUT
350
1A
  3
ACAD_MLINESTYLE
350
17
  3
ACAD_PLOTSETTINGS
350
19
  3
ACAD_PLOTSTYLENAME
350
E
  3
ACAD_SCALELIST
350
47
  0
DICTIONARY
  5
D
102
{ACAD_REACTORS
330
C
102
}
330
C
100
AcDbDictionary
281
     1
  0
DICTIONARY
  5
1A
102
{ACAD_REACTORS
330
C
102
}
330
C
100
AcDbDictionary
281
     1
  3
Layout1
350
1E
  3
Layout2
350
26
  3
Model
350
22
  0
DICTIONARY
  5
17
102
{ACAD_REACTORS
330
C
102
}
330
C
100
AcDbDictionary
281
     1
  3
Standard
350
18
  0
DICTIONARY
  5
19
102
{ACAD_REACTORS
330
C
102
}
330
C
100
AcDbDictionary
281
     1
  0
ACDBDICTIONARYWDFLT
  5
E
102
{ACAD_REACTORS
330
C
102
}
330
C
100
AcDbDictionary
281
     1
  3
Normal
350
F
100
AcDbDictionaryWithDefault
340
F
  0
DICTIONARY
  5
47
102
{ACAD_REACTORS
330
C
102
}
330
C
100
AcDbDictionary
281
     1
  3
A0
350
48
  3
A1
350
49
  3
A2
350
4A
  3
A3
350
4B
  3
A4
350
4C
  3
A5
350
4D
  3
A6
350
4E
  3
A7
350
4F
  3
A8
350
50
  3
A9
350
51
  3
B0
350
52
  3
B1
350
53
  3
B2
350
54
  3
B3
350
55
  3
B4
350
56
  3
B5
350
57
  3
B6
350
58
  3
B7
350
59
  3
B8
350
5A
  3
B9
350
5B
  3
C0
350
5C
  3
C1
350
5D
  3
C2
350
5E
  3
C3
350
5F
  3
C4
350
60
  3
C5
350
61
  3
C6
350
62
  3
C7
350
63
  3
C8
350
64
  3
C9
350
65
  3
D0
350
66
  3
D1
350
67
  3
D2
350
68
  0
LAYOUT
  5
1E
102
{ACAD_REACTORS
330
1A
102
}
330
1A
100
AcDbPlotSettings
  1

  2
none_device
  4

  6

 40
0.0
 41
0.0
 42
0.0
 43
0.0
 44
0.0
 45
0.0
 46
0.0
 47
0.0
 48
0.0
 49
0.0
140
0.0
141
0.0
142
1.0
143
1.0
 70
   688
 72
     1
 73
     0
 74
     5
  7

 75
    16
147
1.0
148
0.0
149
0.0
100
AcDbLayout
  1
Layout1
 70
     1
 71
     1
 10
0.0
 20
0.0
 11
420.0
 21
297.0
 12
0.0
 22
0.0
 32
0.0
 14
1.0000000000E+20
 24
1.0000000000E+20
 34
1.0000000000E+20
 15
-1.0000000000E+20
 25
-1.0000000000E+20
 35
-1.0000000000E+20
146
0.0
 13
0.0
 23
0.0
 33
0.0
 16
1.0
 26
0.0
 36
0.0
 17
0.0
 27
1.0
 37
0.0
 76
     0
330
1B
  0
LAYOUT
  5
26
102
{ACAD_REACTORS
330
1A
102
}
330
1A
100
AcDbPlotSettings
  1

  2
none_device
  4

  6

 40
0.0
 41
0.0
 42
0.0
 43
0.0
 44
0.0
 45
0.0
 46
0.0
 47
0.0
 48
0.0
 49
0.0
140
0.0
141
0.0
142
1.0
143
1.0
 70
   688
 72
     1
 73
     0
 74
     5
  7

 75
    16
147
1.0
148
0.0
149
0.0
100
AcDbLayout
  1
Layout2
 70
     1
 71
     2
 10
0.0
 20
0.0
 11
0.0
 21
0.0
 12
0.0
 22
0.0
 32
0.0
 14
0.0
 24
0.0
 34
0.0
 15
0.0
 25
0.0
 35
0.0
146
0.0
 13
0.0
 23
0.0
 33
0.0
 16
1.0
 26
0.0
 36
0.0
 17
0.0
 27
1.0
 37
0.0
 76
     0
330
23
  0
LAYOUT
  5
22
102
{ACAD_REACTORS
330
1A
102
}
330
1A
100
AcDbPlotSettings
  1

  2
none_device
  4
Letter_(8.50_x_11.00_Inches)
  6

 40
6.35
 41
6.35
 42
6.35000508
 43
6.35000508
 44
215.9
 45
279.4
 46
0.0
 47
0.0
 48
0.0
 49
0.0
140
0.0
141
0.0
142
1.0
143
1.0
 70
  1712
 72
     1
 73
     0
 74
     0
  7

 75
     0
147
1.0
148
0.0
149
0.0
100
AcDbLayout
  1
Model
 70
     1
 71
     0
 10
0.0
 20
0.0
 11
279.4
 21
215.9
 12
0.0
 22
0.0
 32
0.0
 14
0.0
 24
0.0
 34
0.0
 15
279.4
 25
215.9
 35
0.0
146
0.0
 13
0.0
 23
0.0
 33
0.0
 16
1.0
 26
0.0
 36
0.0
 17
0.0
 27
1.0
 37
0.0
 76
     0
330
1F
331
29
  0
MLINESTYLE
  5
18
102
{ACAD_REACTORS
330
17
102
}
330
17
100
AcDbMlineStyle
  2
Standard
 70
     0
  3

 62
   256
 51
90.0
 52
90.0
 71
     2
 49
0.5
 62
   256
  6
BYLAYER
 49
-0.5
 62
   256
  6
BYLAYER
  0
ACDBPLACEHOLDER
  5
F
102
{ACAD_REACTORS
330
E
102
}
330
E
  0
SCALE
  5
48
102
{ACAD_REACTORS
330
47
102
}
330
47
100
AcDbScale
 70
     0
300
1:1
140
1.0
141
1.0
290
     1
  0
SCALE
  5
49
102
{ACAD_REACTORS
330
47
102
}
330
47
100
AcDbScale
 70
     0
300
1:2
140
1.0
141
2.0
290
     0
  0
SCALE
  5
4A
102
{ACAD_REACTORS
330
47
102
}
330
47
100
AcDbScale
 70
     0
300
1:4
140
1.0
141
4.0
290
     0
  0
SCALE
  5
4B
102
{ACAD_REACTORS
330
47
102
}
330
47
100
AcDbScale
 70
     0
300
1:5
140
1.0
141
5.0
290
     0
  0
SCALE
  5
4C
102
{ACAD_REACTORS
330
47
102
}
330
47
100
AcDbScale
 70
     0
300
1:8
140
1.0
141
8.0
290
     0
  0
SCALE
  5
4D
102
{ACAD_REACTORS
330
47
102
}
330
47
100
AcDbScale
 70
     0
300
1:10
140
1.0
141
10.0
290
     0
  0
SCALE
  5
4E
102
{ACAD_REACTORS
330
47
102
}
330
47
100
AcDbScale
 70
     0
300
1:16
140
1.0
141
16.0
290
     0
  0
SCALE
  5
4F
102
{ACAD_REACTORS
330
47
102
}
330
47
100
AcDbScale
 70
     0
300
1:20
140
1.0
141
20.0
290
     0
  0
SCALE
  5
50
102
{ACAD_REACTORS
330
47
102
}
330
47
100
AcDbScale
 70
     0
300
1:30
140
1.0
141
30.0
290
     0
  0
SCALE
  5
51
102
{ACAD_REACTORS
330
47
102
}
330
47
100
AcDbScale
 70
     0
300
1:40
140
1.0
141
40.0
290
     0
  0
SCALE
  5
52
102
{ACAD_REACTORS
330
47
102
}
330
47
100
AcDbScale
 70
     0
300
1:50
140
1.0
141
50.0
290
     0
  0
SCALE
  5
53
102
{ACAD_REACTORS
330
47
102
}
330
47
100
AcDbScale
 70
     0
300
1:100
140
1.0
141
100.0
290
     0
  0
SCALE
  5
54
102
{ACAD_REACTORS
330
47
102
}
330
47
100
AcDbScale
 70
     0
300
2:1
140
2.0
141
1.0
290
     0
  0
SCALE
  5
55
102
{ACAD_REACTORS
330
47
102
}
330
47
100
AcDbScale
 70
     0
300
4:1
140
4.0
141
1.0
290
     0
  0
SCALE
  5
56
102
{ACAD_REACTORS
330
47
102
}
330
47
100
AcDbScale
 70
     0
300
8:1
140
8.0
141
1.0
290
     0
  0
SCALE
  5
57
102
{ACAD_REACTORS
330
47
102
}
330
47
100
AcDbScale
 70
     0
300
10:1
140
10.0
141
1.0
290
     0
  0
SCALE
  5
58
102
{ACAD_REACTORS
330
47
102
}
330
47
100
AcDbScale
 70
     0
300
100:1
140
100.0
141
1.0
290
     0
  0
SCALE
  5
59
102
{ACAD_REACTORS
330
47
102
}
330
47
100
AcDbScale
 70
     0
300
1/128" = 1'-0"
140
0.0078125
141
12.0
290
     0
  0
SCALE
  5
5A
102
{ACAD_REACTORS
330
47
102
}
330
47
100
AcDbScale
 70
     0
300
1/64" = 1'-0"
140
0.015625
141
12.0
290
     0
  0
SCALE
  5
5B
102
{ACAD_REACTORS
330
47
102
}
330
47
100
AcDbScale
 70
     0
300
1/32" = 1'-0"
140
0.03125
141
12.0
290
     0
  0
SCALE
  5
5C
102
{ACAD_REACTORS
330
47
102
}
330
47
100
AcDbScale
 70
     0
300
1/16" = 1'-0"
140
0.0625
141
12.0
290
     0
  0
SCALE
  5
5D
102
{ACAD_REACTORS
330
47
102
}
330
47
100
AcDbScale
 70
     0
300
3/32" = 1'-0"
140
0.09375
141
12.0
290
     0
  0
SCALE
  5
5E
102
{ACAD_REACTORS
330
47
102
}
330
47
100
AcDbScale
 70
     0
300
1/8" = 1'-0"
140
0.125
141
12.0
290
     0
  0
SCALE
  5
5F
102
{ACAD_REACTORS
330
47
102
}
330
47
100
AcDbScale
 70
     0
300
3/16" = 1'-0"
140
0.1875
141
12.0
290
     0
  0
SCALE
  5
60
102
{ACAD_REACTORS
330
47
102
}
330
47
100
AcDbScale
 70
     0
300
1/4" = 1'-0"
140
0.25
141
12.0
290
     0
  0
SCALE
  5
61
102
{ACAD_REACTORS
330
47
102
}
330
47
100
AcDbScale
 70
     0
300
3/8" = 1'-0"
140
0.375
141
12.0
290
     0
  0
SCALE
  5
62
102
{ACAD_REACTORS
330
47
102
}
330
47
100
AcDbScale
 70
     0
300
1/2" = 1'-0"
140
0.5
141
12.0
290
     0
  0
SCALE
  5
63
102
{ACAD_REACTORS
330
47
102
}
330
47
100
AcDbScale
 70
     0
300
3/4" = 1'-0"
140
0.75
141
12.0
290
     0
  0
SCALE
  5
64
102
{ACAD_REACTORS
330
47
102
}
330
47
100
AcDbScale
 70
     0
300
1" = 1'-0"
140
1.0
141
12.0
290
     0
  0
SCALE
  5
65
102
{ACAD_REACTORS
330
47
102
}
330
47
100
AcDbScale
 70
     0
300
1-1/2" = 1'-0"
140
1.5
141
12.0
290
     0
  0
SCALE
  5
66
102
{ACAD_REACTORS
330
47
102
}
330
47
100
AcDbScale
 70
     0
300
3" = 1'-0"
140
3.0
141
12.0
290
     0
  0
SCALE
  5
67
102
{ACAD_REACTORS
330
47
102
}
330
47
100
AcDbScale
 70
     0
300
6" = 1'-0"
140
6.0
141
12.0
290
     0
  0
SCALE
  5
68
102
{ACAD_REACTORS
330
47
102
}
330
47
100
AcDbScale
 70
     0
300
1'-0" = 1'-0"
140
12.0
141
12.0
290
     0
  0
ENDSEC
  0
EOF
