  0
SECTION
  2
HEADER
  9
$ACADVER
  1
AC1014
  9
$ACADMAINTVER
 70
     9
  9
$DWGCODEPAGE
  3
ANSI_1252
  9
$INSBASE
 10
0.0
 20
0.0
 30
0.0
  9
$EXTMIN
 10
0.0
 20
0.0
 30
0.0
  9
$EXTMAX
 10
279.4
 20
215.9
 30
0.0
  9
$LIMMIN
 10
0.0
 20
0.0
  9
$LIMMAX
 10
279.4
 20
215.9
  9
$ORTHOMODE
 70
     0
  9
$REGENMODE
 70
     1
  9
$FILLMODE
 70
     1
  9
$QTEXTMODE
 70
     0
  9
$MIRRTEXT
 70
     1
  9
$DRAGMODE
 70
     2
  9
$LTSCALE
 40
1.0
  9
$OSMODE
 70
    37
  9
$ATTMODE
 70
     1
  9
$TEXTSIZE
 40
3.5
  9
$TRACEWID
 40
1.0
  9
$TEXTSTYLE
  7
STANDARD
  9
$CLAYER
  8
0
  9
$CELTYPE
  6
BYLAYER
  9
$CECOLOR
 62
   256
  9
$CELTSCALE
 40
1.0
  9
$DELOBJ
 70
     1
  9
$DISPSILH
 70
     0
  9
$DIMSCALE
 40
1.0
  9
$DIMASZ
 40
3.302
  9
$DIMEXO
 40
1.0
  9
$DIMDLI
 40
3.75
  9
$DIMRND
 40
0.0
  9
$DIMDLE
 40
0.0
  9
$DIMEXE
 40
1.0
  9
$DIMTP
 40
0.0
  9
$DIMTM
 40
0.0
  9
$DIMTXT
 40
3.5
  9
$DIMCEN
 40
2.5
  9
$DIMTSZ
 40
0.0
  9
$DIMTOL
 70
     0
  9
$DIMLIM
 70
     0
  9
$DIMTIH
 70
     1
  9
$DIMTOH
 70
     1
  9
$DIMSE1
 70
     0
  9
$DIMSE2
 70
     0
  9
$DIMTAD
 70
     1
  9
$DIMZIN
 70
     1
  9
$DIMBLK
  1

  9
$DIMASO
 70
     1
  9
$DIMSHO
 70
     1
  9
$DIMPOST
  1

  9
$DIMAPOST
  1

  9
$DIMALT
 70
     0
  9
$DIMALTD
 70
     3
  9
$DIMALTF
 40
0.0393700787
  9
$DIMLFAC
 40
1.0
  9
$DIMTOFL
 70
     1
  9
$DIMTVP
 40
0.0
  9
$DIMTIX
 70
     0
  9
$DIMSOXD
 70
     0
  9
$DIMSAH
 70
     0
  9
$DIMBLK1
  1

  9
$DIMBLK2
  1

  9
$DIMSTYLE
  2
ISO-25
  9
$DIMCLRD
 70
     0
  9
$DIMCLRE
 70
     0
  9
$DIMCLRT
 70
     0
  9
$DIMTFAC
 40
1.0
  9
$DIMGAP
 40
1.524
  9
$DIMJUST
 70
     0
  9
$DIMSD1
 70
     0
  9
$DIMSD2
 70
     0
  9
$DIMTOLJ
 70
     0
  9
$DIMTZIN
 70
     1
  9
$DIMALTZ
 70
     0
  9
$DIMALTTZ
 70
     0
  9
$DIMFIT
 70
     3
  9
$DIMUPT
 70
     0
  9
$DIMUNIT
 70
     2
  9
$DIMDEC
 70
     2
  9
$DIMTDEC
 70
     2
  9
$DIMALTU
 70
     2
  9
$DIMALTTD
 70
     3
  9
$DIMTXSTY
  7
STANDARD
  9
$DIMAUNIT
 70
     0
  9
$LUNITS
 70
     2
  9
$LUPREC
 70
     2
  9
$SKETCHINC
 40
1.0
  9
$FILLETRAD
 40
10.0
  9
$AUNITS
 70
     0
  9
$AUPREC
 70
     2
  9
$MENU
  1
.
  9
$ELEVATION
 40
0.0
  9
$PELEVATION
 40
0.0
  9
$THICKNESS
 40
0.0
  9
$LIMCHECK
 70
     0
  9
$CHAMFERA
 40
0.0
  9
$CHAMFERB
 40
0.0
  9
$CHAMFERC
 40
0.0
  9
$CHAMFERD
 40
0.0
  9
$SKPOLY
 70
     0
  9
$TDCREATE
 40
2459508.742912315
  9
$TDUPDATE
 40
2459508.742913194
  9
$TDINDWG
 40
0.0000000116
  9
$TDUSRTIMER
 40
0.0000000116
  9
$USRTIMER
 70
     1
  9
$ANGBASE
 50
0.0
  9
$ANGDIR
 70
     0
  9
$PDMODE
 70
     0
  9
$PDSIZE
 40
-1.0
  9
$PLINEWID
 40
0.0
  9
$COORDS
 70
     1
  9
$SPLFRAME
 70
     0
  9
$SPLINETYPE
 70
     6
  9
$SPLINESEGS
 70
     8
  9
$ATTDIA
 70
     0
  9
$ATTREQ
 70
     1
  9
$HANDLING
 70
     1
  9
$HANDSEED
  5
F2
  9
$SURFTAB1
 70
     6
  9
$SURFTAB2
 70
     6
  9
$SURFTYPE
 70
     6
  9
$SURFU
 70
     6
  9
$SURFV
 70
     6
  9
$UCSNAME
  2

  9
$UCSORG
 10
0.0
 20
0.0
 30
0.0
  9
$UCSXDIR
 10
1.0
 20
0.0
 30
0.0
  9
$UCSYDIR
 10
0.0
 20
1.0
 30
0.0
  9
$PUCSNAME
  2

  9
$PUCSORG
 10
0.0
 20
0.0
 30
0.0
  9
$PUCSXDIR
 10
1.0
 20
0.0
 30
0.0
  9
$PUCSYDIR
 10
0.0
 20
1.0
 30
0.0
  9
$USERI1
 70
     0
  9
$USERI2
 70
     0
  9
$USERI3
 70
     0
  9
$USERI4
 70
     0
  9
$USERI5
 70
     0
  9
$USERR1
 40
0.0
  9
$USERR2
 40
0.0
  9
$USERR3
 40
0.0
  9
$USERR4
 40
0.0
  9
$USERR5
 40
0.0
  9
$WORLDVIEW
 70
     1
  9
$SHADEDGE
 70
     3
  9
$SHADEDIF
 70
    70
  9
$TILEMODE
 70
     1
  9
$MAXACTVP
 70
    64
  9
$PINSBASE
 10
0.0
 20
0.0
 30
0.0
  9
$PLIMCHECK
 70
     0
  9
$PEXTMIN
 10
1.0000000000E+20
 20
1.0000000000E+20
 30
1.0000000000E+20
  9
$PEXTMAX
 10
-1.0000000000E+20
 20
-1.0000000000E+20
 30
-1.0000000000E+20
  9
$PLIMMIN
 10
0.0
 20
0.0
  9
$PLIMMAX
 10
420.0
 20
297.0
  9
$UNITMODE
 70
     0
  9
$VISRETAIN
 70
     1
  9
$PLINEGEN
 70
     0
  9
$PSLTSCALE
 70
     1
  9
$TREEDEPTH
 70
  3020
  9
$PICKSTYLE
 70
     1
  9
$CMLSTYLE
  2
STANDARD
  9
$CMLJUST
 70
     0
  9
$CMLSCALE
 40
20.0
  9
$PROXYGRAPHICS
 70
     1
  9
$MEASUREMENT
 70
     1
  0
ENDSEC
  0
SECTION
  2
CLASSES
  0
CLASS
  1
ACDBDICTIONARYWDFLT
  2
AcDbDictionaryWithDefault
  3
ObjectDBX Classes
 90
        0
280
     0
281
     0
  0
CLASS
  1
VISUALSTYLE
  2
AcDbVisualStyle
  3
ObjectDBX Classes
 90
     4095
280
     0
281
     0
  0
CLASS
  1
MATERIAL
  2
AcDbMaterial
  3
ObjectDBX Classes
 90
     1153
280
     0
281
     0
  0
CLASS
  1
SCALE
  2
AcDbScale
  3
ObjectDBX Classes
 90
     1153
280
     0
281
     0
  0
CLASS
  1
TABLESTYLE
  2
AcDbTableStyle
  3
ObjectDBX Classes
 90
     4095
280
     0
281
     0
  0
CLASS
  1
MLEADERSTYLE
  2
AcDbMLeaderStyle
  3
ACDB_MLEADERSTYLE_CLASS
 90
     4095
280
     0
281
     0
  0
CLASS
  1
SUN
  2
AcDbSun
  3
SCENEOE
 90
     1153
280
     0
281
     0
  0
CLASS
  1
XRECORD
  2
AcDbXrecord
  3
ObjectDBX Classes
 90
        0
280
     0
281
     0
  0
CLASS
  1
LWPOLYLINE
  2
AcDbPolyline
  3
ObjectDBX Classes
 90
        0
280
     0
281
     1
  0
CLASS
  1
HATCH
  2
AcDbHatch
  3
ObjectDBX Classes
 90
        0
280
     0
281
     1
  0
ENDSEC
  0
SECTION
  2
TABLES
  0
TABLE
  2
VPORT
  5
8
330
0
100
AcDbSymbolTable
 70
     1
  0
VPORT
  5
29
330
8
100
AcDbSymbolTableRecord
100
AcDbViewportTableRecord
  2
*ACTIVE
 70
     0
 10
0.0
 20
0.0
 11
1.0
 21
1.0
 12
139.7
 22
107.95
 13
0.0
 23
0.0
 14
10.0
 24
10.0
 15
10.0
 25
10.0
 16
0.0
 26
0.0
 36
1.0
 17
0.0
 27
0.0
 37
0.0
 40
215.9
 41
1.2941176471
 42
50.0
 43
0.0
 44
0.0
 50
0.0
 51
0.0
 71
     0
 72
  2000
 73
     1
 74
     3
 75
     0
 76
     0
 77
     0
 78
     0
  0
ENDTAB
  0
TABLE
  2
LTYPE
  5
5
330
0
100
AcDbSymbolTable
 70
     6
  0
LTYPE
  5
14
330
5
100
AcDbSymbolTableRecord
100
AcDbLinetypeTableRecord
  2
BYBLOCK
 70
     0
  3

 72
    65
 73
     0
 40
0.0
  0
LTYPE
  5
15
330
5
100
AcDbSymbolTableRecord
100
AcDbLinetypeTableRecord
  2
BYLAYER
 70
     0
  3

 72
    65
 73
     0
 40
0.0
  0
LTYPE
  5
16
330
5
100
AcDbSymbolTableRecord
100
AcDbLinetypeTableRecord
  2
CONTINUOUS
 70
     0
  3
Solid line
 72
    65
 73
     0
 40
0.0
  0
LTYPE
  5
6E
330
5
100
AcDbSymbolTableRecord
100
AcDbLinetypeTableRecord
  2
HIDDEN
 70
     0
  3
Hidden __ __ __ __ __ __ __ __ __ __ __ __ __ __
 72
    65
 73
     2
 40
1.905
 49
1.27
 74
     0
 49
-0.635
 74
     0
  0
LTYPE
  5
6F
330
5
100
AcDbSymbolTableRecord
100
AcDbLinetypeTableRecord
  2
PHANTOM
 70
     0
  3
Phantom ______  __  __  ______  __  __  ______
 72
    65
 73
     6
 40
12.7
 49
6.35
 74
     0
 49
-1.27
 74
     0
 49
1.27
 74
     0
 49
-1.27
 74
     0
 49
1.27
 74
     0
 49
-1.27
 74
     0
  0
LTYPE
  5
70
330
5
100
AcDbSymbolTableRecord
100
AcDbLinetypeTableRecord
  2
CENTER
 70
     0
  3
Center ____ _ ____ _ ____ _ ____ _ ____ _ ____
 72
    65
 73
     4
 40
10.16
 49
6.35
 74
     0
 49
-1.27
 74
     0
 49
1.27
 74
     0
 49
-1.27
 74
     0
  0
LTYPE
  5
71
330
5
100
AcDbSymbolTableRecord
100
AcDbLinetypeTableRecord
  2
CENTERX2
 70
     0
  3
Center (2x) ________  __  ________  __  _____
 72
    65
 73
     4
 40
20.32
 49
12.7
 74
     0
 49
-2.54
 74
     0
 49
2.54
 74
     0
 49
-2.54
 74
     0
  0
LTYPE
  5
72
330
5
100
AcDbSymbolTableRecord
100
AcDbLinetypeTableRecord
  2
DOT2
 70
     0
  3
Dot (.5x) ........................................
 72
    65
 73
     2
 40
0.635
 49
0.0
 74
     0
 49
-0.635
 74
     0
  0
ENDTAB
  0
TABLE
  2
LAYER
  5
2
330
0
100
AcDbSymbolTable
 70
     1
  0
LAYER
  5
10
330
2
100
AcDbSymbolTableRecord
100
AcDbLayerTableRecord
  2
0
 70
     0
 62
     7
  6
CONTINUOUS
  0
ENDTAB
  0
TABLE
  2
STYLE
  5
3
330
0
100
AcDbSymbolTable
 70
     1
  0
STYLE
  5
11
330
3
100
AcDbSymbolTableRecord
100
AcDbTextStyleTableRecord
  2
STANDARD
 70
     0
 40
0.0
 41
1.0
 50
0.0
 71
     0
 42
3.5
  3
txt
  4

  0
ENDTAB
  0
TABLE
  2
VIEW
  5
6
330
0
100
AcDbSymbolTable
 70
     0
  0
ENDTAB
  0
TABLE
  2
UCS
  5
7
330
0
100
AcDbSymbolTable
 70
     0
  0
ENDTAB
  0
TABLE
  2
APPID
  5
9
330
0
100
AcDbSymbolTable
 70
     1
  0
APPID
  5
12
330
9
100
AcDbSymbolTableRecord
100
AcDbRegAppTableRecord
  2
ACAD
 70
     0
  0
ENDTAB
  0
TABLE
  2
DIMSTYLE
  5
A
330
0
100
AcDbSymbolTable
 70
     1
  0
DIMSTYLE
105
27
330
A
100
AcDbSymbolTableRecord
100
AcDbDimStyleTableRecord
  2
ISO-25
 70
     0
  3

  4

  5

  6

  7

 40
1.0
 41
2.5
 42
0.625
 43
3.75
 44
1.25
 45
0.0
 46
0.0
 47
0.0
 48
0.0
140
2.5
141
2.5
142
0.0
143
0.0393700787
144
1.0
145
0.0
146
1.0
147
0.625
 71
     0
 72
     0
 73
     0
 74
     0
 75
     0
 76
     0
 77
     1
 78
     8
170
     0
171
     3
172
     1
173
     0
174
     0
175
     0
176
     0
177
     0
178
     0
270
     2
271
     2
272
     2
273
     2
274
     3
340
11
275
     0
280
     0
281
     0
282
     0
283
     0
284
     8
285
     0
286
     0
287
     3
288
     0
  0
ENDTAB
  0
TABLE
  2
BLOCK_RECORD
  5
1
330
0
100
AcDbSymbolTable
 70
     1
  0
BLOCK_RECORD
  5
1F
330
1
100
AcDbSymbolTableRecord
100
AcDbBlockTableRecord
  2
*MODEL_SPACE
  0
BLOCK_RECORD
  5
1B
330
1
100
AcDbSymbolTableRecord
100
AcDbBlockTableRecord
  2
*PAPER_SPACE
  0
BLOCK_RECORD
  5
23
330
1
100
AcDbSymbolTableRecord
100
AcDbBlockTableRecord
  2
*PAPER_SPACE0
  0
ENDTAB
  0
ENDSEC
  0
SECTION
  2
BLOCKS
  0
BLOCK
  5
20
330
1F
100
AcDbEntity
  8
0
100
AcDbBlockBegin
  2
*MODEL_SPACE
 70
     0
 10
0.0
 20
0.0
 30
0.0
  3
*MODEL_SPACE
  1

  0
ENDBLK
  5
21
330
1F
100
AcDbEntity
  8
0
100
AcDbBlockEnd
  0
BLOCK
  5
1C
330
1B
100
AcDbEntity
 67
     1
  8
0
100
AcDbBlockBegin
  2
*PAPER_SPACE
 70
     0
 10
0.0
 20
0.0
 30
0.0
  3
*PAPER_SPACE
  1

  0
ENDBLK
  5
1D
330
1B
100
AcDbEntity
 67
     1
  8
0
100
AcDbBlockEnd
  0
BLOCK
  5
24
330
23
100
AcDbEntity
  8
0
100
AcDbBlockBegin
  2
*PAPER_SPACE0
 70
     0
 10
0.0
 20
0.0
 30
0.0
  3
*PAPER_SPACE0
  1

  0
ENDBLK
  5
25
330
23
100
AcDbEntity
  8
0
100
AcDbBlockEnd
  0
ENDSEC
  0
SECTION
  2
ENTITIES
  0
LINE
  5
73
330
1F
100
AcDbEntity
  8
0
  6
CONTINUOUS
 62
     7
100
AcDbLine
 10
131.1615647066
 20
116.0264625863
 30
0.0
 11
131.1054921049
 21
116.0657250448
 31
0.0
  0
LINE
  5
74
330
1F
100
AcDbEntity
  8
0
  6
CONTINUOUS
 62
     7
100
AcDbLine
 10
125.6572296413
 20
116.0537280078
 30
0.0
 11
125.618290584
 21
116.0264625863
 31
0.0
  0
LINE
  5
75
330
1F
100
AcDbEntity
  8
0
  6
CONTINUOUS
 62
     7
100
AcDbLine
 10
125.618290584
 20
116.0264625863
 30
0.0
 11
127.9399276453
 21
113.704825525
 31
0.0
  0
LINE
  5
76
330
1F
100
AcDbEntity
  8
0
  6
CONTINUOUS
 62
     7
100
AcDbLine
 10
128.8399276453
 20
113.704825525
 30
0.0
 11
131.1615647066
 21
116.0264625863
 31
0.0
  0
ARC
  5
77
330
1F
100
AcDbEntity
  8
0
  6
CONTINUOUS
 62
     7
100
AcDbCircle
 10
147.8899276453
 20
92.204825525
 30
0.0
 40
0.5
100
AcDbArc
 50
270.0
 51
0.0
  0
ARC
  5
78
330
1F
100
AcDbEntity
  8
0
  6
CONTINUOUS
 62
     7
100
AcDbCircle
 10
108.8899276453
 20
92.204825525
 30
0.0
 40
0.5
100
AcDbArc
 50
180.0
 51
270.0
  0
LINE
  5
79
330
1F
100
AcDbEntity
  8
0
  6
CONTINUOUS
 62
     7
100
AcDbLine
 10
108.3899276453
 20
121.204825525
 30
0.0
 11
108.3899276453
 21
92.204825525
 31
0.0
  0
LINE
  5
7A
330
1F
100
AcDbEntity
  8
0
  6
CONTINUOUS
 62
     7
100
AcDbLine
 10
148.3899276453
 20
116.5547536958
 30
0.0
 11
148.3899276453
 21
121.204825525
 31
0.0
  0
LINE
  5
7B
330
1F
100
AcDbEntity
  8
0
  6
CONTINUOUS
 62
     7
100
AcDbLine
 10
148.3899276453
 20
92.204825525
 30
0.0
 11
148.3899276453
 21
96.859635756
 31
0.0
  0
ARC
  5
7C
330
1F
100
AcDbEntity
  8
0
  6
CONTINUOUS
 62
     7
100
AcDbCircle
 10
147.8899276453
 20
121.204825525
 30
0.0
 40
0.5
100
AcDbArc
 50
0.0
 51
90.0
  0
ARC
  5
7D
330
1F
100
AcDbEntity
  8
0
  6
CONTINUOUS
 62
     7
100
AcDbCircle
 10
108.8899276453
 20
121.204825525
 30
0.0
 40
0.5
100
AcDbArc
 50
90.0
 51
180.0
  0
LINE
  5
7E
330
1F
100
AcDbEntity
  8
0
  6
CONTINUOUS
 62
     7
100
AcDbLine
 10
148.3767465388
 20
116.505131263
 30
0.0
 11
148.3770184699
 21
116.5056732055
 31
0.0
  0
SPLINE
  5
7F
330
1F
100
AcDbEntity
  8
0
  6
CONTINUOUS
 62
     7
100
AcDbSpline
210
0.0
220
0.0
230
1.0
 70
     8
 71
     3
 72
    10
 73
     6
 74
     0
 42
0.00000001
 43
0.00000001
 40
0.0
 40
0.0
 40
0.0
 40
0.0
 40
0.0007297133706792
 40
0.5535985374243926
 40
1.0
 40
1.0
 40
1.0
 40
1.0
 10
145.9710851660965
 20
109.2626848942125
 30
0.0
 10
145.9711182708994
 20
109.2629386760021
 30
0.0
 10
145.9962332971817
 20
109.4554707484052
 30
0.0
 10
146.0548413559378
 20
109.7946503156991
 30
0.0
 10
146.119195189048
 20
110.126678977274
 30
0.0
 10
146.1479438125257
 20
110.275005293114
 30
0.0
  0
SPLINE
  5
80
330
1F
100
AcDbEntity
  8
0
  6
CONTINUOUS
 62
     7
100
AcDbSpline
210
0.0
220
0.0
230
1.0
 70
     8
 71
     3
 72
    19
 73
    15
 74
     0
 42
0.00000001
 43
0.00000001
 40
0.0
 40
0.0
 40
0.0
 40
0.0
 40
0.0870589342605783
 40
0.173469886488557
 40
0.2588826832455337
 40
0.3437186014526893
 40
0.4277458627969867
 40
0.5107951797247994
 40
0.5927692102457011
 40
0.6734453422994898
 40
0.754078517628365
 40
0.8353899600974775
 40
0.9173439359910598
 40
1.0
 40
1.0
 40
1.0
 40
1.0
 10
146.3220320258372
 20
102.3582653550135
 30
0.0
 10
146.2786667382398
 20
102.5413322082915
 30
0.0
 10
146.1922589320686
 20
102.9061033432436
 30
0.0
 10
146.0801130411282
 20
103.473043533805
 30
0.0
 10
145.9833789650287
 20
104.0485482619961
 30
0.0
 10
145.9041702745292
 20
104.6313398778203
 30
0.0
 10
145.8432900204283
 20
105.2183508510847
 30
0.0
 10
145.8018558301796
 20
105.8058039823189
 30
0.0
 10
145.7806442503699
 20
106.3897088032056
 30
0.0
 10
145.7801884544395
 20
106.9693580679876
 30
0.0
 10
145.7992178404696
 20
107.5462331594608
 30
0.0
 10
145.8375996111517
 20
108.1220298482469
 30
0.0
 10
145.8933825701873
 20
108.6968635950341
 30
0.0
 10
145.945110757799
 20
109.073542262923
 30
0.0
 10
145.9710851660965
 20
109.2626848942125
 30
0.0
  0
LINE
  5
81
330
1F
100
AcDbEntity
  8
0
  6
CONTINUOUS
 62
     7
100
AcDbLine
 10
146.1479438125
 20
110.2750052931
 30
0.0
 11
146.1927260079
 21
110.4872766594
 31
0.0
  0
LINE
  5
82
330
1F
100
AcDbEntity
  8
0
  6
CONTINUOUS
 62
     7
100
AcDbLine
 10
128.3899276453
 20
116.2548262152
 30
0.0
 11
130.3199694869
 21
116.2548262152
 31
0.0
  0
LINE
  5
83
330
1F
100
AcDbEntity
  8
0
  6
CONTINUOUS
 62
     7
100
AcDbLine
 10
126.5034311814
 20
116.2548262152
 30
0.0
 11
128.3899276453
 21
116.2548262152
 31
0.0
  0
LINE
  5
84
330
1F
100
AcDbEntity
  8
0
  6
CONTINUOUS
 62
     7
100
AcDbLine
 10
125.618290584
 20
116.0264625863
 30
0.0
 11
131.1615647066
 21
116.0264625863
 31
0.0
  0
LINE
  5
85
330
1F
100
AcDbEntity
  8
0
  6
CONTINUOUS
 62
     7
100
AcDbLine
 10
127.9399276453
 20
113.704825525
 30
0.0
 11
128.8399276453
 21
113.704825525
 31
0.0
  0
SPLINE
  5
86
330
1F
100
AcDbEntity
  8
0
  6
CONTINUOUS
 62
     7
100
AcDbSpline
210
0.0
220
0.0
230
1.0
 70
    11
 71
     3
 72
    83
 73
    79
 74
     0
 42
0.00000001
 43
0.00000001
 40
0.0
 40
0.0
 40
0.0
 40
0.0
 40
0.0182850168510235
 40
0.0369083518274724
 40
0.0483325411589971
 40
0.0597574618428063
 40
0.0714585299455832
 40
0.0831602650532921
 40
0.0957668033578403
 40
0.1083738111476978
 40
0.1212846766580125
 40
0.1341955300974743
 40
0.1480139996310944
 40
0.161831849916147
 40
0.1760789558715233
 40
0.1903249319553974
 40
0.2036259924643137
 40
0.2169262082759452
 40
0.230697971977167
 40
0.244469225186991
 40
0.2564999310848994
 40
0.2685307421703355
 40
0.2809232239075884
 40
0.2933162037464364
 40
0.305133639024027
 40
0.3169516318641675
 40
0.3290635982235581
 40
0.3411761304881493
 40
0.3539114150378768
 40
0.366647120144038
 40
0.3796961126633083
 40
0.3927450974557097
 40
0.4065096685898237
 40
0.4202735107371438
 40
0.4344675958804885
 40
0.4486601170467827
 40
0.461864971152512
 40
0.4750685900471548
 40
0.4887760949653976
 40
0.5024830383394583
 40
0.517699420945118
 40
0.5302300130415926
 40
0.5427614984919716
 40
0.555697495314694
 40
0.5686346696288145
 40
0.581168139595064
 40
0.5937023336397432
 40
0.6065474313185845
 40
0.6193928113954358
 40
0.6329848945923268
 40
0.6465766956072645
 40
0.660557922607733
 40
0.6745382804066483
 40
0.6881581898143398
 40
0.7017771090648385
 40
0.7158774543838117
 40
0.7299769069256139
 40
0.7423017517285802
 40
0.7546264599945318
 40
0.767345528669178
 40
0.7800649353073651
 40
0.7918045699178291
 40
0.8035446933995347
 40
0.8155887374487027
 40
0.8276333849915631
 40
0.8400420566186995
 40
0.852451263109
 40
0.8651594079937619
 40
0.8778677993106008
 40
0.8914318215771764
 40
0.9049955442338995
 40
0.9189477401657079
 40
0.932898823062439
 40
0.9464741814477895
 40
0.9600481004377505
 40
0.9741331480841902
 40
0.9882169155833942
 40
1.0
 40
1.0
 40
1.0
 40
1.0
 10
118.4904301578997
 20
106.7048255250405
 30
0.0
 10
118.503540267915
 20
107.0897159390174
 30
0.0
 10
118.5300030574701
 20
107.8666181934601
 30
0.0
 10
118.7167926692775
 20
108.8655473601521
 30
0.0
 10
118.9491495072521
 20
109.6972377100016
 30
0.0
 10
119.1922702203958
 20
110.3709126776158
 30
0.0
 10
119.484502031732
 20
111.0267860660385
 30
0.0
 10
119.83378614763
 20
111.6778577952939
 30
0.0
 10
120.2399001616099
 20
112.313624710654
 30
0.0
 10
120.7078370840736
 20
112.9336892792428
 30
0.0
 10
121.2267849813433
 20
113.5186626072176
 30
0.0
 10
121.8084713590425
 20
114.077805685384
 30
0.0
 10
122.4501503705531
 20
114.5996971467939
 30
0.0
 10
123.1589635324229
 20
115.0822021294579
 30
0.0
 10
123.9187120488738
 20
115.5073418235571
 30
0.0
 10
124.7077891353911
 20
115.8614650994727
 30
0.0
 10
125.5104839222694
 20
116.1409142452516
 30
0.0
 10
126.3280708292811
 20
116.3512935421343
 30
0.0
 10
127.173935337986
 20
116.4927632988265
 30
0.0
 10
128.0044446297581
 20
116.5585783168614
 30
0.0
 10
128.8011807126976
 20
116.5558701128378
 30
0.0
 10
129.5659008698377
 20
116.4951458530141
 30
0.0
 10
130.3294582104986
 20
116.3741723092148
 30
0.0
 10
131.0743491028885
 20
116.1958273504
 30
0.0
 10
131.7887493732903
 20
115.9656761657289
 30
0.0
 10
132.4755890559095
 20
115.6869929607415
 30
0.0
 10
133.1418042406253
 20
115.3564685540189
 30
0.0
 10
133.7945617368852
 20
114.9690597894001
 30
0.0
 10
134.4233535634157
 20
114.526814236124
 30
0.0
 10
135.0283630116568
 20
114.0259941849522
 30
0.0
 10
135.5950647936453
 20
113.4750099691162
 30
0.0
 10
136.1294161258212
 20
112.8646687579162
 30
0.0
 10
136.6206652731445
 20
112.1991348460894
 30
0.0
 10
137.067279270047
 20
111.4718006176018
 30
0.0
 10
137.4543861828641
 20
110.6962380183285
 30
0.0
 10
137.7689452803433
 20
109.8951040954664
 30
0.0
 10
138.0080405478621
 20
109.084269356172
 30
0.0
 10
138.1774161731147
 20
108.2617383340887
 30
0.0
 10
138.2763193160836
 20
107.4134703801556
 30
0.0
 10
138.3018721175954
 20
106.5157473056522
 30
0.0
 10
138.2450292812801
 20
105.6442787029384
 30
0.0
 10
138.1149601845511
 20
104.8091720376995
 30
0.0
 10
137.9306495694319
 20
104.037000157464
 30
0.0
 10
137.6827940990891
 20
103.2785533578712
 30
0.0
 10
137.3759032052704
 20
102.547063025928
 30
0.0
 10
137.0171184169804
 20
101.8538088520295
 30
0.0
 10
136.6082498192815
 20
101.1951416444772
 30
0.0
 10
136.1462908020809
 20
100.5676830990848
 30
0.0
 10
135.6228527269015
 20
99.96347778819037
 30
0.0
 10
135.0407471661795
 20
99.39337898918397
 30
0.0
 10
134.3940593181498
 20
98.8581932286809
 30
0.0
 10
133.6949483065885
 20
98.37400877146226
 30
0.0
 10
132.9526468020372
 20
97.94960529640996
 30
0.0
 10
132.1790072082302
 20
97.59204114831942
 30
0.0
 10
131.371075953675
 20
97.2987818586289
 30
0.0
 10
130.5263563889957
 20
97.07368038532447
 30
0.0
 10
129.6881160044884
 20
96.9280622793841
 30
0.0
 10
128.8759386033939
 20
96.85668634890388
 30
0.0
 10
128.0889520027644
 20
96.84882711415521
 30
0.0
 10
127.2959776109523
 20
96.90445380023607
 30
0.0
 10
126.5238183833334
 20
97.0212597565369
 30
0.0
 10
125.7857597391637
 20
97.19245215800457
 30
0.0
 10
125.0786599167855
 20
97.4123508409888
 30
0.0
 10
124.387364521837
 20
97.68568281309192
 30
0.0
 10
123.7093466524654
 20
98.01444910964695
 30
0.0
 10
123.055022425893
 20
98.39600579106458
 30
0.0
 10
122.4233082529258
 20
98.83248359478168
 30
0.0
 10
121.8246849354774
 20
99.31912188028532
 30
0.0
 10
121.2499997239871
 20
99.86623177678962
 30
0.0
 10
120.7102440965983
 20
100.4710904034133
 30
0.0
 10
120.2069616397906
 20
101.140112677387
 30
0.0
 10
119.7571233265191
 20
101.8589109157628
 30
0.0
 10
119.3691718143845
 20
102.6179439582077
 30
0.0
 10
119.0497403902079
 20
103.4052896387959
 30
0.0
 10
118.7958947004696
 20
104.2247384546921
 30
0.0
 10
118.6138019556052
 20
105.0789323200711
 30
0.0
 10
118.5079795667407
 20
105.9126391456852
 30
0.0
 10
118.4959224956293
 20
106.4568995020264
 30
0.0
 10
118.4904301578997
 20
106.7048255250405
 30
0.0
  0
SPLINE
  5
87
330
1F
100
AcDbEntity
  8
0
  6
CONTINUOUS
 62
     7
100
AcDbSpline
210
0.0
220
0.0
230
1.0
 70
    11
 71
     3
 72
    66
 73
    62
 74
     0
 42
0.00000001
 43
0.00000001
 40
0.0
 40
0.0
 40
0.0
 40
0.0
 40
0.0118127841766287
 40
0.0295526267651501
 40
0.0473679125793183
 40
0.065120997940227
 40
0.0672397131474184
 40
0.0855794724216753
 40
0.1039815159738043
 40
0.1223285666843778
 40
0.1390542988005308
 40
0.1558219366769279
 40
0.172542880691107
 40
0.1883569477760634
 40
0.2042127306117467
 40
0.2200203706943375
 40
0.2366512901712446
 40
0.253340491247544
 40
0.2699703451114037
 40
0.2883797729362022
 40
0.3068676574751506
 40
0.3252883178054438
 40
0.3436389857340105
 40
0.3620518300582704
 40
0.3804093419878637
 40
0.3973349400245304
 40
0.4143037599661832
 40
0.4312239341834394
 40
0.4482211409370915
 40
0.465271547492797
 40
0.4822571369484775
 40
0.4975117328240488
 40
0.5154580940839419
 40
0.533484993413543
 40
0.5514419064173428
 40
0.570077655779637
 40
0.5887847834376219
 40
0.6074328245883049
 40
0.6246089993707378
 40
0.6418303858264047
 40
0.6590037838917319
 40
0.674921613659395
 40
0.6908795547549357
 40
0.7067907527571724
 40
0.7230139715478668
 40
0.7392892083551194
 40
0.7555089460385735
 40
0.7734841378715257
 40
0.7915345077188252
 40
0.8095178815451552
 40
0.8281829059650067
 40
0.8469180864480043
 40
0.8655934064365511
 40
0.8826039733442484
 40
0.8996585335361454
 40
0.9166667820234788
 40
0.9321021623440742
 40
0.9475740544970094
 40
0.9630016691119268
 40
0.9815022482600263
 40
1.0
 40
1.0
 40
1.0
 40
1.0
 10
118.6399276453369
 20
106.7048255250405
 30
0.0
 10
118.6453777590365
 20
106.4594237086233
 30
0.0
 10
118.6590125781939
 20
105.8454898400595
 30
0.0
 10
118.7953913834195
 20
104.870465104088
 30
0.0
 10
119.0611186070658
 20
103.803752953934
 30
0.0
 10
119.3304780782995
 20
103.0803481006427
 30
0.0
 10
119.6470988405331
 20
102.3709723680378
 30
0.0
 10
120.0146046710765
 20
101.6733230757194
 30
0.0
 10
120.6397955402426
 20
100.7556260807471
 30
0.0
 10
121.3408963706412
 20
99.94078466157764
 30
0.0
 10
122.103318115935
 20
99.23013689247036
 30
0.0
 10
122.9110484148705
 20
98.61922235411488
 30
0.0
 10
123.7662181222018
 20
98.10142529389385
 30
0.0
 10
124.6594820068848
 20
97.68001039325009
 30
0.0
 10
125.578251887153
 20
97.3527728744699
 30
0.0
 10
126.5469582858651
 20
97.1124234394686
 30
0.0
 10
127.5578342189582
 20
96.97308880514265
 30
0.0
 10
128.5968661175685
 20
96.9397761527008
 30
0.0
 10
129.6702237828265
 20
97.01802212721388
 30
0.0
 10
130.7607012214926
 20
97.22593385674449
 30
0.0
 10
131.8483628261982
 20
97.56675836955719
 30
0.0
 10
132.8812141949373
 20
98.02599125571128
 30
0.0
 10
133.8438069330993
 20
98.5983065683417
 30
0.0
 10
134.7294913221177
 20
99.27058306889434
 30
0.0
 10
135.5106679539925
 20
100.0159863247328
 30
0.0
 10
136.1857301569721
 20
100.8204424150073
 30
0.0
 10
136.7592017664375
 20
101.6691459739316
 30
0.0
 10
137.2446770697134
 20
102.5792187596237
 30
0.0
 10
137.6324971785168
 20
103.5454335110984
 30
0.0
 10
137.9186838155756
 20
104.5561984805308
 30
0.0
 10
138.0903738866841
 20
105.5632973105949
 30
0.0
 10
138.1580757882934
 20
106.6048600529006
 30
0.0
 10
138.1120187893066
 20
107.6706841164043
 30
0.0
 10
137.9375743740695
 20
108.7756025762919
 30
0.0
 10
137.6386370843448
 20
109.8606415120489
 30
0.0
 10
137.2116555096412
 20
110.906287620316
 30
0.0
 10
136.6651003748093
 20
111.9002707423342
 30
0.0
 10
136.0289912155628
 20
112.7960623079235
 30
0.0
 10
135.3181240447423
 20
113.5902993743435
 30
0.0
 10
134.5490427896188
 20
114.2861663648583
 30
0.0
 10
133.7283256689694
 20
114.8844468322908
 30
0.0
 10
132.8668766717426
 20
115.3836789847203
 30
0.0
 10
131.9780972862639
 20
115.7874350711366
 30
0.0
 10
131.0415940507591
 20
116.1053022087733
 30
0.0
 10
130.0645994532659
 20
116.3265780002069
 30
0.0
 10
129.0598346366369
 20
116.4482818188667
 30
0.0
 10
128.0094643485075
 20
116.4675245694679
 30
0.0
 10
126.9273966529871
 20
116.3647314725418
 30
0.0
 10
125.8327714729524
 20
116.1340318804128
 30
0.0
 10
124.7639537903931
 20
115.7795375764431
 30
0.0
 10
123.7400425904619
 20
115.2986891615918
 30
0.0
 10
122.773526115464
 20
114.7003212206671
 30
0.0
 10
121.9130098837792
 20
114.0195647675241
 30
0.0
 10
121.1607104507571
 20
113.2730656981685
 30
0.0
 10
120.5111190515493
 20
112.4779742789154
 30
0.0
 10
119.9634988383854
 20
111.6430800339045
 30
0.0
 10
119.5165534105519
 20
110.7802866367671
 30
0.0
 10
119.1632080292579
 20
109.9025701408204
 30
0.0
 10
118.8784255716741
 20
108.9280209975434
 30
0.0
 10
118.68001454036
 20
107.8581684813319
 30
0.0
 10
118.6532892628971
 20
107.0892535903422
 30
0.0
 10
118.6399276453369
 20
106.7048255250405
 30
0.0
  0
LINE
  5
88
330
1F
100
AcDbEntity
  8
0
  6
CONTINUOUS
 62
     7
100
AcDbLine
 10
147.8899276453
 20
91.704825525
 30
0.0
 11
108.8899276453
 21
91.704825525
 31
0.0
  0
SPLINE
  5
89
330
1F
100
AcDbEntity
  8
0
  6
CONTINUOUS
 62
     7
100
AcDbSpline
210
0.0
220
0.0
230
1.0
 70
     8
 71
     3
 72
    47
 73
    43
 74
     0
 42
0.00000001
 43
0.00000001
 40
0.0
 40
0.0
 40
0.0
 40
0.0
 40
0.0042007565233586
 40
0.028152144074265
 40
0.0521039599102413
 40
0.0767515670401379
 40
0.1014002815409079
 40
0.1253266273552568
 40
0.1492541359076668
 40
0.1737675632264312
 40
0.1982820545417039
 40
0.2242617152697465
 40
0.2502420296435488
 40
0.2768743839923522
 40
0.3035063637974249
 40
0.3312935772218163
 40
0.359078854249093
 40
0.3877755498734133
 40
0.4164687782434924
 40
0.4416959275323964
 40
0.4671269205764365
 40
0.4906257786903747
 40
0.5141243081351614
 40
0.5383583649546698
 40
0.5625934493690214
 40
0.5860980446569579
 40
0.6096042135541283
 40
0.6337295349751277
 40
0.6578564753266609
 40
0.682765472589937
 40
0.7076755736579707
 40
0.7331729901897615
 40
0.7586706343637772
 40
0.7863013123256088
 40
0.8139310488415826
 40
0.8423892696033971
 40
0.8708454222827862
 40
0.897911436338506
 40
0.924975581152893
 40
0.9530013913340168
 40
0.9810258042187884
 40
1.0
 40
1.0
 40
1.0
 40
1.0
 10
148.38753291735
 20
96.85963575601531
 30
0.0
 10
148.3883064360243
 20
96.85808247863052
 30
0.0
 10
148.3934903139858
 20
96.84767290395496
 30
0.0
 10
148.373157236733
 20
96.88846153367695
 30
0.0
 10
148.328245907212
 20
96.97926059312374
 30
0.0
 10
148.2519557615635
 20
97.13470326058435
 30
0.0
 10
148.1505858883925
 20
97.34454378174235
 30
0.0
 10
148.0266362688765
 20
97.6060288189408
 30
0.0
 10
147.8830469108818
 20
97.91657601899051
 30
0.0
 10
147.7207040965446
 20
98.27837906002287
 30
0.0
 10
147.539329419749
 20
98.698037679123
 30
0.0
 10
147.3429340459447
 20
99.17366477235275
 30
0.0
 10
147.1338141418609
 20
99.70974236488581
 30
0.0
 10
146.920316063025
 20
100.2960426250694
 30
0.0
 10
146.7047568439459
 20
100.9399113119094
 30
0.0
 10
146.4948756191848
 20
101.6360529459173
 30
0.0
 10
146.295352428138
 20
102.3908970069609
 30
0.0
 10
146.1168432598694
 20
103.1924312935939
 30
0.0
 10
145.9729021133165
 20
104.0023942595291
 30
0.0
 10
145.8670367622572
 20
104.8040253671948
 30
0.0
 10
145.7999046542192
 20
105.5687021922178
 30
0.0
 10
145.7671299358238
 20
106.3243468388247
 30
0.0
 10
145.7664518098925
 20
107.0703954049018
 30
0.0
 10
145.7989049677118
 20
107.8213576767131
 30
0.0
 10
145.8630481161159
 20
108.5637394372705
 30
0.0
 10
145.9558599859105
 20
109.2847240736206
 30
0.0
 10
146.073849889185
 20
109.9867003380066
 30
0.0
 10
146.2156018547986
 20
110.6724147857578
 30
0.0
 10
146.3791154054012
 20
111.3451136438477
 30
0.0
 10
146.559663210546
 20
111.9946847330967
 30
0.0
 10
146.7544698344871
 20
112.6223207929171
 30
0.0
 10
146.957188928597
 20
113.2174925103239
 30
0.0
 10
147.1689023239266
 20
113.7924566344179
 30
0.0
 10
147.3829616803452
 20
114.335583596008
 30
0.0
 10
147.5955796988175
 20
114.8444390509173
 30
0.0
 10
147.7948071281119
 20
115.2987378699525
 30
0.0
 10
147.9719254691763
 20
115.6866765965575
 30
0.0
 10
148.1206470461302
 20
116.0027727429433
 30
0.0
 10
148.2407673078257
 20
116.2519899760255
 30
0.0
 10
148.3280158505084
 20
116.4301406034254
 30
0.0
 10
148.3782637543262
 20
116.5313559268894
 30
0.0
 10
148.3842056075266
 20
116.5433296345573
 30
0.0
 10
148.3866044420692
 20
116.5481636387963
 30
0.0
  0
LINE
  5
8A
330
1F
100
AcDbEntity
  8
0
  6
CONTINUOUS
 62
     7
100
AcDbLine
 10
108.8899276453
 20
121.704825525
 30
0.0
 11
147.8899276453
 21
121.704825525
 31
0.0
  0
LINE
  5
8B
330
1F
100
AcDbEntity
  8
0
  6
CONTINUOUS
 62
     8
100
AcDbLine
 10
108.3899276453
 20
92.204825525
 30
0.0
 11
148.3899276453
 21
92.204825525
 31
0.0
  0
LINE
  5
8C
330
1F
100
AcDbEntity
  8
0
  6
CONTINUOUS
 62
     8
100
AcDbLine
 10
148.3899276453
 20
121.204825525
 30
0.0
 11
108.3899276453
 21
121.204825525
 31
0.0
  0
LINE
  5
8D
330
1F
100
AcDbEntity
  8
0
  6
CONTINUOUS
 62
     8
100
AcDbLine
 10
148.3866044421
 20
116.5481636388
 30
0.0
 11
148.3898753101
 21
116.5547536958
 31
0.0
  0
LINE
  5
8E
330
1F
100
AcDbEntity
  8
0
  6
CONTINUOUS
 62
     7
100
AcDbLine
 10
118.5023684818
 20
148.5436471003
 30
0.0
 11
118.5023829638
 21
148.5436393188
 31
0.0
  0
CIRCLE
  5
8F
330
1F
100
AcDbEntity
  8
0
  6
CONTINUOUS
 62
     7
100
AcDbCircle
 10
128.3899276453
 20
150.9288604327
 30
0.0
 40
2.445499999999981
  0
CIRCLE
  5
90
330
1F
100
AcDbEntity
  8
0
  6
CONTINUOUS
 62
     7
100
AcDbCircle
 10
128.3899276453
 20
150.9288604327
 30
0.0
 40
2.696088053559265
  0
LINE
  5
91
330
1F
100
AcDbEntity
  8
0
  6
CONTINUOUS
 62
     7
100
AcDbLine
 10
127.5239022416
 20
152.4288604327
 30
0.0
 11
126.6578768378
 21
150.9288604327
 31
0.0
  0
LINE
  5
92
330
1F
100
AcDbEntity
  8
0
  6
CONTINUOUS
 62
     7
100
AcDbLine
 10
127.5239022416
 20
149.4288604327
 30
0.0
 11
126.6578768378
 21
150.9288604327
 31
0.0
  0
LINE
  5
93
330
1F
100
AcDbEntity
  8
0
  6
CONTINUOUS
 62
     7
100
AcDbLine
 10
129.2559530491
 20
149.4288604327
 30
0.0
 11
127.5239022416
 21
149.4288604327
 31
0.0
  0
LINE
  5
94
330
1F
100
AcDbEntity
  8
0
  6
CONTINUOUS
 62
     7
100
AcDbLine
 10
129.2559530491
 20
149.4288604327
 30
0.0
 11
130.1219784529
 21
150.9288604327
 31
0.0
  0
LINE
  5
95
330
1F
100
AcDbEntity
  8
0
  6
CONTINUOUS
 62
     7
100
AcDbLine
 10
129.2559530491
 20
152.4288604327
 30
0.0
 11
130.1219784529
 21
150.9288604327
 31
0.0
  0
LINE
  5
96
330
1F
100
AcDbEntity
  8
0
  6
CONTINUOUS
 62
     7
100
AcDbLine
 10
129.2559530491
 20
152.4288604327
 30
0.0
 11
127.5239022416
 21
152.4288604327
 31
0.0
  0
CIRCLE
  5
97
330
1F
100
AcDbEntity
  8
0
  6
CONTINUOUS
 62
     7
100
AcDbCircle
 10
128.3899276453
 20
150.9288604327
 30
0.0
 40
3.0
  0
CIRCLE
  5
98
330
1F
100
AcDbEntity
  8
0
  6
CONTINUOUS
 62
     7
100
AcDbCircle
 10
143.3899276453
 20
165.9288604327
 30
0.0
 40
2.445500000000038
  0
CIRCLE
  5
99
330
1F
100
AcDbEntity
  8
0
  6
CONTINUOUS
 62
     7
100
AcDbCircle
 10
143.3899276453
 20
165.9288604327
 30
0.0
 40
2.696088053559265
  0
LINE
  5
9A
330
1F
100
AcDbEntity
  8
0
  6
CONTINUOUS
 62
     7
100
AcDbLine
 10
142.5239022416
 20
167.4288604327
 30
0.0
 11
141.6578768378
 21
165.9288604327
 31
0.0
  0
LINE
  5
9B
330
1F
100
AcDbEntity
  8
0
  6
CONTINUOUS
 62
     7
100
AcDbLine
 10
142.5239022416
 20
164.4288604327
 30
0.0
 11
141.6578768378
 21
165.9288604327
 31
0.0
  0
LINE
  5
9C
330
1F
100
AcDbEntity
  8
0
  6
CONTINUOUS
 62
     7
100
AcDbLine
 10
144.2559530491
 20
164.4288604327
 30
0.0
 11
142.5239022416
 21
164.4288604327
 31
0.0
  0
LINE
  5
9D
330
1F
100
AcDbEntity
  8
0
  6
CONTINUOUS
 62
     7
100
AcDbLine
 10
144.2559530491
 20
164.4288604327
 30
0.0
 11
145.1219784529
 21
165.9288604327
 31
0.0
  0
LINE
  5
9E
330
1F
100
AcDbEntity
  8
0
  6
CONTINUOUS
 62
     7
100
AcDbLine
 10
144.2559530491
 20
167.4288604327
 30
0.0
 11
145.1219784529
 21
165.9288604327
 31
0.0
  0
LINE
  5
9F
330
1F
100
AcDbEntity
  8
0
  6
CONTINUOUS
 62
     7
100
AcDbLine
 10
144.2559530491
 20
167.4288604327
 30
0.0
 11
142.5239022416
 21
167.4288604327
 31
0.0
  0
CIRCLE
  5
A0
330
1F
100
AcDbEntity
  8
0
  6
CONTINUOUS
 62
     7
100
AcDbCircle
 10
143.3899276453
 20
165.9288604327
 30
0.0
 40
2.999999999999972
  0
CIRCLE
  5
A1
330
1F
100
AcDbEntity
  8
0
  6
CONTINUOUS
 62
     7
100
AcDbCircle
 10
128.3899276453
 20
165.9288604327
 30
0.0
 40
20.0
  0
CIRCLE
  5
A2
330
1F
100
AcDbEntity
  8
0
  6
CONTINUOUS
 62
     7
100
AcDbCircle
 10
128.3899276453
 20
165.9288604327
 30
0.0
 40
19.5
  0
CIRCLE
  5
A3
330
1F
100
AcDbEntity
  8
0
  6
CONTINUOUS
 62
     7
100
AcDbCircle
 10
128.3899276453
 20
150.9288604327
 30
0.0
 40
4.0
  0
CIRCLE
  5
A4
330
1F
100
AcDbEntity
  8
0
  6
CONTINUOUS
 62
     7
100
AcDbCircle
 10
143.3899276453
 20
165.9288604327
 30
0.0
 40
4.000000000000057
  0
LINE
  5
A5
330
1F
100
AcDbEntity
  8
0
  6
CONTINUOUS
 62
     7
100
AcDbLine
 10
207.0677104181
 20
116.0264625863
 30
0.0
 11
207.0207785448
 21
116.0593246378
 31
0.0
  0
LINE
  5
A6
330
1F
100
AcDbEntity
  8
0
  6
CONTINUOUS
 62
     7
100
AcDbLine
 10
201.5655476691
 20
116.0552490801
 30
0.0
 11
201.5244362955
 21
116.0264625863
 31
0.0
  0
LINE
  5
A7
330
1F
100
AcDbEntity
  8
0
  6
CONTINUOUS
 62
     7
100
AcDbLine
 10
201.5244362955
 20
116.0264625863
 30
0.0
 11
203.8460733568
 21
113.704825525
 31
0.0
  0
LINE
  5
A8
330
1F
100
AcDbEntity
  8
0
  6
CONTINUOUS
 62
     7
100
AcDbLine
 10
204.7460733568
 20
113.704825525
 30
0.0
 11
207.0677104181
 21
116.0264625863
 31
0.0
  0
ARC
  5
A9
330
1F
100
AcDbEntity
  8
0
  6
CONTINUOUS
 62
     7
100
AcDbCircle
 10
223.7960733568
 20
121.204825525
 30
0.0
 40
0.5
100
AcDbArc
 50
0.0
 51
90.0
  0
ARC
  5
AA
330
1F
100
AcDbEntity
  8
0
  6
CONTINUOUS
 62
     7
100
AcDbCircle
 10
184.7960733568
 20
121.204825525
 30
0.0
 40
0.5
100
AcDbArc
 50
90.0
 51
180.0
  0
LINE
  5
AB
330
1F
100
AcDbEntity
  8
0
  6
CONTINUOUS
 62
     7
100
AcDbLine
 10
184.2960733568
 20
96.8620022623
 30
0.0
 11
184.2960733568
 21
92.204825525
 31
0.0
  0
LINE
  5
AC
330
1F
100
AcDbEntity
  8
0
  6
CONTINUOUS
 62
     7
100
AcDbLine
 10
184.2960733568
 20
121.204825525
 30
0.0
 11
184.2960733568
 21
116.5476786957
 31
0.0
  0
LINE
  5
AD
330
1F
100
AcDbEntity
  8
0
  6
CONTINUOUS
 62
     7
100
AcDbLine
 10
224.2960733568
 20
92.204825525
 30
0.0
 11
224.2960733568
 21
121.204825525
 31
0.0
  0
ARC
  5
AE
330
1F
100
AcDbEntity
  8
0
  6
CONTINUOUS
 62
     7
100
AcDbCircle
 10
223.7960733568
 20
92.204825525
 30
0.0
 40
0.5
100
AcDbArc
 50
270.0
 51
0.0
  0
ARC
  5
AF
330
1F
100
AcDbEntity
  8
0
  6
CONTINUOUS
 62
     7
100
AcDbCircle
 10
184.7960733568
 20
92.204825525
 30
0.0
 40
0.5
100
AcDbArc
 50
180.0
 51
270.0
  0
SPLINE
  5
B0
330
1F
100
AcDbEntity
  8
0
  6
CONTINUOUS
 62
     7
100
AcDbSpline
210
0.0
220
0.0
230
1.0
 70
     8
 71
     3
 72
    20
 73
    16
 74
     0
 42
0.00000001
 43
0.00000001
 40
0.0
 40
0.0
 40
0.0
 40
0.0
 40
0.002261850131302
 40
0.0375228575466455
 40
0.1014012808023477
 40
0.1840336354164886
 40
0.2721908218443143
 40
0.3624069220908969
 40
0.4540129032208227
 40
0.5467251656837013
 40
0.6402895989961559
 40
0.7344268915556931
 40
0.8288301375895664
 40
0.9231047788031416
 40
1.0
 40
1.0
 40
1.0
 40
1.0
 10
184.3151801469364
 20
116.4974699125809
 30
0.0
 10
184.3151132291647
 20
116.4975714132807
 30
0.0
 10
184.3140030999037
 20
116.4992552544179
 30
0.0
 10
184.3200796310898
 20
116.489255130608
 30
0.0
 10
184.3342074496322
 20
116.4628223241066
 30
0.0
 10
184.3678003875324
 20
116.3986043567186
 30
0.0
 10
184.4198950743164
 20
116.2954446071391
 30
0.0
 10
184.4894012763265
 20
116.1541884748943
 30
0.0
 10
184.5746653318428
 20
115.9763845418592
 30
0.0
 10
184.6746880565213
 20
115.7624271071276
 30
0.0
 10
184.7882979867113
 20
115.5129173264197
 30
0.0
 10
184.9140859117605
 20
115.2291436952001
 30
0.0
 10
185.0507408234646
 20
114.9114992236653
 30
0.0
 10
185.1869103825202
 20
114.58672313432
 30
0.0
 10
185.2805136518306
 20
114.3539204288836
 30
0.0
 10
185.3225633678087
 20
114.2493376753681
 30
0.0
  0
SPLINE
  5
B1
330
1F
100
AcDbEntity
  8
0
  6
CONTINUOUS
 62
     7
100
AcDbSpline
210
0.0
220
0.0
230
1.0
 70
     8
 71
     3
 72
    10
 73
     6
 74
     0
 42
0.00000001
 43
0.00000001
 40
0.0
 40
0.0
 40
0.0
 40
0.0
 40
0.289658209354472
 40
0.8455244819258501
 40
1.0
 40
1.0
 40
1.0
 40
1.0
 10
186.8959920755127
 20
107.0017469108675
 30
0.0
 10
186.8987779593657
 20
106.9017748640518
 30
0.0
 10
186.9069100713703
 20
106.609952259475
 30
0.0
 10
186.9006014011732
 20
106.2640680787815
 30
0.0
 10
186.8910401716174
 20
106.0194589335802
 30
0.0
 10
186.8889609248259
 20
105.9662646474939
 30
0.0
  0
SPLINE
  5
B2
330
1F
100
AcDbEntity
  8
0
  6
CONTINUOUS
 62
     7
100
AcDbSpline
210
0.0
220
0.0
230
1.0
 70
     8
 71
     3
 72
    17
 73
    13
 74
     0
 42
0.00000001
 43
0.00000001
 40
0.0
 40
0.0
 40
0.0
 40
0.0
 40
0.1073263599448947
 40
0.2169134829312592
 40
0.3265667508477121
 40
0.4358576547252229
 40
0.5444667864786072
 40
0.6521118228139255
 40
0.7585491831703451
 40
0.863528959619483
 40
0.953653172558173
 40
1.0
 40
1.0
 40
1.0
 40
1.0
 10
185.1021257543604
 20
98.6213421731237
 30
0.0
 10
185.0557585036744
 20
98.51172100857589
 30
0.0
 10
184.9620473049957
 20
98.29016957780664
 30
0.0
 10
184.8330597820306
 20
97.99665212375201
 30
0.0
 10
184.7138257892195
 20
97.73202073219866
 30
0.0
 10
184.6075696312492
 20
97.50268218178695
 30
0.0
 10
184.5155552884364
 20
97.30918230050581
 30
0.0
 10
184.4391897415994
 20
97.15274189326325
 30
0.0
 10
184.3793252430069
 20
97.03344492162964
 30
0.0
 10
184.3394729740404
 20
96.95636951555379
 30
0.0
 10
184.3188222794894
 20
96.91833316473114
 30
0.0
 10
184.316076494218
 20
96.91369250433229
 30
0.0
 10
184.3151440001459
 20
96.91211649314252
 30
0.0
  0
LINE
  5
B3
330
1F
100
AcDbEntity
  8
0
  6
CONTINUOUS
 62
     7
100
AcDbLine
 10
186.8889609248
 20
105.9662646475
 30
0.0
 11
186.8780627
 21
105.7567465357
 31
0.0
  0
LINE
  5
B4
330
1F
100
AcDbEntity
  8
0
  6
CONTINUOUS
 62
     7
100
AcDbLine
 10
202.3580183375
 20
116.2548262152
 30
0.0
 11
206.238040757
 21
116.2548262152
 31
0.0
  0
LINE
  5
B5
330
1F
100
AcDbEntity
  8
0
  6
CONTINUOUS
 62
     7
100
AcDbLine
 10
201.5244362955
 20
116.0264625863
 30
0.0
 11
207.0677104181
 21
116.0264625863
 31
0.0
  0
LINE
  5
B6
330
1F
100
AcDbEntity
  8
0
  6
CONTINUOUS
 62
     7
100
AcDbLine
 10
204.2960733568
 20
113.704825525
 30
0.0
 11
204.7460733568
 21
113.704825525
 31
0.0
  0
LINE
  5
B7
330
1F
100
AcDbEntity
  8
0
  6
CONTINUOUS
 62
     7
100
AcDbLine
 10
203.8460733568
 20
113.704825525
 30
0.0
 11
204.2960733568
 21
113.704825525
 31
0.0
  0
SPLINE
  5
B8
330
1F
100
AcDbEntity
  8
0
  6
CONTINUOUS
 62
     7
100
AcDbSpline
210
0.0
220
0.0
230
1.0
 70
    11
 71
     3
 72
    84
 73
    80
 74
     0
 42
0.00000001
 43
0.00000001
 40
0.0
 40
0.0
 40
0.0
 40
0.0
 40
0.0040303101745295
 40
0.0173790542529189
 40
0.0308565938586707
 40
0.0447298576809034
 40
0.0587327827532243
 40
0.0723071957118431
 40
0.0859857830508055
 40
0.0999758733127202
 40
0.1140677470958645
 40
0.1143656312956372
 40
0.1269106265453018
 40
0.1396022608927199
 40
0.1523688704355614
 40
0.165291283872968
 40
0.1770459527017701
 40
0.1889414666776429
 40
0.2008363681115096
 40
0.2128834925853697
 40
0.2250092539768188
 40
0.237294518539861
 40
0.2495795488200962
 40
0.2621294006590942
 40
0.2754900244309678
 40
0.2889710034968015
 40
0.3028234960023373
 40
0.3167991252387029
 40
0.3304714832447793
 40
0.3442491241672255
 40
0.3583447456205801
 40
0.3725449290435917
 40
0.3849818276744685
 40
0.3974186479353239
 40
0.4099968510918697
 40
0.4227232765974956
 40
0.4344434962362114
 40
0.4463059155781181
 40
0.4581675073296685
 40
0.470185283989072
 40
0.4819019337074601
 40
0.4998267449487274
 40
0.517751529279704
 40
0.5303230390044072
 40
0.5429974714335823
 40
0.5567695872937642
 40
0.5706603591420213
 40
0.5849040793552983
 40
0.5992612419289749
 40
0.6121461928799804
 40
0.6251085902686633
 40
0.6383128134401711
 40
0.6516013198772415
 40
0.6634899114234469
 40
0.6815986680796903
 40
0.6997042237490005
 40
0.7115892012097501
 40
0.729748586083429
 40
0.7479062732908415
 40
0.7609094999406559
 40
0.7740261041266931
 40
0.7874972978793242
 40
0.8010879861008048
 40
0.8148724231262723
 40
0.8287722458909556
 40
0.8430202727329387
 40
0.8573817915104959
 40
0.8701924753264788
 40
0.8831590352895405
 40
0.8962040941270129
 40
0.9094110191329184
 40
0.9209552547573959
 40
0.9326258566833119
 40
0.9442957702296912
 40
0.9561034184779155
 40
0.9669429285554566
 40
0.9779150051343979
 40
0.9888866660885816
 40
1.0
 40
1.0
 40
1.0
 40
1.0
 10
214.0460733568061
 20
106.7048255250405
 30
0.0
 10
214.0454013187659
 20
106.7885503761218
 30
0.0
 10
214.0425034312445
 20
107.1495793456677
 30
0.0
 10
213.9971114691985
 20
107.7897494002621
 30
0.0
 10
213.8681119738266
 20
108.6233186379869
 30
0.0
 10
213.6642852686304
 20
109.4516150423728
 30
0.0
 10
213.389609273391
 20
110.2556216634685
 30
0.0
 10
213.0502125733265
 20
111.0242044075253
 30
0.0
 10
212.6491708738199
 20
111.7567952579972
 30
0.0
 10
212.1830798154619
 20
112.4578335047297
 30
0.0
 10
211.8270940156584
 20
112.9038536946458
 30
0.0
 10
211.4714459117814
 20
113.3109943494983
 30
0.0
 10
211.1189623577743
 20
113.6836073294568
 30
0.0
 10
210.5523387053911
 20
114.1960445376636
 30
0.0
 10
209.9395972469627
 20
114.6681672992599
 30
0.0
 10
209.304586564958
 20
115.0812817250709
 30
0.0
 10
208.6523508361963
 20
115.4375047119296
 30
0.0
 10
207.9912794214712
 20
115.7372307249308
 30
0.0
 10
207.3007045824108
 20
115.9901338777679
 30
0.0
 10
206.5850194895274
 20
116.1921844109385
 30
0.0
 10
205.8451084232378
 20
116.3409918087276
 30
0.0
 10
205.0886937568317
 20
116.4324898170006
 30
0.0
 10
204.3174353450051
 20
116.4650891319294
 30
0.0
 10
203.5235954136153
 20
116.4353533944044
 30
0.0
 10
202.7114044781573
 20
116.3372529292975
 30
0.0
 10
201.8868243074709
 20
116.1651091320562
 30
0.0
 10
201.0718488085264
 20
115.9195954184051
 30
0.0
 10
200.2823417850062
 20
115.603789605991
 30
0.0
 10
199.5289864753413
 20
115.2236533484288
 30
0.0
 10
198.8126768741103
 20
114.781509179903
 30
0.0
 10
198.131720755146
 20
114.2749329979727
 30
0.0
 10
197.5196854444482
 20
113.7303727181215
 30
0.0
 10
196.9783034138089
 20
113.1622988813851
 30
0.0
 10
196.5023145179744
 20
112.579328357999
 30
0.0
 10
196.068573941655
 20
111.9551621404528
 30
0.0
 10
195.6909475112151
 20
111.308977773221
 30
0.0
 10
195.3684089872818
 20
110.6459526985116
 30
0.0
 10
195.100823462641
 20
109.9736560609015
 30
0.0
 10
194.8809333449907
 20
109.2737270932338
 30
0.0
 10
194.714467337911
 20
108.5582974615587
 30
0.0
 10
194.5825977055758
 20
107.7053015742141
 30
0.0
 10
194.5252566251373
 20
106.716378572999
 30
0.0
 10
194.5812506694031
 20
105.7095361914493
 30
0.0
 10
194.7182680095147
 20
104.8254827334695
 30
0.0
 10
194.9047775425649
 20
104.042423947458
 30
0.0
 10
195.1631719343088
 20
103.2562878538123
 30
0.0
 10
195.4993394079346
 20
102.4710364188983
 30
0.0
 10
195.9063285156347
 20
101.7123225054139
 30
0.0
 10
196.3656340368969
 20
101.0130618284842
 30
0.0
 10
196.8646407353025
 20
100.3772343670665
 30
0.0
 10
197.396529478506
 20
99.80077896763459
 30
0.0
 10
197.979605097209
 20
99.26319812144726
 30
0.0
 10
198.5892513134378
 20
98.78724099656799
 30
0.0
 10
199.3189351601116
 20
98.30407805560084
 30
0.0
 10
200.1825110890295
 20
97.84228091160655
 30
0.0
 10
201.0995173208266
 20
97.47798920105468
 30
0.0
 10
202.0522218154873
 20
97.20104746908548
 30
0.0
 10
203.0347678839892
 20
97.01522725025723
 30
0.0
 10
204.0589644640519
 20
96.94129991259638
 30
0.0
 10
204.9795827515766
 20
96.96748085275381
 30
0.0
 10
205.7968462316837
 20
97.05918391986573
 30
0.0
 10
206.6128627509563
 20
97.22171473790496
 30
0.0
 10
207.4215384683047
 20
97.456502641182
 30
0.0
 10
208.2108526655668
 20
97.76183238262924
 30
0.0
 10
208.9782926652612
 20
98.13833637926227
 30
0.0
 10
209.7156911855657
 20
98.58441059440126
 30
0.0
 10
210.3896269034108
 20
99.07883209578526
 30
0.0
 10
210.9981364147178
 20
99.60933636706426
 30
0.0
 10
211.5433203434253
 20
100.1668986825384
 30
0.0
 10
212.0472955922924
 20
100.7727104442556
 30
0.0
 10
212.4850291768847
 20
101.395352321559
 30
0.0
 10
212.8608396146222
 20
102.0279520799201
 30
0.0
 10
213.1774364940485
 20
102.6610946620802
 30
0.0
 10
213.4505891610673
 20
103.3238911794675
 30
0.0
 10
213.6698746309596
 20
103.9926290347354
 30
0.0
 10
213.8383887366863
 20
104.6646831845181
 30
0.0
 10
213.9564095116534
 20
105.3326466430427
 30
0.0
 10
214.031940961303
 20
106.0149666154136
 30
0.0
 10
214.0413424551017
 20
106.4738912371748
 30
0.0
 10
214.0460733568061
 20
106.7048255250405
 30
0.0
  0
SPLINE
  5
B9
330
1F
100
AcDbEntity
  8
0
  6
CONTINUOUS
 62
     7
100
AcDbSpline
210
0.0
220
0.0
230
1.0
 70
    11
 71
     3
 72
    87
 73
    83
 74
     0
 42
0.00000001
 43
0.00000001
 40
0.0
 40
0.0
 40
0.0
 40
0.0
 40
0.0108097642866655
 40
0.0216197401361546
 40
0.0327093232133284
 40
0.0437994816680395
 40
0.055316342015403
 40
0.0668339455480831
 40
0.078623576420136
 40
0.0904138083088031
 40
0.1032163640733665
 40
0.1160964447069852
 40
0.1292152503735525
 40
0.1424157724053686
 40
0.1562314209106142
 40
0.1701481511756534
 40
0.1843991786450349
 40
0.1987738018127029
 40
0.2118199096166144
 40
0.2249711636829711
 40
0.2384671903702983
 40
0.2520872553092592
 40
0.2639558121268399
 40
0.2759086314741044
 40
0.2881220580240261
 40
0.3004227740995492
 40
0.3123208550570672
 40
0.3242195142203711
 40
0.3364095387668684
 40
0.3486000924170027
 40
0.3614799963446591
 40
0.3744387655457884
 40
0.3876407746487373
 40
0.4009260679789369
 40
0.4146932067123205
 40
0.4285611943139933
 40
0.4427668517632328
 40
0.4571001714339364
 40
0.4696451152751631
 40
0.4822914264342456
 40
0.4939333436664453
 40
0.5056623830807471
 40
0.5176667038253646
 40
0.5297652234890281
 40
0.5414535765613911
 40
0.5531427121573458
 40
0.5651397396023413
 40
0.5771375721082811
 40
0.5895243054736126
 40
0.601911587738407
 40
0.6145909299353618
 40
0.6272703853341254
 40
0.6409630890910594
 40
0.6547503151702428
 40
0.6688453896955592
 40
0.6830527677932804
 40
0.696457789239504
 40
0.7099707058909485
 40
0.7238415887429823
 40
0.7378435249900261
 40
0.7499538869283376
 40
0.7621543960746597
 40
0.7746380715944158
 40
0.7872182847292175
 40
0.7989870720903312
 40
0.8107563901610075
 40
0.822823423220996
 40
0.8348910442721632
 40
0.8474713152718713
 40
0.8600520689687253
 40
0.8729385365670491
 40
0.8858251255545484
 40
0.8994639309294423
 40
0.9131962526762736
 40
0.9272347627632447
 40
0.9413864843210502
 40
0.9530679091860452
 40
0.9647485362246043
 40
0.9767127661129714
 40
0.9887674894001266
 40
0.9959789417312307
 40
1.0
 40
1.0
 40
1.0
 40
1.0
 10
214.1955708442433
 20
106.7048255250405
 30
0.0
 10
214.1909681992038
 20
106.4773799800258
 30
0.0
 10
214.1817628190442
 20
106.0224844385561
 30
0.0
 10
214.1075038247103
 20
105.3386367201119
 30
0.0
 10
213.9879109667375
 20
104.6577713763121
 30
0.0
 10
213.8167730685536
 20
103.9755527119943
 30
0.0
 10
213.59537919388
 20
103.3022861793157
 30
0.0
 10
213.3216178659826
 20
102.6369217712297
 30
0.0
 10
212.9988361894316
 20
101.9916786853336
 30
0.0
 10
212.6177147274639
 20
101.3520083408576
 30
0.0
 10
212.177342540266
 20
100.7271960593616
 30
0.0
 10
211.6724585264167
 20
100.1197623310618
 30
0.0
 10
211.1149792863726
 20
99.54920666537527
 30
0.0
 10
210.4978380015832
 20
99.01257936390186
 30
0.0
 10
209.8228891770717
 20
98.5181504140521
 30
0.0
 10
209.086377935946
 20
98.07033485043415
 30
0.0
 10
208.2988861822897
 20
97.6814706069131
 30
0.0
 10
207.4917570351934
 20
97.36917222542246
 30
0.0
 10
206.6785745459971
 20
97.13268535068785
 30
0.0
 10
205.8630579763569
 20
96.96706095050273
 30
0.0
 10
205.0218388575874
 20
96.86902640922435
 30
0.0
 10
204.2009369318755
 20
96.84440929418065
 30
0.0
 10
203.413715486203
 20
96.88453285823181
 30
0.0
 10
202.6623369550276
 20
96.98005610615043
 30
0.0
 10
201.9137379317092
 20
97.13410063290677
 30
0.0
 10
201.1833041019126
 20
97.34432858258543
 30
0.0
 10
200.4805195992859
 20
97.60600231514144
 30
0.0
 10
199.8044344990661
 20
97.91658403697055
 30
0.0
 10
199.1515076981757
 20
98.27837411305892
 30
0.0
 10
198.5136340570399
 20
98.69760807496043
 30
0.0
 10
197.8999501051386
 20
99.1731034881484
 30
0.0
 10
197.3122785954001
 20
99.70860820313851
 30
0.0
 10
196.7645491171644
 20
100.2953521976627
 30
0.0
 10
196.2559808072666
 20
100.9384138509428
 30
0.0
 10
195.7942804241536
 20
101.6350990764222
 30
0.0
 10
195.383364821853
 20
102.3888040953847
 30
0.0
 10
195.0335989356699
 20
103.1910985833135
 30
0.0
 10
194.7643362620711
 20
104.0010959122506
 30
0.0
 10
194.5718126794116
 20
104.8040199910169
 30
0.0
 10
194.4527155695644
 20
105.5678032296456
 30
0.0
 10
194.3947357257951
 20
106.3234169491233
 30
0.0
 10
194.3937672199415
 20
107.0684912221379
 30
0.0
 10
194.4504018915326
 20
107.8203940455774
 30
0.0
 10
194.5645967372655
 20
108.5627792890433
 30
0.0
 10
194.7328590993027
 20
109.2847255363179
 30
0.0
 10
194.9524054429996
 20
109.986699930384
 30
0.0
 10
195.2250579976529
 20
110.6724149122687
 30
0.0
 10
195.5530359564945
 20
111.3451135476801
 30
0.0
 10
195.9337899506834
 20
111.9946849960715
 30
0.0
 10
196.3696684386651
 20
112.6223198313912
 30
0.0
 10
196.8558131419504
 20
113.2174961847831
 30
0.0
 10
197.4049898765416
 20
113.7917444727692
 30
0.0
 10
198.0167587217826
 20
114.3350293605568
 30
0.0
 10
198.6974364290854
 20
114.8431910026334
 30
0.0
 10
199.431575215555
 20
115.2982782247617
 30
0.0
 10
200.2000468158935
 20
115.6856475920631
 30
0.0
 10
200.9922423786253
 20
116.002624587299
 30
0.0
 10
201.8060514267314
 20
116.2509047513077
 30
0.0
 10
202.6544248632448
 20
116.4315264032227
 30
0.0
 10
203.4891600397296
 20
116.5334845535822
 30
0.0
 10
204.2952916891733
 20
116.5646965396345
 30
0.0
 10
205.0695343894307
 20
116.5349125353313
 30
0.0
 10
205.847768229497
 20
116.4436303700375
 30
0.0
 10
206.6052375599749
 20
116.293190168985
 30
0.0
 10
207.3314573161067
 20
116.0898084512706
 30
0.0
 10
208.0275557532485
 20
115.8382719442642
 30
0.0
 10
208.7052326581093
 20
115.5342471586369
 30
0.0
 10
209.3697612762967
 20
115.174089931896
 30
0.0
 10
210.0107038294765
 20
114.7600797911876
 30
0.0
 10
210.628656042446
 20
114.2891830784303
 30
0.0
 10
211.2107574141022
 20
113.7681553056262
 30
0.0
 10
211.764007018167
 20
113.1876183414969
 30
0.0
 10
212.2790102036948
 20
112.5497640327153
 30
0.0
 10
212.7524903200004
 20
111.8493463430969
 30
0.0
 10
213.1706219948607
 20
111.0981981888606
 30
0.0
 10
213.5057031025516
 20
110.347113934362
 30
0.0
 10
213.7635958445153
 20
109.6130928517274
 30
0.0
 10
213.9556879214348
 20
108.9020911475361
 30
0.0
 10
214.0957374155487
 20
108.1675001764722
 30
0.0
 10
214.1681453817422
 20
107.5149932119299
 30
0.0
 10
214.1930663042372
 20
107.0256991893451
 30
0.0
 10
214.1949106117831
 20
106.7894123985908
 30
0.0
 10
214.1955708442433
 20
106.7048255250405
 30
0.0
  0
LINE
  5
BA
330
1F
100
AcDbEntity
  8
0
  6
CONTINUOUS
 62
     7
100
AcDbLine
 10
204.2960733568
 20
121.704825525
 30
0.0
 11
223.7960733568
 21
121.704825525
 31
0.0
  0
LINE
  5
BB
330
1F
100
AcDbEntity
  8
0
  6
CONTINUOUS
 62
     7
100
AcDbLine
 10
184.7960733568
 20
121.704825525
 30
0.0
 11
204.2960733568
 21
121.704825525
 31
0.0
  0
LINE
  5
BC
330
1F
100
AcDbEntity
  8
0
  6
CONTINUOUS
 62
     7
100
AcDbLine
 10
186.9079078275
 20
107.0046468014
 30
0.0
 11
186.8848353955
 21
107.6950414335
 31
0.0
  0
SPLINE
  5
BD
330
1F
100
AcDbEntity
  8
0
  6
CONTINUOUS
 62
     7
100
AcDbSpline
210
0.0
220
0.0
230
1.0
 70
     8
 71
     3
 72
    37
 73
    33
 74
     0
 42
0.00000001
 43
0.00000001
 40
0.0
 40
0.0
 40
0.0
 40
0.0
 40
0.0171762253570291
 40
0.0506089868108142
 40
0.0842460296899199
 40
0.1194945232384635
 40
0.1549919868059836
 40
0.1913136371933202
 40
0.227943581255711
 40
0.2617331776903261
 40
0.2958116174611763
 40
0.3308594656111591
 40
0.3662652081307105
 40
0.4053700880639019
 40
0.4374433981623578
 40
0.4697779620481934
 40
0.5028976530244402
 40
0.5362701802887976
 40
0.5683809131222033
 40
0.6006921812079264
 40
0.6336044773124351
 40
0.6667147391533954
 40
0.7015288974441052
 40
0.7365752691091978
 40
0.7723698755531465
 40
0.8084345113533343
 40
0.8432965183942923
 40
0.878436402925202
 40
0.9145016827281108
 40
0.950908106136055
 40
0.982461710492851
 40
1.0
 40
1.0
 40
1.0
 40
1.0
 10
185.3208094926174
 20
114.2830607705275
 30
0.0
 10
185.3556262670115
 20
114.1974137260329
 30
0.0
 10
185.4582123497788
 20
113.9450585050738
 30
0.0
 10
185.6359725999058
 20
113.4741436676867
 30
0.0
 10
185.8508961962192
 20
112.8664666690691
 30
0.0
 10
186.0655644546371
 20
112.1999014426447
 30
0.0
 10
186.2739952472353
 20
111.4737559677097
 30
0.0
 10
186.4664366400984
 20
110.6974542742185
 30
0.0
 10
186.6302252017734
 20
109.8973790443787
 30
0.0
 10
186.7600593625571
 20
109.0854836965667
 30
0.0
 10
186.8540826995764
 20
108.2643325560291
 30
0.0
 10
186.9104893155504
 20
107.4149784218353
 30
0.0
 10
186.9250619549353
 20
106.5172092497408
 30
0.0
 10
186.89261669718
 20
105.6453485559137
 30
0.0
 10
186.8195974508594
 20
104.810174357728
 30
0.0
 10
186.7181085045209
 20
104.0390047963842
 30
0.0
 10
186.5854163753019
 20
103.2794497231136
 30
0.0
 10
186.4275051416178
 20
102.5487082123453
 30
0.0
 10
186.2510483623284
 20
101.8544611024872
 30
0.0
 10
186.0609124154322
 20
101.1964615470618
 30
0.0
 10
185.8590311724676
 20
100.5682580522517
 30
0.0
 10
185.647073858049
 20
99.96474349141934
 30
0.0
 10
185.4307796810094
 20
99.39394484388751
 30
0.0
 10
185.2147362672756
 20
98.85944552908846
 30
0.0
 10
185.0078368453392
 20
98.37449919758093
 30
0.0
 10
184.8187438612718
 20
97.95068605303622
 30
0.0
 10
184.6530766466865
 20
97.59230934798296
 30
0.0
 10
184.5140488959865
 20
97.2997818841595
 30
0.0
 10
184.40401361302
 20
97.07319609956053
 30
0.0
 10
184.3337014952106
 20
96.93054633119164
 30
0.0
 10
184.2993401504765
 20
96.86139041109449
 30
0.0
 10
184.2997713170513
 20
96.86226074971691
 30
0.0
 10
184.2999253531582
 20
96.86257168192031
 30
0.0
  0
LINE
  5
BE
330
1F
100
AcDbEntity
  8
0
  6
CONTINUOUS
 62
     7
100
AcDbLine
 10
204.2960733568
 20
91.704825525
 30
0.0
 11
184.7960733568
 21
91.704825525
 31
0.0
  0
LINE
  5
BF
330
1F
100
AcDbEntity
  8
0
  6
CONTINUOUS
 62
     7
100
AcDbLine
 10
223.7960733568
 20
91.704825525
 30
0.0
 11
204.2960733568
 21
91.704825525
 31
0.0
  0
LINE
  5
C0
330
1F
100
AcDbEntity
  8
0
  6
CONTINUOUS
 62
     8
100
AcDbLine
 10
204.2960733568
 20
121.204825525
 30
0.0
 11
184.2960733568
 21
121.204825525
 31
0.0
  0
LINE
  5
C1
330
1F
100
AcDbEntity
  8
0
  6
CONTINUOUS
 62
     8
100
AcDbLine
 10
224.2960733568
 20
121.204825525
 30
0.0
 11
204.2960733568
 21
121.204825525
 31
0.0
  0
LINE
  5
C2
330
1F
100
AcDbEntity
  8
0
  6
CONTINUOUS
 62
     8
100
AcDbLine
 10
204.2960733568
 20
92.204825525
 30
0.0
 11
224.2960733568
 21
92.204825525
 31
0.0
  0
LINE
  5
C3
330
1F
100
AcDbEntity
  8
0
  6
CONTINUOUS
 62
     8
100
AcDbLine
 10
184.2960733568
 20
92.204825525
 30
0.0
 11
204.2960733568
 21
92.204825525
 31
0.0
  0
SPLINE
  5
C4
330
1F
100
AcDbEntity
  8
0
  6
CONTINUOUS
 62
     8
100
AcDbSpline
210
0.0
220
0.0
230
1.0
 70
     8
 71
     3
 72
    17
 73
    13
 74
     0
 42
0.00000001
 43
0.00000001
 40
0.0
 40
0.0
 40
0.0
 40
0.0
 40
0.0587945683765529
 40
0.1685890863862053
 40
0.2808595631745506
 40
0.3939669429071556
 40
0.5010916869261123
 40
0.6088870400317323
 40
0.7186971981461817
 40
0.8291635004072405
 40
0.9446190575729109
 40
0.9999999999999999
 40
0.9999999999999999
 40
0.9999999999999999
 40
0.9999999999999999
 10
184.2996276358257
 20
116.5476786956934
 30
0.0
 10
184.2990540642042
 20
116.5488325904195
 30
0.0
 10
184.2974093899031
 20
116.552141298401
 30
0.0
 10
184.3265669388007
 20
116.49348675294
 30
0.0
 10
184.3850617460679
 20
116.3749798844203
 30
0.0
 10
184.4723158217879
 20
116.1961153481448
 30
0.0
 10
184.582672839932
 20
115.9660758609977
 30
0.0
 10
184.7134941233313
 20
115.6874614000855
 30
0.0
 10
184.8646404591063
 20
115.3572747141336
 30
0.0
 10
185.0362027861608
 20
114.968362109347
 30
0.0
 10
185.1898039924836
 20
114.6105120235865
 30
0.0
 10
185.2887376594477
 20
114.3632250533141
 30
0.0
 10
185.3208094926174
 20
114.2830607705275
 30
0.0
  0
LINE
  5
C5
330
1F
100
AcDbEntity
  8
0
  6
CONTINUOUS
 62
     7
100
AcDbLine
 10
118.5038850492
 20
62.6467535465
 30
0.0
 11
118.5040338724
 21
62.6467928187
 31
0.0
  0
CIRCLE
  5
C6
330
1F
100
AcDbEntity
  8
0
  6
CONTINUOUS
 62
     7
100
AcDbCircle
 10
128.3899276453
 20
45.2608224106
 30
0.0
 40
19.5
  0
CIRCLE
  5
C7
330
1F
100
AcDbEntity
  8
0
  6
CONTINUOUS
 62
     7
100
AcDbCircle
 10
128.3899276453
 20
45.2608224106
 30
0.0
 40
20.0
  0
ARC
  5
C8
330
1F
100
AcDbEntity
  8
0
  6
CONTINUOUS
 62
     7
100
AcDbCircle
 10
77.9826262232
 20
92.204825525
 30
0.0
 40
0.5
100
AcDbArc
 50
270.0
 51
0.0
  0
ARC
  5
C9
330
1F
100
AcDbEntity
  8
0
  6
CONTINUOUS
 62
     7
100
AcDbCircle
 10
38.9826262232
 20
92.204825525
 30
0.0
 40
0.5
100
AcDbArc
 50
180.0
 51
270.0
  0
LINE
  5
CA
330
1F
100
AcDbEntity
  8
0
  6
CONTINUOUS
 62
     7
100
AcDbLine
 10
38.4826262232
 20
121.204825525
 30
0.0
 11
38.4826262232
 21
92.204825525
 31
0.0
  0
LINE
  5
CB
330
1F
100
AcDbEntity
  8
0
  6
CONTINUOUS
 62
     7
100
AcDbLine
 10
78.4826262232
 20
116.5476786957
 30
0.0
 11
78.4826262232
 21
121.204825525
 31
0.0
  0
LINE
  5
CC
330
1F
100
AcDbEntity
  8
0
  6
CONTINUOUS
 62
     7
100
AcDbLine
 10
78.4826262232
 20
92.204825525
 30
0.0
 11
78.4826262232
 21
96.8621558191
 31
0.0
  0
ARC
  5
CD
330
1F
100
AcDbEntity
  8
0
  6
CONTINUOUS
 62
     7
100
AcDbCircle
 10
77.9826262232
 20
121.204825525
 30
0.0
 40
0.5
100
AcDbArc
 50
0.0
 51
90.0
  0
ARC
  5
CE
330
1F
100
AcDbEntity
  8
0
  6
CONTINUOUS
 62
     7
100
AcDbCircle
 10
38.9826262232
 20
121.204825525
 30
0.0
 40
0.5
100
AcDbArc
 50
90.0
 51
180.0
  0
LINE
  5
CF
330
1F
100
AcDbEntity
  8
0
  6
CONTINUOUS
 62
     7
100
AcDbLine
 10
75.9071267645
 20
105.6635781553
 30
0.0
 11
75.8897386551
 21
105.9662646475
 31
0.0
  0
SPLINE
  5
D0
330
1F
100
AcDbEntity
  8
0
  6
CONTINUOUS
 62
     7
100
AcDbSpline
210
0.0
220
0.0
230
1.0
 70
     8
 71
     3
 72
    19
 73
    15
 74
     0
 42
0.00000001
 43
0.00000001
 40
0.0
 40
0.0
 40
0.0
 40
0.0
 40
0.0328625980316824
 40
0.0943733905431226
 40
0.1765758072902146
 40
0.2651435782689491
 40
0.3558875002568328
 40
0.4480357023961779
 40
0.5413087800998572
 40
0.6354756627621899
 40
0.7302850377874512
 40
0.8254590040186053
 40
0.9206740178512507
 40
1.0
 40
1.0
 40
1.0
 40
1.0
 10
78.46373232189337
 20
96.91180994298875
 30
0.0
 10
78.4630337881623
 20
96.91298356693422
 30
0.0
 10
78.461027769145
 20
96.91635392952234
 30
0.0
 10
78.44616445366285
 20
96.94341243230653
 30
0.0
 10
78.41548921006216
 20
97.00204689048553
 30
0.0
 10
78.36501419361619
 20
97.1015267958163
 30
0.0
 10
78.29729984445802
 20
97.2387402008221
 30
0.0
 10
78.21362846064902
 20
97.41270819000432
 30
0.0
 10
78.11512608964219
 20
97.62283717750225
 30
0.0
 10
78.00289645939918
 20
97.86864875586814
 30
0.0
 10
77.87830962346888
 20
98.1489534824751
 30
0.0
 10
77.74260434514434
 20
98.46350034302992
 30
0.0
 10
77.60624839658529
 20
98.78781271134164
 30
0.0
 10
77.5120350232965
 20
99.02141349011131
 30
0.0
 10
77.46921661077596
 20
99.12758116208101
 30
0.0
  0
SPLINE
  5
D1
330
1F
100
AcDbEntity
  8
0
  6
CONTINUOUS
 62
     7
100
AcDbSpline
210
0.0
220
0.0
230
1.0
 70
     8
 71
     3
 72
    10
 73
     6
 74
     0
 42
0.00000001
 43
0.00000001
 40
0.0
 40
0.0
 40
0.0
 40
0.0
 40
0.0033405007868327
 40
0.827091592921996
 40
1.0
 40
1.0
 40
1.0
 40
1.0
 10
75.88005707298997
 20
106.2588884548364
 30
0.0
 10
75.88003197048714
 20
106.2596463916204
 30
0.0
 10
75.8738167140377
 20
106.4473078178613
 30
0.0
 10
75.8720095572153
 20
106.6753882156393
 30
0.0
 10
75.8791835592775
 20
106.901681424495
 30
0.0
 10
75.88042816214329
 20
106.9409405679705
 30
0.0
  0
LINE
  5
D2
330
1F
100
AcDbEntity
  8
0
  6
CONTINUOUS
 62
     7
100
AcDbLine
 10
75.8897386551
 20
105.9662646475
 30
0.0
 11
75.880057073
 21
106.2588884548
 31
0.0
  0
SPLINE
  5
D3
330
1F
100
AcDbEntity
  8
0
  6
CONTINUOUS
 62
     7
100
AcDbSpline
210
0.0
220
0.0
230
1.0
 70
     8
 71
     3
 72
    18
 73
    14
 74
     0
 42
0.00000001
 43
0.00000001
 40
0.0
 40
0.0
 40
0.0
 40
0.0
 40
0.1030824478255606
 40
0.2108515425139726
 40
0.3188730336956507
 40
0.4266761177000116
 40
0.5338832657758525
 40
0.6401775643940024
 40
0.745285127050571
 40
0.8489451942456238
 40
0.9402175870638633
 40
0.9888671777647084
 40
1.0
 40
1.0
 40
1.0
 40
1.0
 10
77.65585519707918
 20
114.7385689481054
 30
0.0
 10
77.70154793846424
 20
114.8470986914399
 30
0.0
 10
77.79501084321636
 20
115.0690924864403
 30
0.0
 10
77.92459576028659
 20
115.3652760345149
 30
0.0
 10
78.04579634281208
 20
115.6354799109461
 30
0.0
 10
78.15435467646819
 20
115.8708201883875
 30
0.0
 10
78.24890090741302
 20
116.0705465082863
 30
0.0
 10
78.32806511668824
 20
116.2334579341373
 30
0.0
 10
78.39054911697943
 20
116.3587099642121
 30
0.0
 10
78.43444660335628
 20
116.4439280972572
 30
0.0
 10
78.45543850561226
 20
116.4834593448474
 30
0.0
 10
78.46396714151406
 20
116.4981418325054
 30
0.0
 10
78.46329374755148
 20
116.4970956307927
 30
0.0
 10
78.46316834653616
 20
116.4969008046371
 30
0.0
  0
LINE
  5
D4
330
1F
100
AcDbEntity
  8
0
  6
CONTINUOUS
 62
     7
100
AcDbLine
 10
77.9826262232
 20
91.704825525
 30
0.0
 11
38.9826262232
 21
91.704825525
 31
0.0
  0
SPLINE
  5
D5
330
1F
100
AcDbEntity
  8
0
  6
CONTINUOUS
 62
     7
100
AcDbSpline
210
0.0
220
0.0
230
1.0
 70
     8
 71
     3
 72
    26
 73
    22
 74
     0
 42
0.00000001
 43
0.00000001
 40
0.0
 40
0.0
 40
0.0
 40
0.0
 40
0.0590854810706011
 40
0.1350319024708703
 40
0.1814779496612978
 40
0.2284963958160944
 40
0.2757942780346851
 40
0.323648761029436
 40
0.3749068512929882
 40
0.42678224036142
 40
0.4789642951970983
 40
0.5317721441221797
 40
0.5879239089459813
 40
0.6444740125380284
 40
0.7023317395023307
 40
0.7606699892134814
 40
0.8146924489190365
 40
0.8691511610428132
 40
0.9250503709602054
 40
0.9814730430556576
 40
1.0
 40
1.0
 40
1.0
 40
1.0
 10
75.86875951313658
 20
106.9438362594558
 30
0.0
 10
75.875156131428
 20
107.2487197341373
 30
0.0
 10
75.88977474029126
 20
107.9454898182969
 30
0.0
 10
75.98870718811902
 20
108.8647452175807
 30
0.0
 10
76.11473323237817
 20
109.6979907808009
 30
0.0
 10
76.24311461571861
 20
110.3709396956695
 30
0.0
 10
76.39185778880397
 20
111.0274707483437
 30
0.0
 10
76.56129694201722
 20
111.6766010258277
 30
0.0
 10
76.74900817568484
 20
112.3143510367089
 30
0.0
 10
76.95101470376028
 20
112.9336876162978
 30
0.0
 10
77.15908686417045
 20
113.5192137480072
 30
0.0
 10
77.37195375489728
 20
114.0765909779519
 30
0.0
 10
77.58438570625064
 20
114.5991640055227
 30
0.0
 10
77.79092897575653
 20
115.080980137591
 30
0.0
 10
77.98173160734387
 20
115.5068938432201
 30
0.0
 10
78.14596231667353
 20
115.8605903717252
 30
0.0
 10
78.27946099479115
 20
116.140538711782
 30
0.0
 10
78.38203215439043
 20
116.3514030651903
 30
0.0
 10
78.45040302064244
 20
116.4900343743664
 30
0.0
 10
78.4819720099084
 20
116.5535104171609
 30
0.0
 10
78.47972048210725
 20
116.5489828674636
 30
0.0
 10
78.47916392219942
 20
116.5478636929008
 30
0.0
  0
SPLINE
  5
D6
330
1F
100
AcDbEntity
  8
0
  6
CONTINUOUS
 62
     7
100
AcDbSpline
210
0.0
220
0.0
230
1.0
 70
     8
 71
     3
 72
    17
 73
    13
 74
     0
 42
0.00000001
 43
0.00000001
 40
0.0
 40
0.0
 40
0.0
 40
0.0
 40
0.0483058401623477
 40
0.1509042492366283
 40
0.2597287603415139
 40
0.3692761379850992
 40
0.4811585661318033
 40
0.5938911086855605
 40
0.7027123050741036
 40
0.8124369396153097
 40
0.9252331863504798
 40
1.0
 40
1.0
 40
1.0
 40
1.0
 10
77.47113802414341
 20
99.09363711515041
 30
0.0
 10
77.44001611031217
 20
99.16978446198912
 30
0.0
 10
77.34279331021747
 20
99.40766373636748
 30
0.0
 10
77.16810155221214
 20
99.86672627285444
 30
0.0
 10
76.95263778880448
 20
100.4698691843773
 30
0.0
 10
76.73499631869117
 20
101.1386196985051
 30
0.0
 10
76.52577535667436
 20
101.857853656009
 30
0.0
 10
76.33477140833098
 20
102.6159454862394
 30
0.0
 10
76.16847424712526
 20
103.4040311060405
 30
0.0
 10
76.03345423073517
 20
104.2224460115878
 30
0.0
 10
75.93867901036387
 20
104.9768245465989
 30
0.0
 10
75.90938343432626
 20
105.4636551810856
 30
0.0
 10
75.8977055651879
 20
105.657716715659
 30
0.0
  0
LINE
  5
D7
330
1F
100
AcDbEntity
  8
0
  6
CONTINUOUS
 62
     7
100
AcDbLine
 10
38.9826262232
 20
121.704825525
 30
0.0
 11
77.9826262232
 21
121.704825525
 31
0.0
  0
LINE
  5
D8
330
1F
100
AcDbEntity
  8
0
  6
CONTINUOUS
 62
     8
100
AcDbLine
 10
38.4826262232
 20
92.204825525
 30
0.0
 11
78.4826262232
 21
92.204825525
 31
0.0
  0
LINE
  5
D9
330
1F
100
AcDbEntity
  8
0
  6
CONTINUOUS
 62
     8
100
AcDbLine
 10
78.4826262232
 20
121.204825525
 30
0.0
 11
38.4826262232
 21
121.204825525
 31
0.0
  0
LINE
  5
DA
330
1F
100
AcDbEntity
  8
0
  6
CONTINUOUS
 62
     8
100
AcDbLine
 10
75.8607719671
 20
106.704825525
 30
0.0
 11
75.8687595131
 21
106.9438362595
 31
0.0
  0
SPLINE
  5
DB
330
1F
100
AcDbEntity
  8
0
  6
CONTINUOUS
 62
     8
100
AcDbSpline
210
0.0
220
0.0
230
1.0
 70
     8
 71
     3
 72
    17
 73
    13
 74
     0
 42
0.00000001
 43
0.00000001
 40
0.0
 40
0.0
 40
0.0
 40
0.0
 40
0.0433539957515941
 40
0.1585328165352526
 40
0.2755558351164843
 40
0.3827885297104416
 40
0.4914192270430109
 40
0.6007425400627953
 40
0.7114558135348534
 40
0.824825718039098
 40
0.9395685283558227
 40
1.0
 40
1.0
 40
1.0
 40
1.0
 10
78.47898095713485
 20
96.8621558191167
 30
0.0
 10
78.4799224031235
 20
96.86026252324295
 30
0.0
 10
78.48336499432209
 20
96.85333929685528
 30
0.0
 10
78.45663568658865
 20
96.90707938877388
 30
0.0
 10
78.40068860066663
 20
97.02032615051436
 30
0.0
 10
78.31650729486235
 20
97.1926886118283
 30
0.0
 10
78.21088592402579
 20
97.41233925259912
 30
0.0
 10
78.0819718716697
 20
97.6860973120206
 30
0.0
 10
77.93164482704498
 20
98.01339951295144
 30
0.0
 10
77.7614096393206
 20
98.39771396391744
 30
0.0
 10
77.6060276039861
 20
98.75849974258149
 30
0.0
 10
77.50573639746253
 20
99.00767637642733
 30
0.0
 10
77.47113802414341
 20
99.09363711515041
 30
0.0
  0
SPLINE
  5
DC
330
1F
100
AcDbEntity
  8
0
  6
CONTINUOUS
 62
     8
100
AcDbSpline
210
0.0
220
0.0
230
1.0
 70
     8
 71
     3
 72
     9
 73
     5
 74
     0
 42
0.00000001
 43
0.00000001
 40
0.0
 40
0.0
 40
0.0
 40
0.0
 40
0.2923779449742709
 40
1.0
 40
1.0
 40
1.0
 40
1.0
 10
75.8977055651879
 20
105.657716715659
 30
0.0
 10
75.89004164574567
 20
105.7590063542616
 30
0.0
 10
75.86382927380043
 20
106.1054402776942
 30
0.0
 10
75.86203888538869
 20
106.4564460787625
 30
0.0
 10
75.86077196706148
 20
106.7048255250405
 30
0.0
  0
ARC
  5
DD
330
1F
100
AcDbEntity
  8
0
  6
CONTINUOUS
 62
     7
100
AcDbCircle
 10
13.3050160703
 20
121.204825525
 30
0.0
 40
0.5
100
AcDbArc
 50
0.0
 51
90.0
  0
ARC
  5
DE
330
1F
100
AcDbEntity
  8
0
  6
CONTINUOUS
 62
     7
100
AcDbCircle
 10
-25.6949839297
 20
121.204825525
 30
0.0
 40
0.5
100
AcDbArc
 50
90.0
 51
180.0
  0
LINE
  5
DF
330
1F
100
AcDbEntity
  8
0
  6
CONTINUOUS
 62
     7
100
AcDbLine
 10
-26.1949839297
 20
96.8596465172
 30
0.0
 11
-26.1949839297
 21
92.204825525
 31
0.0
  0
LINE
  5
E0
330
1F
100
AcDbEntity
  8
0
  6
CONTINUOUS
 62
     7
100
AcDbLine
 10
-26.1949839297
 20
121.204825525
 30
0.0
 11
-26.1949839297
 21
116.5547225839
 31
0.0
  0
LINE
  5
E1
330
1F
100
AcDbEntity
  8
0
  6
CONTINUOUS
 62
     7
100
AcDbLine
 10
13.8050160703
 20
92.204825525
 30
0.0
 11
13.8050160703
 21
121.204825525
 31
0.0
  0
ARC
  5
E2
330
1F
100
AcDbEntity
  8
0
  6
CONTINUOUS
 62
     7
100
AcDbCircle
 10
13.3050160703
 20
92.204825525
 30
0.0
 40
0.5
100
AcDbArc
 50
270.0
 51
0.0
  0
ARC
  5
E3
330
1F
100
AcDbEntity
  8
0
  6
CONTINUOUS
 62
     7
100
AcDbCircle
 10
-25.6949839297
 20
92.204825525
 30
0.0
 40
0.5
100
AcDbArc
 50
180.0
 51
270.0
  0
LINE
  5
E4
330
1F
100
AcDbEntity
  8
0
  6
CONTINUOUS
 62
     7
100
AcDbLine
 10
-24.0327488765
 20
110.6429982651
 30
0.0
 11
-23.9530000969
 21
110.2750052931
 31
0.0
  0
SPLINE
  5
E5
330
1F
100
AcDbEntity
  8
0
  6
CONTINUOUS
 62
     7
100
AcDbSpline
210
0.0
220
0.0
230
1.0
 70
     8
 71
     3
 72
    20
 73
    16
 74
     0
 42
0.00000001
 43
0.00000001
 40
0.0
 40
0.0
 40
0.0
 40
0.0
 40
0.0744512042613864
 40
0.1493599248495123
 40
0.2238809199409737
 40
0.2976560318864329
 40
0.3724746783382556
 40
0.448316180644646
 40
0.5250640314922154
 40
0.6025446674837126
 40
0.6805528890029747
 40
0.7591518048744793
 40
0.8393997129635407
 40
0.9206578277714577
 40
1.0
 40
1.0
 40
1.0
 40
1.0
 10
-23.61363348241351
 20
107.6601742184748
 30
0.0
 10
-23.60459524020365
 20
107.4673818425555
 30
0.0
 10
-23.58646321412525
 20
107.0806123461514
 30
0.0
 10
-23.58426488089676
 20
106.4978465783831
 30
0.0
 10
-23.60129421402907
 20
105.9181655975249
 30
0.0
 10
-23.63814638747765
 20
105.3423993311421
 30
0.0
 10
-23.69330806647664
 20
104.7695049312602
 30
0.0
 10
-23.76651893580823
 20
104.1978101472815
 30
0.0
 10
-23.85686539948434
 20
103.6307199819367
 30
0.0
 10
-23.96312024211632
 20
103.0719795743661
 30
0.0
 10
-24.0844254205977
 20
102.5250822587376
 30
0.0
 10
-24.21821730567086
 20
101.9895864741118
 30
0.0
 10
-24.36292686587912
 20
101.4672554873886
 30
0.0
 10
-24.51485654541747
 20
100.963214392036
 30
0.0
 10
-24.61980020542677
 20
100.6471733140651
 30
0.0
 10
-24.67164605265656
 20
100.4910379415674
 30
0.0
  0
LINE
  5
E6
330
1F
100
AcDbEntity
  8
0
  6
CONTINUOUS
 62
     7
100
AcDbLine
 10
-23.9530000969
 20
110.2750052931
 30
0.0
 11
-23.8957421208
 21
109.9811883102
 31
0.0
  0
LINE
  5
E7
330
1F
100
AcDbEntity
  8
0
  6
CONTINUOUS
 62
     7
100
AcDbLine
 10
-25.6949839297
 20
121.704825525
 30
0.0
 11
13.3050160314
 21
121.704825525
 31
0.0
  0
SPLINE
  5
E8
330
1F
100
AcDbEntity
  8
0
  6
CONTINUOUS
 62
     7
100
AcDbSpline
210
0.0
220
0.0
230
1.0
 70
     8
 71
     3
 72
    18
 73
    14
 74
     0
 42
0.00000001
 43
0.00000001
 40
0.0
 40
0.0
 40
0.0
 40
0.0
 40
0.0505188155319441
 40
0.1440505490736306
 40
0.2381648869693044
 40
0.3366648257245035
 40
0.4358854361980918
 40
0.5374894493864532
 40
0.6399746494917377
 40
0.7329880769244853
 40
0.8267511543217105
 40
0.9229723198815846
 40
1.0
 40
1.0
 40
1.0
 40
1.0
 10
-24.67288568211991
 20
100.4630594428836
 30
0.0
 10
-24.71080787396013
 20
100.3510500198551
 30
0.0
 10
-24.8189401114075
 20
100.0316636938143
 30
0.0
 10
-25.00019003478416
 20
99.55046407384228
 30
0.0
 10
-25.21314595223599
 20
99.01222456903938
 30
0.0
 10
-25.42089709326806
 20
98.518246153978
 30
0.0
 10
-25.61811634376909
 20
98.07031547094992
 30
0.0
 10
-25.79621326310796
 20
97.68144880999007
 30
0.0
 10
-25.94369004945113
 20
97.36927604582756
 30
0.0
 10
-26.05817051115728
 20
97.13233093287825
 30
0.0
 10
-26.13860975898156
 20
96.96841631834324
 30
0.0
 10
-26.1868736678316
 20
96.87111616031349
 30
0.0
 10
-26.19035635690128
 20
96.86412790050908
 30
0.0
 10
-26.19190478545537
 20
96.86102087004842
 30
0.0
  0
SPLINE
  5
E9
330
1F
100
AcDbEntity
  8
0
  6
CONTINUOUS
 62
     7
100
AcDbSpline
210
0.0
220
0.0
230
1.0
 70
     8
 71
     3
 72
    22
 73
    18
 74
     0
 42
0.00000001
 43
0.00000001
 40
0.0
 40
0.0
 40
0.0
 40
0.0
 40
0.0657594917255649
 40
0.1332794290779248
 40
0.2013215054196965
 40
0.2647749266625219
 40
0.3286314425554728
 40
0.393701741333165
 40
0.4591678383993549
 40
0.5270071458322657
 40
0.5952554757623663
 40
0.6647465307419046
 40
0.7346533439415406
 40
0.8084209841702948
 40
0.8826944225163291
 40
0.9586239290220604
 40
1.0
 40
1.0
 40
1.0
 40
1.0
 10
-26.19493277820091
 20
116.5547225838514
 30
0.0
 10
-26.19210892603625
 20
116.5490525274002
 30
0.0
 10
-26.18638562443473
 20
116.5375606215655
 30
0.0
 10
-26.13943990675964
 20
116.4428823061911
 30
0.0
 10
-26.06609592114826
 20
116.2935065383812
 30
0.0
 10
-25.96762355027082
 20
116.0900713651944
 30
0.0
 10
-25.84823462875852
 20
115.8388196429074
 30
0.0
 10
-25.70708314037635
 20
115.5346420063325
 30
0.0
 10
-25.54500735568659
 20
115.1748330465844
 30
0.0
 10
-25.36513204069446
 20
114.7605765258503
 30
0.0
 10
-25.16990460381251
 20
114.2901402223525
 30
0.0
 10
-24.96503345931344
 20
113.7687587918231
 30
0.0
 10
-24.75167013432967
 20
113.1881440723904
 30
0.0
 10
-24.53519753978658
 20
112.5500503320428
 30
0.0
 10
-24.32225474204825
 20
111.8482724662604
 30
0.0
 10
-24.14884123660203
 20
111.2180052823564
 30
0.0
 10
-24.05851668788144
 20
110.80694243417
 30
0.0
 10
-24.02665737633734
 20
110.6619521792495
 30
0.0
  0
SPLINE
  5
EA
330
1F
100
AcDbEntity
  8
0
  6
CONTINUOUS
 62
     7
100
AcDbSpline
210
0.0
220
0.0
230
1.0
 70
     8
 71
     3
 72
    11
 73
     7
 74
     0
 42
0.00000001
 43
0.00000001
 40
0.0
 40
0.0
 40
0.0
 40
0.0
 40
0.1714744888237888
 40
0.477739103446872
 40
0.790433373780504
 40
1.0
 40
1.0
 40
1.0
 40
1.0
 10
-23.88843890744837
 20
109.9968314898192
 30
0.0
 10
-23.86395113242366
 20
109.8691727320355
 30
0.0
 10
-23.79572659496646
 20
109.5135071113998
 30
0.0
 10
-23.70945890577794
 20
108.9020186018611
 30
0.0
 10
-23.63603928615919
 20
108.2512644329428
 30
0.0
 10
-23.61288818900118
 20
107.8332871932854
 30
0.0
 10
-23.60359839273899
 20
107.6655662696443
 30
0.0
  0
LINE
  5
EB
330
1F
100
AcDbEntity
  8
0
  6
CONTINUOUS
 62
     7
100
AcDbLine
 10
13.3050160314
 20
91.704825525
 30
0.0
 11
-25.6949839297
 21
91.704825525
 31
0.0
  0
LINE
  5
EC
330
1F
100
AcDbEntity
  8
0
  6
CONTINUOUS
 62
     8
100
AcDbLine
 10
13.8050160703
 20
121.204825525
 30
0.0
 11
-26.1949839297
 21
121.204825525
 31
0.0
  0
LINE
  5
ED
330
1F
100
AcDbEntity
  8
0
  6
CONTINUOUS
 62
     8
100
AcDbLine
 10
-26.1949839297
 20
92.204825525
 30
0.0
 11
13.8050160703
 21
92.204825525
 31
0.0
  0
SPLINE
  5
EE
330
1F
100
AcDbEntity
  8
0
  6
CONTINUOUS
 62
     8
100
AcDbSpline
210
0.0
220
0.0
230
1.0
 70
     8
 71
     3
 72
    17
 73
    13
 74
     0
 42
0.00000001
 43
0.00000001
 40
0.0
 40
0.0
 40
0.0
 40
0.0
 40
0.0988476426170385
 40
0.1983271540706835
 40
0.2997397042086346
 40
0.4017913394156772
 40
0.5071250900575813
 40
0.613096078606562
 40
0.7209486380769425
 40
0.8294038088135653
 40
0.9468467118948003
 40
1.0
 40
1.0
 40
1.0
 40
1.0
 10
-23.57312967356637
 20
106.7048255250405
 30
0.0
 10
-23.57572517168484
 20
106.4780997555009
 30
0.0
 10
-23.58093275925704
 20
106.0231989057005
 30
0.0
 10
-23.62302581378459
 20
105.3400760429791
 30
0.0
 10
-23.68991706948556
 20
104.6584541498171
 30
0.0
 10
-23.78378224398973
 20
103.9769501596413
 30
0.0
 10
-23.90212965588191
 20
103.3029000235102
 30
0.0
 10
-24.04343361413749
 20
102.6382798193888
 30
0.0
 10
-24.20342950219269
 20
101.9918964912544
 30
0.0
 10
-24.38333650628924
 20
101.3538830276463
 30
0.0
 10
-24.54169997643369
 20
100.8412053385027
 30
0.0
 10
-24.64172158005496
 20
100.5528907032703
 30
0.0
 10
-24.67288568211991
 20
100.4630594428836
 30
0.0
  0
SPLINE
  5
EF
330
1F
100
AcDbEntity
  8
0
  6
CONTINUOUS
 62
     8
100
AcDbSpline
210
0.0
220
0.0
230
1.0
 70
     8
 71
     3
 72
     9
 73
     5
 74
     0
 42
0.00000001
 43
0.00000001
 40
0.0
 40
0.0
 40
0.0
 40
0.0
 40
0.5612342986867643
 40
1.0
 40
1.0
 40
1.0
 40
1.0
 10
-24.02665737633734
 20
110.6619521792495
 30
0.0
 10
-23.9978834455833
 20
110.5409456050572
 30
0.0
 10
-23.94661442866582
 20
110.325337659364
 30
0.0
 10
-23.90618010279584
 20
110.0970126657636
 30
0.0
 10
-23.88843890744837
 20
109.9968314898192
 30
0.0
  0
SPLINE
  5
F0
330
1F
100
AcDbEntity
  8
0
  6
CONTINUOUS
 62
     8
100
AcDbSpline
210
0.0
220
0.0
230
1.0
 70
     8
 71
     3
 72
    10
 73
     6
 74
     0
 42
0.00000001
 43
0.00000001
 40
0.0
 40
0.0
 40
0.0
 40
0.0
 40
0.2643511464307733
 40
0.736649533579025
 40
1.0
 40
1.0
 40
1.0
 40
1.0
 10
-23.60359839273899
 20
107.6655662696443
 30
0.0
 10
-23.59782242194511
 20
107.5814504494106
 30
0.0
 10
-23.58172691319196
 20
107.3470505590437
 30
0.0
 10
-23.57489035299798
 20
107.0256156375686
 30
0.0
 10
-23.57359381377173
 20
106.789390373151
 30
0.0
 10
-23.57312967356637
 20
106.7048255250405
 30
0.0
  0
ENDSEC
  0
SECTION
  2
OBJECTS
  0
DICTIONARY
  5
C
330
0
100
AcDbDictionary
  3
ACAD_GROUP
350
D
  3
ACAD_MLINESTYLE
350
17
  3
ACAD_SCALELIST
350
47
  3
DWGPROPS
350
F1
  0
DICTIONARY
  5
D
102
{ACAD_REACTORS
330
C
102
}
330
C
100
AcDbDictionary
  0
DICTIONARY
  5
17
102
{ACAD_REACTORS
330
C
102
}
330
C
100
AcDbDictionary
  3
STANDARD
350
18
  0
DICTIONARY
  5
47
102
{ACAD_REACTORS
330
C
102
}
330
C
100
AcDbDictionary
  0
XRECORD
  5
F1
102
{ACAD_REACTORS
330
C
102
}
330
C
100
AcDbXrecord
  1
DWGPROPS COOKIE
  2

  3

  4

  6

  7

  8
Pedro.Queiros
  9

300
=
301
=
302
=
303
=
304
=
305
=
306
=
307
=
308
=
309
=
 40
0.0
 41
2459508.701245648
 42
2459508.701246528
  1

 90
        0
  0
MLINESTYLE
  5
18
102
{ACAD_REACTORS
330
17
102
}
330
17
100
AcDbMlineStyle
  2
Standard
 70
     0
  3

 62
   256
 51
90.0
 52
90.0
 71
     2
 49
0.5
 62
   256
  6
BYLAYER
 49
-0.5
 62
   256
  6
BYLAYER
  0
ENDSEC
  0
EOF
