  0
SECTION
  2
HEADER
  9
$ACADVER
  1
AC1015
  9
$ACADMAINTVER
 70
     6
  9
$DWGCODEPAGE
  3
ANSI_1252
  9
$INSBASE
 10
0.0
 20
0.0
 30
0.0
  9
$EXTMIN
 10
0.0
 20
0.0
 30
0.0
  9
$EXTMAX
 10
279.4
 20
215.9
 30
0.0
  9
$LIMMIN
 10
0.0
 20
0.0
  9
$LIMMAX
 10
279.4
 20
215.9
  9
$ORTHOMODE
 70
     0
  9
$REGENMODE
 70
     1
  9
$FILLMODE
 70
     1
  9
$QTEXTMODE
 70
     0
  9
$MIRRTEXT
 70
     1
  9
$LTSCALE
 40
1.0
  9
$ATTMODE
 70
     1
  9
$TEXTSIZE
 40
3.5
  9
$TRACEWID
 40
1.0
  9
$TEXTSTYLE
  7
Standard
  9
$CLAYER
  8
0
  9
$CELTYPE
  6
ByLayer
  9
$CECOLOR
 62
   256
  9
$CELTSCALE
 40
1.0
  9
$DISPSILH
 70
     0
  9
$DIMSCALE
 40
1.0
  9
$DIMASZ
 40
3.302
  9
$DIMEXO
 40
1.0
  9
$DIMDLI
 40
3.75
  9
$DIMRND
 40
0.0
  9
$DIMDLE
 40
0.0
  9
$DIMEXE
 40
1.0
  9
$DIMTP
 40
0.0
  9
$DIMTM
 40
0.0
  9
$DIMTXT
 40
3.5
  9
$DIMCEN
 40
2.5
  9
$DIMTSZ
 40
0.0
  9
$DIMTOL
 70
     0
  9
$DIMLIM
 70
     0
  9
$DIMTIH
 70
     1
  9
$DIMTOH
 70
     1
  9
$DIMSE1
 70
     0
  9
$DIMSE2
 70
     0
  9
$DIMTAD
 70
     1
  9
$DIMZIN
 70
     0
  9
$DIMBLK
  1

  9
$DIMASO
 70
     1
  9
$DIMSHO
 70
     1
  9
$DIMPOST
  1

  9
$DIMAPOST
  1

  9
$DIMALT
 70
     0
  9
$DIMALTD
 70
     3
  9
$DIMALTF
 40
0.0393700787
  9
$DIMLFAC
 40
2.0
  9
$DIMTOFL
 70
     1
  9
$DIMTVP
 40
0.0
  9
$DIMTIX
 70
     0
  9
$DIMSOXD
 70
     0
  9
$DIMSAH
 70
     0
  9
$DIMBLK1
  1

  9
$DIMBLK2
  1

  9
$DIMSTYLE
  2
ISO-25
  9
$DIMCLRD
 70
     0
  9
$DIMCLRE
 70
     0
  9
$DIMCLRT
 70
     0
  9
$DIMTFAC
 40
1.0
  9
$DIMGAP
 40
1.524
  9
$DIMJUST
 70
     0
  9
$DIMSD1
 70
     0
  9
$DIMSD2
 70
     0
  9
$DIMTOLJ
 70
     0
  9
$DIMTZIN
 70
     0
  9
$DIMALTZ
 70
     0
  9
$DIMALTTZ
 70
     0
  9
$DIMUPT
 70
     0
  9
$DIMDEC
 70
     2
  9
$DIMTDEC
 70
     2
  9
$DIMALTU
 70
     2
  9
$DIMALTTD
 70
     3
  9
$DIMTXSTY
  7
Standard
  9
$DIMAUNIT
 70
     0
  9
$DIMADEC
 70
     2
  9
$DIMALTRND
 40
0.0
  9
$DIMAZIN
 70
     0
  9
$DIMDSEP
 70
    44
  9
$DIMATFIT
 70
     3
  9
$DIMFRAC
 70
     0
  9
$DIMLDRBLK
  1

  9
$DIMLUNIT
 70
     2
  9
$DIMLWD
 70
    -2
  9
$DIMLWE
 70
    -2
  9
$DIMTMOVE
 70
     0
  9
$LUNITS
 70
     2
  9
$LUPREC
 70
     2
  9
$SKETCHINC
 40
1.0
  9
$FILLETRAD
 40
10.0
  9
$AUNITS
 70
     0
  9
$AUPREC
 70
     2
  9
$MENU
  1
.
  9
$ELEVATION
 40
0.0
  9
$PELEVATION
 40
0.0
  9
$THICKNESS
 40
0.0
  9
$LIMCHECK
 70
     0
  9
$CHAMFERA
 40
0.0
  9
$CHAMFERB
 40
0.0
  9
$CHAMFERC
 40
0.0
  9
$CHAMFERD
 40
0.0
  9
$SKPOLY
 70
     0
  9
$TDCREATE
 40
2458206.737024016
  9
$TDUCREATE
 40
2458206.69535735
  9
$TDUPDATE
 40
2458206.737024364
  9
$TDUUPDATE
 40
2458206.695357697
  9
$TDINDWG
 40
0.0000000116
  9
$TDUSRTIMER
 40
0.0000000116
  9
$USRTIMER
 70
     1
  9
$ANGBASE
 50
0.0
  9
$ANGDIR
 70
     0
  9
$PDMODE
 70
     0
  9
$PDSIZE
 40
-1.0
  9
$PLINEWID
 40
0.0
  9
$SPLFRAME
 70
     0
  9
$SPLINETYPE
 70
     6
  9
$SPLINESEGS
 70
     8
  9
$HANDSEED
  5
1FD
  9
$SURFTAB1
 70
     6
  9
$SURFTAB2
 70
     6
  9
$SURFTYPE
 70
     6
  9
$SURFU
 70
     6
  9
$SURFV
 70
     6
  9
$UCSBASE
  2

  9
$UCSNAME
  2

  9
$UCSORG
 10
0.0
 20
0.0
 30
0.0
  9
$UCSXDIR
 10
1.0
 20
0.0
 30
0.0
  9
$UCSYDIR
 10
0.0
 20
1.0
 30
0.0
  9
$UCSORTHOREF
  2

  9
$UCSORTHOVIEW
 70
     0
  9
$UCSORGTOP
 10
0.0
 20
0.0
 30
0.0
  9
$UCSORGBOTTOM
 10
0.0
 20
0.0
 30
0.0
  9
$UCSORGLEFT
 10
0.0
 20
0.0
 30
0.0
  9
$UCSORGRIGHT
 10
0.0
 20
0.0
 30
0.0
  9
$UCSORGFRONT
 10
0.0
 20
0.0
 30
0.0
  9
$UCSORGBACK
 10
0.0
 20
0.0
 30
0.0
  9
$PUCSBASE
  2

  9
$PUCSNAME
  2

  9
$PUCSORG
 10
0.0
 20
0.0
 30
0.0
  9
$PUCSXDIR
 10
1.0
 20
0.0
 30
0.0
  9
$PUCSYDIR
 10
0.0
 20
1.0
 30
0.0
  9
$PUCSORTHOREF
  2

  9
$PUCSORTHOVIEW
 70
     0
  9
$PUCSORGTOP
 10
0.0
 20
0.0
 30
0.0
  9
$PUCSORGBOTTOM
 10
0.0
 20
0.0
 30
0.0
  9
$PUCSORGLEFT
 10
0.0
 20
0.0
 30
0.0
  9
$PUCSORGRIGHT
 10
0.0
 20
0.0
 30
0.0
  9
$PUCSORGFRONT
 10
0.0
 20
0.0
 30
0.0
  9
$PUCSORGBACK
 10
0.0
 20
0.0
 30
0.0
  9
$USERI1
 70
     0
  9
$USERI2
 70
     0
  9
$USERI3
 70
     0
  9
$USERI4
 70
     0
  9
$USERI5
 70
     0
  9
$USERR1
 40
0.0
  9
$USERR2
 40
0.0
  9
$USERR3
 40
0.0
  9
$USERR4
 40
0.0
  9
$USERR5
 40
0.0
  9
$WORLDVIEW
 70
     1
  9
$SHADEDGE
 70
     3
  9
$SHADEDIF
 70
    70
  9
$TILEMODE
 70
     1
  9
$MAXACTVP
 70
    64
  9
$PINSBASE
 10
0.0
 20
0.0
 30
0.0
  9
$PLIMCHECK
 70
     0
  9
$PEXTMIN
 10
1.0000000000E+20
 20
1.0000000000E+20
 30
1.0000000000E+20
  9
$PEXTMAX
 10
-1.0000000000E+20
 20
-1.0000000000E+20
 30
-1.0000000000E+20
  9
$PLIMMIN
 10
0.0
 20
0.0
  9
$PLIMMAX
 10
420.0
 20
297.0
  9
$UNITMODE
 70
     0
  9
$VISRETAIN
 70
     1
  9
$PLINEGEN
 70
     0
  9
$PSLTSCALE
 70
     1
  9
$TREEDEPTH
 70
  3020
  9
$CMLSTYLE
  2
Standard
  9
$CMLJUST
 70
     0
  9
$CMLSCALE
 40
20.0
  9
$PROXYGRAPHICS
 70
     1
  9
$MEASUREMENT
 70
     1
  9
$CELWEIGHT
370
    -1
  9
$ENDCAPS
280
     0
  9
$JOINSTYLE
280
     0
  9
$LWDISPLAY
290
     1
  9
$INSUNITS
 70
     4
  9
$HYPERLINKBASE
  1

  9
$STYLESHEET
  1

  9
$XEDIT
290
     1
  9
$CEPSNTYPE
380
     0
  9
$PSTYLEMODE
290
     1
  9
$FINGERPRINTGUID
  2
{DDCC4E2F-E6F8-4F54-AE2D-32B2B00AD016}
  9
$VERSIONGUID
  2
{FAEB1C32-E019-11D5-929B-00C0DF256EC4}
  9
$EXTNAMES
290
     1
  9
$PSVPSCALE
 40
0.0
  9
$OLESTARTUP
290
     0
  0
ENDSEC
  0
SECTION
  2
CLASSES
  0
CLASS
  1
ACDBDICTIONARYWDFLT
  2
AcDbDictionaryWithDefault
  3
ObjectDBX Classes
 90
        0
280
     0
281
     0
  0
CLASS
  1
VISUALSTYLE
  2
AcDbVisualStyle
  3
ObjectDBX Classes
 90
     4095
280
     0
281
     0
  0
CLASS
  1
MATERIAL
  2
AcDbMaterial
  3
ObjectDBX Classes
 90
     1153
280
     0
281
     0
  0
CLASS
  1
SCALE
  2
AcDbScale
  3
ObjectDBX Classes
 90
     1153
280
     0
281
     0
  0
CLASS
  1
TABLESTYLE
  2
AcDbTableStyle
  3
ObjectDBX Classes
 90
     4095
280
     0
281
     0
  0
CLASS
  1
MLEADERSTYLE
  2
AcDbMLeaderStyle
  3
ACDB_MLEADERSTYLE_CLASS
 90
     4095
280
     0
281
     0
  0
CLASS
  1
SUN
  2
AcDbSun
  3
SCENEOE
 90
     1153
280
     0
281
     0
  0
CLASS
  1
ACDBPLACEHOLDER
  2
AcDbPlaceHolder
  3
ObjectDBX Classes
 90
        0
280
     0
281
     0
  0
CLASS
  1
LAYOUT
  2
AcDbLayout
  3
ObjectDBX Classes
 90
        0
280
     0
281
     0
  0
ENDSEC
  0
SECTION
  2
TABLES
  0
TABLE
  2
VPORT
  5
8
330
0
100
AcDbSymbolTable
 70
     1
  0
VPORT
  5
29
330
8
100
AcDbSymbolTableRecord
100
AcDbViewportTableRecord
  2
*Active
 70
     0
 10
0.0
 20
0.0
 11
1.0
 21
1.0
 12
139.7
 22
107.95
 13
0.0
 23
0.0
 14
10.0
 24
10.0
 15
10.0
 25
10.0
 16
0.0
 26
0.0
 36
1.0
 17
0.0
 27
0.0
 37
0.0
 40
215.9
 41
1.2941176471
 42
50.0
 43
0.0
 44
0.0
 50
0.0
 51
0.0
 71
     0
 72
  2000
 73
     1
 74
     3
 75
     0
 76
     0
 77
     0
 78
     0
281
     0
 65
     1
110
0.0
120
0.0
130
0.0
111
1.0
121
0.0
131
0.0
112
0.0
122
1.0
132
0.0
 79
     0
146
0.0
  0
ENDTAB
  0
TABLE
  2
LTYPE
  5
5
330
0
100
AcDbSymbolTable
 70
     6
  0
LTYPE
  5
14
330
5
100
AcDbSymbolTableRecord
100
AcDbLinetypeTableRecord
  2
ByBlock
 70
     0
  3

 72
    65
 73
     0
 40
0.0
  0
LTYPE
  5
15
330
5
100
AcDbSymbolTableRecord
100
AcDbLinetypeTableRecord
  2
ByLayer
 70
     0
  3

 72
    65
 73
     0
 40
0.0
  0
LTYPE
  5
16
330
5
100
AcDbSymbolTableRecord
100
AcDbLinetypeTableRecord
  2
Continuous
 70
     0
  3
Solid line
 72
    65
 73
     0
 40
0.0
  0
LTYPE
  5
6E
330
5
100
AcDbSymbolTableRecord
100
AcDbLinetypeTableRecord
  2
HIDDEN
 70
     0
  3
Hidden __ __ __ __ __ __ __ __ __ __ __ __ __ __
 72
    65
 73
     2
 40
1.905
 49
1.27
 74
     0
 49
-0.635
 74
     0
  0
LTYPE
  5
6F
330
5
100
AcDbSymbolTableRecord
100
AcDbLinetypeTableRecord
  2
PHANTOM
 70
     0
  3
Phantom ______  __  __  ______  __  __  ______
 72
    65
 73
     6
 40
12.7
 49
6.35
 74
     0
 49
-1.27
 74
     0
 49
1.27
 74
     0
 49
-1.27
 74
     0
 49
1.27
 74
     0
 49
-1.27
 74
     0
  0
LTYPE
  5
70
330
5
100
AcDbSymbolTableRecord
100
AcDbLinetypeTableRecord
  2
CENTER
 70
     0
  3
Center ____ _ ____ _ ____ _ ____ _ ____ _ ____
 72
    65
 73
     4
 40
10.16
 49
6.35
 74
     0
 49
-1.27
 74
     0
 49
1.27
 74
     0
 49
-1.27
 74
     0
  0
LTYPE
  5
71
330
5
100
AcDbSymbolTableRecord
100
AcDbLinetypeTableRecord
  2
CENTERX2
 70
     0
  3
Center (2x) ________  __  ________  __  _____
 72
    65
 73
     4
 40
20.32
 49
12.7
 74
     0
 49
-2.54
 74
     0
 49
2.54
 74
     0
 49
-2.54
 74
     0
  0
LTYPE
  5
72
330
5
100
AcDbSymbolTableRecord
100
AcDbLinetypeTableRecord
  2
DOT2
 70
     0
  3
Dot (.5x) ........................................
 72
    65
 73
     2
 40
0.635
 49
0.0
 74
     0
 49
-0.635
 74
     0
  0
ENDTAB
  0
TABLE
  2
LAYER
  5
2
330
0
100
AcDbSymbolTable
 70
     1
  0
LAYER
  5
10
330
2
100
AcDbSymbolTableRecord
100
AcDbLayerTableRecord
  2
0
 70
     0
 62
     7
  6
Continuous
370
    -3
390
F
  0
ENDTAB
  0
TABLE
  2
STYLE
  5
3
330
0
100
AcDbSymbolTable
 70
     1
  0
STYLE
  5
11
330
3
100
AcDbSymbolTableRecord
100
AcDbTextStyleTableRecord
  2
Standard
 70
     0
 40
0.0
 41
1.0
 50
0.0
 71
     0
 42
3.5
  3
txt
  4

  0
ENDTAB
  0
TABLE
  2
VIEW
  5
6
330
0
100
AcDbSymbolTable
 70
     0
  0
ENDTAB
  0
TABLE
  2
UCS
  5
7
330
0
100
AcDbSymbolTable
 70
     0
  0
ENDTAB
  0
TABLE
  2
APPID
  5
9
330
0
100
AcDbSymbolTable
 70
     1
  0
APPID
  5
12
330
9
100
AcDbSymbolTableRecord
100
AcDbRegAppTableRecord
  2
ACAD
 70
     0
  0
ENDTAB
  0
TABLE
  2
DIMSTYLE
  5
A
330
0
100
AcDbSymbolTable
 70
     1
100
AcDbDimStyleTable
  0
DIMSTYLE
105
27
330
A
100
AcDbSymbolTableRecord
100
AcDbDimStyleTableRecord
  2
ISO-25
 70
     0
 41
2.5
 42
0.625
 43
3.75
 44
1.25
 73
     0
 74
     0
 77
     1
 78
     8
140
2.5
141
2.5
143
0.0393700787
147
0.625
171
     3
172
     1
178
     0
271
     2
272
     2
274
     3
278
    44
283
     0
284
     8
340
11
  0
ENDTAB
  0
TABLE
  2
BLOCK_RECORD
  5
1
330
0
100
AcDbSymbolTable
 70
     1
  0
BLOCK_RECORD
  5
1F
330
1
100
AcDbSymbolTableRecord
100
AcDbBlockTableRecord
  2
*Model_Space
340
22
  0
BLOCK_RECORD
  5
1B
330
1
100
AcDbSymbolTableRecord
100
AcDbBlockTableRecord
  2
*Paper_Space
340
1E
  0
BLOCK_RECORD
  5
23
330
1
100
AcDbSymbolTableRecord
100
AcDbBlockTableRecord
  2
*Paper_Space0
340
26
  0
ENDTAB
  0
ENDSEC
  0
SECTION
  2
BLOCKS
  0
BLOCK
  5
20
330
1F
100
AcDbEntity
  8
0
100
AcDbBlockBegin
  2
*Model_Space
 70
     0
 10
0.0
 20
0.0
 30
0.0
  3
*Model_Space
  1

  0
ENDBLK
  5
21
330
1F
100
AcDbEntity
  8
0
100
AcDbBlockEnd
  0
BLOCK
  5
1C
330
1B
100
AcDbEntity
 67
     1
  8
0
100
AcDbBlockBegin
  2
*Paper_Space
 70
     0
 10
0.0
 20
0.0
 30
0.0
  3
*Paper_Space
  1

  0
ENDBLK
  5
1D
330
1B
100
AcDbEntity
 67
     1
  8
0
100
AcDbBlockEnd
  0
BLOCK
  5
24
330
23
100
AcDbEntity
  8
0
100
AcDbBlockBegin
  2
*Paper_Space0
 70
     0
 10
0.0
 20
0.0
 30
0.0
  3
*Paper_Space0
  1

  0
ENDBLK
  5
25
330
23
100
AcDbEntity
  8
0
100
AcDbBlockEnd
  0
ENDSEC
  0
SECTION
  2
ENTITIES
  0
LINE
  5
73
330
1F
100
AcDbEntity
  8
0
  6
Continuous
 62
     7
370
    15
100
AcDbLine
 10
93.4010778443
 20
91.1806282871
 30
0.0
 11
93.2993211906
 21
91.0043810778
 31
0.0
  0
LINE
  5
74
330
1F
100
AcDbEntity
  8
0
  6
Continuous
 62
     7
370
    15
100
AcDbLine
 10
93.2993211906
 20
87.7843798422
 30
0.0
 11
93.4010778443
 21
87.6081326329
 31
0.0
  0
LINE
  5
75
330
1F
100
AcDbEntity
  8
0
  6
Continuous
 62
     7
370
    15
100
AcDbLine
 10
93.4010778443
 20
87.6081326329
 30
0.0
 11
93.5244878061
 21
87.7843798422
 31
0.0
  0
LINE
  5
76
330
1F
100
AcDbEntity
  8
0
  6
Continuous
 62
     7
370
    15
100
AcDbLine
 10
93.5244878061
 20
91.0043810778
 30
0.0
 11
93.4010778443
 21
91.1806282871
 31
0.0
  0
LINE
  5
77
330
1F
100
AcDbEntity
  8
0
  6
Continuous
 62
     7
370
    15
100
AcDbLine
 10
128.5244872276
 20
87.7614097022
 30
0.0
 11
128.537749261
 21
87.7843798422
 31
0.0
  0
LINE
  5
78
330
1F
100
AcDbEntity
  8
0
  6
Continuous
 62
     7
370
    15
100
AcDbLine
 10
128.537749261
 20
91.0043810778
 30
0.0
 11
128.5244872276
 21
91.0273493551
 31
0.0
  0
LINE
  5
79
330
1F
100
AcDbEntity
  8
0
  6
Continuous
 62
     7
370
    15
100
AcDbLine
 10
98.5244883638
 20
210.2253773534
 30
0.0
 11
98.5244883638
 21
194.9728318774
 31
0.0
  0
LINE
  5
7A
330
1F
100
AcDbEntity
  8
0
  6
Continuous
 62
     7
370
    15
100
AcDbLine
 10
98.5244883638
 20
170.4779305779
 30
0.0
 11
98.5244883638
 21
121.3943810486
 31
0.0
  0
LINE
  5
7B
330
1F
100
AcDbEntity
  8
0
  6
Continuous
 62
     7
370
    15
100
AcDbLine
 10
123.5244882706
 20
121.3943810486
 30
0.0
 11
123.5244882706
 21
170.4779305779
 31
0.0
  0
LINE
  5
7C
330
1F
100
AcDbEntity
  8
0
  6
Continuous
 62
     7
370
    15
100
AcDbLine
 10
123.5244882706
 20
194.9728318774
 30
0.0
 11
123.5244882706
 21
210.2253773534
 31
0.0
  0
LINE
  5
7D
330
1F
100
AcDbEntity
  8
0
  6
Continuous
 62
     7
370
    15
100
AcDbLine
 10
123.5244882706
 20
210.2253773534
 30
0.0
 11
123.0244872574
 21
210.7253858172
 31
0.0
  0
LINE
  5
7E
330
1F
100
AcDbEntity
  8
0
  6
Continuous
 62
     7
370
    15
100
AcDbLine
 10
99.0244879801
 20
210.7253858172
 30
0.0
 11
98.5244883638
 21
210.2253773534
 31
0.0
  0
LINE
  5
7F
330
1F
100
AcDbEntity
  8
0
  6
Continuous
 62
     7
370
    15
100
AcDbLine
 10
93.5244881554
 20
86.8943800502
 30
0.0
 11
94.02448815
 21
86.3943808996
 31
0.0
  0
LINE
  5
80
330
1F
100
AcDbEntity
  8
0
  6
Continuous
 62
     7
370
    15
100
AcDbLine
 10
128.0244899396
 20
86.3943808996
 30
0.0
 11
128.5244872276
 21
86.8943800502
 31
0.0
  0
LINE
  5
81
330
1F
100
AcDbEntity
  8
0
  6
Continuous
 62
     7
370
    15
100
AcDbLine
 10
128.5244872276
 20
91.0273493551
 30
0.0
 11
128.5244872276
 21
120.8943800353
 31
0.0
  0
LINE
  5
82
330
1F
100
AcDbEntity
  8
0
  6
Continuous
 62
     7
370
    15
100
AcDbLine
 10
128.5244872276
 20
86.8943800502
 30
0.0
 11
128.5244872276
 21
87.7443795376
 31
0.0
  0
LINE
  5
83
330
1F
100
AcDbEntity
  8
0
  6
Continuous
 62
     7
370
    15
100
AcDbLine
 10
93.5244881554
 20
87.7648816728
 30
0.0
 11
93.5244881554
 21
86.8943800502
 31
0.0
  0
LINE
  5
84
330
1F
100
AcDbEntity
  8
0
  6
Continuous
 62
     7
370
    15
100
AcDbLine
 10
93.5244881554
 20
115.4194214665
 30
0.0
 11
93.5244881554
 21
91.0443795197
 31
0.0
  0
LINE
  5
85
330
1F
100
AcDbEntity
  8
0
  6
Continuous
 62
     7
370
    15
100
AcDbLine
 10
93.5244881554
 20
120.8943800353
 30
0.0
 11
93.5244881554
 21
119.3943807208
 31
0.0
  0
LINE
  5
86
330
1F
100
AcDbEntity
  8
0
  6
Continuous
 62
     7
370
    15
100
AcDbLine
 10
128.5244872276
 20
120.8943800353
 30
0.0
 11
128.0244899396
 21
121.3943810486
 31
0.0
  0
LINE
  5
87
330
1F
100
AcDbEntity
  8
0
  6
Continuous
 62
     7
370
    15
100
AcDbLine
 10
94.02448815
 20
121.3943810486
 30
0.0
 11
93.5244881554
 21
120.8943800353
 31
0.0
  0
LINE
  5
88
330
1F
100
AcDbEntity
  8
0
  6
Continuous
 62
     7
370
    15
100
AcDbLine
 10
93.5244881554
 20
86.3943808996
 30
0.0
 11
93.5244881554
 21
81.39438008
 31
0.0
  0
LINE
  5
89
330
1F
100
AcDbEntity
  8
0
  6
Continuous
 62
     7
370
    15
100
AcDbLine
 10
128.5244872276
 20
81.39438008
 30
0.0
 11
128.5244872276
 21
86.3943808996
 31
0.0
  0
LINE
  5
8A
330
1F
100
AcDbEntity
  8
0
  6
Continuous
 62
     7
370
    15
100
AcDbLine
 10
93.5244878061
 20
87.7843798422
 30
0.0
 11
93.5244878061
 21
91.0043810778
 31
0.0
  0
LINE
  5
8B
330
1F
100
AcDbEntity
  8
0
  6
Continuous
 62
     7
370
    15
100
AcDbLine
 10
93.2993211906
 20
89.6862616115
 30
0.0
 11
93.2993211906
 21
91.0043810778
 31
0.0
  0
LINE
  5
8C
330
1F
100
AcDbEntity
  8
0
  6
Continuous
 62
     7
370
    15
100
AcDbLine
 10
93.2993211906
 20
87.7843798422
 30
0.0
 11
93.2993211906
 21
89.6862616115
 31
0.0
  0
LINE
  5
8D
330
1F
100
AcDbEntity
  8
0
  6
Continuous
 62
     7
370
    15
100
AcDbLine
 10
93.4010778443
 20
87.637731927
 30
0.0
 11
93.4010778443
 21
87.6081326329
 31
0.0
  0
LINE
  5
8E
330
1F
100
AcDbEntity
  8
0
  6
Continuous
 62
     7
370
    15
100
AcDbLine
 10
93.4010778443
 20
91.1806282871
 30
0.0
 11
93.4010778443
 21
87.637731927
 31
0.0
  0
LINE
  5
8F
330
1F
100
AcDbEntity
  8
0
  6
Continuous
 62
     7
370
    15
100
AcDbLine
 10
128.537749261
 20
91.0043810778
 30
0.0
 11
128.537749261
 21
87.7843798422
 31
0.0
  0
LINE
  5
90
330
1F
100
AcDbEntity
  8
0
  6
Continuous
 62
     7
370
    15
100
AcDbLine
 10
128.4359929565
 20
89.0762863033
 30
0.0
 11
128.4359929565
 21
91.1806282871
 31
0.0
  0
CIRCLE
  5
91
330
1F
100
AcDbEntity
  8
0
  6
Continuous
 62
     7
370
    15
100
AcDbCircle
 10
111.0244881623
 20
182.7253784417
 30
0.0
 40
15.49999999999998
  0
CIRCLE
  5
92
330
1F
100
AcDbEntity
  8
0
  6
Continuous
 62
     7
370
    15
100
AcDbCircle
 10
111.0244881623
 20
182.7253784417
 30
0.0
 40
17.50000000000002
  0
LINE
  5
93
330
1F
100
AcDbEntity
  8
0
  6
Continuous
 62
     7
370
    15
100
AcDbLine
 10
111.0244890157
 20
210.2253773534
 30
0.0
 11
98.5244883638
 21
210.2253773534
 31
0.0
  0
LINE
  5
94
330
1F
100
AcDbEntity
  8
0
  6
Continuous
 62
     7
370
    15
100
AcDbLine
 10
123.5244882706
 20
210.2253773534
 30
0.0
 11
111.0244890157
 21
210.2253773534
 31
0.0
  0
LINE
  5
95
330
1F
100
AcDbEntity
  8
0
  6
Continuous
 62
     7
370
    15
100
AcDbLine
 10
111.0244890157
 20
210.7253858172
 30
0.0
 11
123.0244872574
 21
210.7253858172
 31
0.0
  0
LINE
  5
96
330
1F
100
AcDbEntity
  8
0
  6
Continuous
 62
     7
370
    15
100
AcDbLine
 10
99.0244879801
 20
210.7253858172
 30
0.0
 11
111.0244890157
 21
210.7253858172
 31
0.0
  0
LINE
  5
97
330
1F
100
AcDbEntity
  8
0
  6
Continuous
 62
     7
370
    15
100
AcDbLine
 10
111.0244890157
 20
86.8943800502
 30
0.0
 11
128.5244872276
 21
86.8943800502
 31
0.0
  0
LINE
  5
98
330
1F
100
AcDbEntity
  8
0
  6
Continuous
 62
     7
370
    15
100
AcDbLine
 10
93.5244881554
 20
86.8943800502
 30
0.0
 11
111.0244890157
 21
86.8943800502
 31
0.0
  0
LINE
  5
99
330
1F
100
AcDbEntity
  8
0
  6
Continuous
 62
     7
370
    15
100
AcDbLine
 10
111.0244890157
 20
120.8943800353
 30
0.0
 11
93.5244881554
 21
120.8943800353
 31
0.0
  0
LINE
  5
9A
330
1F
100
AcDbEntity
  8
0
  6
Continuous
 62
     7
370
    15
100
AcDbLine
 10
128.5244872276
 20
120.8943800353
 30
0.0
 11
111.0244890157
 21
120.8943800353
 31
0.0
  0
SPLINE
  5
9B
330
1F
100
AcDbEntity
  8
0
  6
Continuous
 62
     7
370
    15
100
AcDbSpline
210
0.0
220
0.0
230
1.0
 70
     8
 71
     3
 72
    17
 73
    13
 74
     0
 42
0.000000001
 43
0.00000001
 40
0.0
 40
0.0
 40
0.0
 40
0.0
 40
0.1070471985321489
 40
0.2140824976008854
 40
0.3214149720454066
 40
0.4289463029194349
 40
0.5361533163287862
 40
0.643018408665483
 40
0.7500576606563002
 40
0.8575142261218849
 40
0.9649823358155227
 40
1.0
 40
1.0
 40
1.0
 40
1.0
 10
128.524487227565
 20
87.74437953762894
 30
0.0
 10
128.5227261223831
 20
87.76253979513321
 30
0.0
 10
128.5192041077853
 20
87.79885829143109
 30
0.0
 10
128.4947059996917
 20
88.08187737280866
 30
0.0
 10
128.4673495680616
 20
88.4993308793834
 30
0.0
 10
128.4475698398024
 20
89.02177915311754
 30
0.0
 10
128.4445660331958
 20
89.58506314962723
 30
0.0
 10
128.4593588685623
 20
90.12510422039186
 30
0.0
 10
128.4858438616931
 20
90.58668422161162
 30
0.0
 10
128.5110870206123
 20
90.9023025485654
 30
0.0
 10
128.5252819726879
 20
91.05293545119032
 30
0.0
 10
128.5231069639904
 20
91.02960992492365
 30
0.0
 10
128.5225724283516
 20
91.02387738458997
 30
0.0
  0
SPLINE
  5
9C
330
1F
100
AcDbEntity
  8
0
  6
Continuous
 62
     7
370
    15
100
AcDbSpline
210
0.0
220
0.0
230
1.0
 70
     8
 71
     3
 72
    17
 73
    13
 74
     0
 42
0.000000001
 43
0.00000001
 40
0.0
 40
0.0
 40
0.0
 40
0.0
 40
0.1070472159954269
 40
0.2140823728314839
 40
0.3214148508770521
 40
0.4289462097543667
 40
0.5361532420705586
 40
0.643018344012832
 40
0.7500576117250081
 40
0.8575142164840138
 40
0.9649823502942935
 40
1.0
 40
1.0
 40
1.0
 40
1.0
 10
93.52448815539516
 20
91.04437951974755
 30
0.0
 10
93.52624875358609
 20
91.02621910447371
 30
0.0
 10
93.52976975163182
 20
90.9899003197461
 30
0.0
 10
93.5542719477497
 20
90.70688393007215
 30
0.0
 10
93.58162378383719
 20
90.28942982130152
 30
0.0
 10
93.60140727573668
 20
89.76698183586554
 30
0.0
 10
93.60440881474487
 20
89.20369779667179
 30
0.0
 10
93.58961936736785
 20
88.66365664273258
 30
0.0
 10
93.56313496395649
 20
88.20207681560471
 30
0.0
 10
93.53788847769984
 20
87.88645776463427
 30
0.0
 10
93.52369244157569
 20
87.73582718167638
 30
0.0
 10
93.52586806453708
 20
87.75914984003485
 30
0.0
 10
93.52640275088176
 20
87.76488167278653
 30
0.0
  0
SPLINE
  5
9D
330
1F
100
AcDbEntity
  8
0
  6
Continuous
 62
     7
370
    15
100
AcDbSpline
210
0.0
220
0.0
230
1.0
 70
     8
 71
     3
 72
    17
 73
    13
 74
     0
 42
0.000000001
 43
0.00000001
 40
0.0
 40
0.0
 40
0.0
 40
0.0
 40
0.1068960480738891
 40
0.2137752765797191
 40
0.321088138156963
 40
0.4286957290709245
 40
0.5358286723692813
 40
0.642457075708836
 40
0.7493379601634048
 40
0.8568336423869878
 40
0.964350238363714
 40
1.0
 40
1.0
 40
1.0
 40
1.0
 10
93.52448815539516
 20
119.3943807207811
 30
0.0
 10
93.52706890854097
 20
119.372415278923
 30
0.0
 10
93.53223000876378
 20
119.3284878513612
 30
0.0
 10
93.56816578984905
 20
118.9862302590793
 30
0.0
 10
93.60838102903921
 20
118.4810331357889
 30
0.0
 10
93.63756472208802
 20
117.8480512406103
 30
0.0
 10
93.64205896995922
 20
117.165596053152
 30
0.0
 10
93.62040573866551
 20
116.5116567706759
 30
0.0
 10
93.58155579217349
 20
115.9522404335599
 30
0.0
 10
93.54437882121213
 20
115.568443499637
 30
0.0
 10
93.52338446927791
 20
115.3845915739914
 30
0.0
 10
93.52653810705733
 20
115.4124775882376
 30
0.0
 10
93.5273233923506
 20
115.4194214665163
 30
0.0
  0
LINE
  5
9E
330
1F
100
AcDbEntity
  8
0
  6
Continuous
 62
     7
370
    15
100
AcDbLine
 10
111.0244890157
 20
121.3943810486
 30
0.0
 11
128.0244899396
 21
121.3943810486
 31
0.0
  0
LINE
  5
9F
330
1F
100
AcDbEntity
  8
0
  6
Continuous
 62
     7
370
    15
100
AcDbLine
 10
94.02448815
 20
121.3943810486
 30
0.0
 11
111.0244890157
 21
121.3943810486
 31
0.0
  0
LINE
  5
A0
330
1F
100
AcDbEntity
  8
0
  6
Continuous
 62
     7
370
    15
100
AcDbLine
 10
111.0244890157
 20
86.3943808996
 30
0.0
 11
128.5244872276
 21
86.3943808996
 31
0.0
  0
LINE
  5
A1
330
1F
100
AcDbEntity
  8
0
  6
Continuous
 62
     7
370
    15
100
AcDbLine
 10
93.5244881554
 20
86.3943808996
 30
0.0
 11
111.0244890157
 21
86.3943808996
 31
0.0
  0
LINE
  5
A2
330
1F
100
AcDbEntity
  8
0
  6
Continuous
 62
     7
370
    15
100
AcDbLine
 10
111.0244890157
 20
81.39438008
 30
0.0
 11
128.5244872276
 21
81.39438008
 31
0.0
  0
LINE
  5
A3
330
1F
100
AcDbEntity
  8
0
  6
Continuous
 62
     7
370
    15
100
AcDbLine
 10
93.5244881554
 20
81.39438008
 30
0.0
 11
111.0244890157
 21
81.39438008
 31
0.0
  0
ARC
  5
A4
330
1F
100
AcDbEntity
  8
0
  6
Continuous
 62
     7
370
    15
100
AcDbCircle
 10
150.6909772771
 20
177.0253784417
 30
0.0
 40
0.8000000000000114
100
AcDbArc
 50
180.0
 51
270.0
  0
ARC
  5
A5
330
1F
100
AcDbEntity
  8
0
  6
Continuous
 62
     7
370
    15
100
AcDbCircle
 10
150.6909772771
 20
188.4253784417
 30
0.0
 40
0.8000000000000398
100
AcDbArc
 50
90.0
 51
180.0
  0
LINE
  5
A6
330
1F
100
AcDbEntity
  8
0
  6
Continuous
 62
     7
370
    15
100
AcDbLine
 10
150.6909769144
 20
176.2253755056
 30
0.0
 11
151.4618056011
 21
176.2253755056
 31
0.0
  0
LINE
  5
A7
330
1F
100
AcDbEntity
  8
0
  6
Continuous
 62
     7
370
    15
100
AcDbLine
 10
151.4622768503
 20
189.2253794991
 30
0.0
 11
150.6909769144
 21
189.2253794991
 31
0.0
  0
LINE
  5
A8
330
1F
100
AcDbEntity
  8
0
  6
Continuous
 62
     7
370
    15
100
AcDbLine
 10
183.8909773272
 20
200.2253719889
 30
0.0
 11
177.8909763437
 21
200.2253719889
 31
0.0
  0
LINE
  5
A9
330
1F
100
AcDbEntity
  8
0
  6
Continuous
 62
     7
370
    15
100
AcDbLine
 10
177.8909763437
 20
165.2253755652
 30
0.0
 11
183.8909773272
 21
165.2253755652
 31
0.0
  0
LINE
  5
AA
330
1F
100
AcDbEntity
  8
0
  6
Continuous
 62
     7
370
    15
100
AcDbLine
 10
177.8909763437
 20
190.2253815257
 30
0.0
 11
175.8909760159
 21
190.2253815257
 31
0.0
  0
LINE
  5
AB
330
1F
100
AcDbEntity
  8
0
  6
Continuous
 62
     7
370
    15
100
AcDbLine
 10
175.8909760159
 20
175.2253809296
 30
0.0
 11
177.8909763437
 21
175.2253809296
 31
0.0
  0
LINE
  5
AC
330
1F
100
AcDbEntity
  8
0
  6
Continuous
 62
     7
370
    15
100
AcDbLine
 10
183.8909773272
 20
165.2253755652
 30
0.0
 11
184.8909756285
 21
165.2253755652
 31
0.0
  0
LINE
  5
AD
330
1F
100
AcDbEntity
  8
0
  6
Continuous
 62
     7
370
    15
100
AcDbLine
 10
184.8909756285
 20
200.2253719889
 30
0.0
 11
183.8909773272
 21
200.2253719889
 31
0.0
  0
LINE
  5
AE
330
1F
100
AcDbEntity
  8
0
  6
Continuous
 62
     7
370
    15
100
AcDbLine
 10
184.8909756285
 20
172.7253758632
 30
0.0
 11
188.8909762841
 21
172.7253758632
 31
0.0
  0
LINE
  5
AF
330
1F
100
AcDbEntity
  8
0
  6
Continuous
 62
     7
370
    15
100
AcDbLine
 10
188.8909762841
 20
192.7253791415
 30
0.0
 11
184.8909756285
 21
192.7253791415
 31
0.0
  0
LINE
  5
B0
330
1F
100
AcDbEntity
  8
0
  6
Continuous
 62
     7
370
    15
100
AcDbLine
 10
195.8909755689
 20
200.2253719889
 30
0.0
 11
194.8909772676
 21
200.2253719889
 31
0.0
  0
LINE
  5
B1
330
1F
100
AcDbEntity
  8
0
  6
Continuous
 62
     7
370
    15
100
AcDbLine
 10
194.8909772676
 20
165.2253755652
 30
0.0
 11
195.8909755689
 21
165.2253755652
 31
0.0
  0
LINE
  5
B2
330
1F
100
AcDbEntity
  8
0
  6
Continuous
 62
     7
370
    15
100
AcDbLine
 10
194.8909772676
 20
192.7253791415
 30
0.0
 11
190.890976612
 21
192.7253791415
 31
0.0
  0
LINE
  5
B3
330
1F
100
AcDbEntity
  8
0
  6
Continuous
 62
     7
370
    15
100
AcDbLine
 10
190.890976612
 20
172.7253758632
 30
0.0
 11
194.8909772676
 21
172.7253758632
 31
0.0
  0
LINE
  5
B4
330
1F
100
AcDbEntity
  8
0
  6
Continuous
 62
     7
370
    15
100
AcDbLine
 10
196.0909789544
 20
200.2253719889
 30
0.0
 11
195.8909755689
 21
200.0253835046
 31
0.0
  0
LINE
  5
B5
330
1F
100
AcDbEntity
  8
0
  6
Continuous
 62
     7
370
    15
100
AcDbLine
 10
195.8909755689
 20
165.4253789508
 30
0.0
 11
196.0909789544
 21
165.2253755652
 31
0.0
  0
LINE
  5
B6
330
1F
100
AcDbEntity
  8
0
  6
Continuous
 62
     7
370
    15
100
AcDbLine
 10
196.8909775954
 20
200.2253719889
 30
0.0
 11
196.0909789544
 21
200.2253719889
 31
0.0
  0
LINE
  5
B7
330
1F
100
AcDbEntity
  8
0
  6
Continuous
 62
     7
370
    15
100
AcDbLine
 10
196.0909789544
 20
165.2253755652
 30
0.0
 11
196.8909775954
 21
165.2253755652
 31
0.0
  0
LINE
  5
B8
330
1F
100
AcDbEntity
  8
0
  6
Continuous
 62
     7
370
    15
100
AcDbLine
 10
196.8909775954
 20
165.2253755652
 30
0.0
 11
198.8909779233
 21
167.2253796183
 31
0.0
  0
LINE
  5
B9
330
1F
100
AcDbEntity
  8
0
  6
Continuous
 62
     7
370
    15
100
AcDbLine
 10
198.8909779233
 20
198.225382837
 30
0.0
 11
196.8909775954
 21
200.2253719889
 31
0.0
  0
LINE
  5
BA
330
1F
100
AcDbEntity
  8
0
  6
Continuous
 62
     7
370
    15
100
AcDbLine
 10
190.890976612
 20
190.7253750884
 30
0.0
 11
188.8909762841
 21
190.7253750884
 31
0.0
  0
LINE
  5
BB
330
1F
100
AcDbEntity
  8
0
  6
Continuous
 62
     7
370
    15
100
AcDbLine
 10
188.8909762841
 20
174.7253799164
 30
0.0
 11
190.890976612
 21
174.7253799164
 31
0.0
  0
LINE
  5
BC
330
1F
100
AcDbEntity
  8
0
  6
Continuous
 62
     7
370
    15
100
AcDbLine
 10
150.890977506
 20
175.2253809296
 30
0.0
 11
150.890977506
 21
121.3943810486
 31
0.0
  0
LINE
  5
BD
330
1F
100
AcDbEntity
  8
0
  6
Continuous
 62
     7
370
    15
100
AcDbLine
 10
150.890977506
 20
210.2253773534
 30
0.0
 11
150.890977506
 21
190.2129241549
 31
0.0
  0
LINE
  5
BE
330
1F
100
AcDbEntity
  8
0
  6
Continuous
 62
     7
370
    15
100
AcDbLine
 10
175.8909760159
 20
190.2253815257
 30
0.0
 11
175.8909760159
 21
210.2253773534
 31
0.0
  0
LINE
  5
BF
330
1F
100
AcDbEntity
  8
0
  6
Continuous
 62
     7
370
    15
100
AcDbLine
 10
175.8909760159
 20
121.3943810486
 30
0.0
 11
175.8909760159
 21
175.2253809296
 31
0.0
  0
LINE
  5
C0
330
1F
100
AcDbEntity
  8
0
  6
Continuous
 62
     7
370
    15
100
AcDbLine
 10
175.8909760159
 20
210.2253773534
 30
0.0
 11
175.3909787279
 21
210.7253858172
 31
0.0
  0
LINE
  5
C1
330
1F
100
AcDbEntity
  8
0
  6
Continuous
 62
     7
370
    15
100
AcDbLine
 10
151.390977588
 20
210.7253858172
 30
0.0
 11
150.890977506
 21
210.2253773534
 31
0.0
  0
LINE
  5
C2
330
1F
100
AcDbEntity
  8
0
  6
Continuous
 62
     7
370
    15
100
AcDbLine
 10
180.8909786981
 20
86.8943800502
 30
0.0
 11
180.8909786981
 21
120.8943800353
 31
0.0
  0
LINE
  5
C3
330
1F
100
AcDbEntity
  8
0
  6
Continuous
 62
     7
370
    15
100
AcDbLine
 10
145.8909776178
 20
120.8943800353
 30
0.0
 11
145.8909776178
 21
86.8943800502
 31
0.0
  0
LINE
  5
C4
330
1F
100
AcDbEntity
  8
0
  6
Continuous
 62
     7
370
    15
100
AcDbLine
 10
145.8909776178
 20
86.8943800502
 30
0.0
 11
146.3909776997
 21
86.3943808996
 31
0.0
  0
LINE
  5
C5
330
1F
100
AcDbEntity
  8
0
  6
Continuous
 62
     7
370
    15
100
AcDbLine
 10
180.3909776848
 20
86.3943808996
 30
0.0
 11
180.8909786981
 21
86.8943800502
 31
0.0
  0
LINE
  5
C6
330
1F
100
AcDbEntity
  8
0
  6
Continuous
 62
     7
370
    15
100
AcDbLine
 10
180.8909786981
 20
120.8943800353
 30
0.0
 11
180.3909776848
 21
121.3943810486
 31
0.0
  0
LINE
  5
C7
330
1F
100
AcDbEntity
  8
0
  6
Continuous
 62
     7
370
    15
100
AcDbLine
 10
146.3909776997
 20
121.3943810486
 30
0.0
 11
145.8909776178
 21
120.8943800353
 31
0.0
  0
LINE
  5
C8
330
1F
100
AcDbEntity
  8
0
  6
Continuous
 62
     7
370
    15
100
AcDbLine
 10
145.8909776178
 20
86.3943808996
 30
0.0
 11
145.8909776178
 21
81.39438008
 31
0.0
  0
LINE
  5
C9
330
1F
100
AcDbEntity
  8
0
  6
Continuous
 62
     7
370
    15
100
AcDbLine
 10
180.8909786981
 20
81.39438008
 30
0.0
 11
180.8909786981
 21
86.3943808996
 31
0.0
  0
LINE
  5
CA
330
1F
100
AcDbEntity
  8
0
  6
Continuous
 62
     7
370
    15
100
AcDbLine
 10
149.8909773421
 20
182.7253812277
 30
0.0
 11
149.8909773421
 21
188.4253808581
 31
0.0
  0
LINE
  5
CB
330
1F
100
AcDbEntity
  8
0
  6
Continuous
 62
     7
370
    15
100
AcDbLine
 10
149.8909773421
 20
177.0253815972
 30
0.0
 11
149.8909773421
 21
182.7253812277
 31
0.0
  0
CIRCLE
  5
CC
330
1F
100
AcDbEntity
  8
0
  6
Continuous
 62
     7
370
    15
100
AcDbCircle
 10
163.3909772771
 20
89.3943802956
 30
0.0
 40
1.610000000000006
  0
CIRCLE
  5
CD
330
1F
100
AcDbEntity
  8
0
  6
Continuous
 62
     7
370
    15
100
AcDbCircle
 10
163.3909772771
 20
89.3943802956
 30
0.0
 40
1.786247684198567
  0
LINE
  5
CE
330
1F
100
AcDbEntity
  8
0
  6
Continuous
 62
     7
370
    15
100
AcDbLine
 10
162.6419009757
 20
90.2731401198
 30
0.0
 11
162.2554114204
 21
89.1850405657
 31
0.0
  0
LINE
  5
CF
330
1F
100
AcDbEntity
  8
0
  6
Continuous
 62
     7
370
    15
100
AcDbLine
 10
163.0044872057
 20
88.3062818372
 30
0.0
 11
162.2554114204
 21
89.1850405657
 31
0.0
  0
LINE
  5
D0
330
1F
100
AcDbEntity
  8
0
  6
Continuous
 62
     7
370
    15
100
AcDbLine
 10
164.1400525462
 20
88.5156208002
 30
0.0
 11
163.0044872057
 21
88.3062818372
 31
0.0
  0
LINE
  5
D1
330
1F
100
AcDbEntity
  8
0
  6
Continuous
 62
     7
370
    15
100
AcDbLine
 10
164.1400525462
 20
88.5156208002
 30
0.0
 11
164.5265439641
 21
89.6037203544
 31
0.0
  0
LINE
  5
D2
330
1F
100
AcDbEntity
  8
0
  6
Continuous
 62
     7
370
    15
100
AcDbLine
 10
163.7774663162
 20
90.4824790829
 30
0.0
 11
164.5265439641
 21
89.6037203544
 31
0.0
  0
LINE
  5
D3
330
1F
100
AcDbEntity
  8
0
  6
Continuous
 62
     7
370
    15
100
AcDbLine
 10
163.7774663162
 20
90.4824790829
 30
0.0
 11
162.6419009757
 21
90.2731401198
 31
0.0
  0
LINE
  5
D4
330
1F
100
AcDbEntity
  8
0
  6
Continuous
 62
     7
370
    15
100
AcDbLine
 10
183.8909773272
 20
200.2253719889
 30
0.0
 11
183.8909773272
 21
165.2253755652
 31
0.0
  0
LINE
  5
D5
330
1F
100
AcDbEntity
  8
0
  6
Continuous
 62
     7
370
    15
100
AcDbLine
 10
177.8909763437
 20
200.2253719889
 30
0.0
 11
177.8909763437
 21
165.2253755652
 31
0.0
  0
LINE
  5
D6
330
1F
100
AcDbEntity
  8
0
  6
Continuous
 62
     7
370
    15
100
AcDbLine
 10
184.8909756285
 20
165.2253755652
 30
0.0
 11
184.8909756285
 21
200.2253719889
 31
0.0
  0
LINE
  5
D7
330
1F
100
AcDbEntity
  8
0
  6
Continuous
 62
     7
370
    15
100
AcDbLine
 10
188.8909762841
 20
172.7253758632
 30
0.0
 11
188.8909762841
 21
192.7253791415
 31
0.0
  0
LINE
  5
D8
330
1F
100
AcDbEntity
  8
0
  6
Continuous
 62
     7
370
    15
100
AcDbLine
 10
194.8909772676
 20
195.836667093
 30
0.0
 11
194.8909772676
 21
165.2253755652
 31
0.0
  0
LINE
  5
D9
330
1F
100
AcDbEntity
  8
0
  6
Continuous
 62
     7
370
    15
100
AcDbLine
 10
194.8909772676
 20
200.2253719889
 30
0.0
 11
194.8909772676
 21
195.836667093
 31
0.0
  0
LINE
  5
DA
330
1F
100
AcDbEntity
  8
0
  6
Continuous
 62
     7
370
    15
100
AcDbLine
 10
195.8909755689
 20
195.836667093
 30
0.0
 11
195.8909755689
 21
165.2253755652
 31
0.0
  0
LINE
  5
DB
330
1F
100
AcDbEntity
  8
0
  6
Continuous
 62
     7
370
    15
100
AcDbLine
 10
195.8909755689
 20
200.2253719889
 30
0.0
 11
195.8909755689
 21
195.836667093
 31
0.0
  0
LINE
  5
DC
330
1F
100
AcDbEntity
  8
0
  6
Continuous
 62
     7
370
    15
100
AcDbLine
 10
190.890976612
 20
190.2175435149
 30
0.0
 11
190.890976612
 21
172.7253758632
 31
0.0
  0
LINE
  5
DD
330
1F
100
AcDbEntity
  8
0
  6
Continuous
 62
     7
370
    15
100
AcDbLine
 10
190.890976612
 20
192.7253791415
 30
0.0
 11
190.890976612
 21
190.2175435149
 31
0.0
  0
LINE
  5
DE
330
1F
100
AcDbEntity
  8
0
  6
Continuous
 62
     7
370
    15
100
AcDbLine
 10
196.0909789544
 20
195.6836023652
 30
0.0
 11
196.0909789544
 21
165.2253755652
 31
0.0
  0
LINE
  5
DF
330
1F
100
AcDbEntity
  8
0
  6
Continuous
 62
     7
370
    15
100
AcDbLine
 10
196.0909789544
 20
200.2253719889
 30
0.0
 11
196.0909789544
 21
195.6836023652
 31
0.0
  0
LINE
  5
E0
330
1F
100
AcDbEntity
  8
0
  6
Continuous
 62
     7
370
    15
100
AcDbLine
 10
196.8909775954
 20
165.2253755652
 30
0.0
 11
196.8909775954
 21
200.2253719889
 31
0.0
  0
LINE
  5
E1
330
1F
100
AcDbEntity
  8
0
  6
Continuous
 62
     7
370
    15
100
AcDbLine
 10
198.8909779233
 20
198.225382837
 30
0.0
 11
198.8909779233
 21
167.2253796183
 31
0.0
  0
SPLINE
  5
E2
330
1F
100
AcDbEntity
  8
0
  6
Continuous
 62
     7
370
    15
100
AcDbSpline
210
0.0
220
0.0
230
1.0
 70
     8
 71
     3
 72
    28
 73
    24
 74
     0
 42
0.000000001
 43
0.00000001
 40
0.0
 40
0.0
 40
0.0
 40
0.0
 40
0.0469044176408351
 40
0.0952997670226958
 40
0.1421749175924604
 40
0.1902361253665496
 40
0.2407772817763072
 40
0.2924855308842273
 40
0.348954897863764
 40
0.407252133057621
 40
0.4501174805758537
 40
0.4941794157598101
 40
0.5370720799264408
 40
0.5812559783621508
 40
0.6238031449528091
 40
0.6672554479313432
 40
0.717248894672799
 40
0.7683575290509751
 40
0.8250404488100852
 40
0.8835732521454263
 40
0.9364770458546624
 40
0.9914290203178676
 40
1.0
 40
1.0
 40
1.0
 40
1.0
 10
150.8909775060257
 20
175.2253809296358
 30
0.0
 10
150.9010027083942
 20
175.2420285047619
 30
0.0
 10
150.9213717801815
 20
175.2758528247474
 30
0.0
 10
151.081470454162
 20
175.545547111711
 30
0.0
 10
151.3222825803645
 20
175.9646943350745
 30
0.0
 10
151.6361698153801
 20
176.5385968099134
 30
0.0
 10
152.0062364599844
 20
177.2683485712516
 30
0.0
 10
152.4156076424638
 20
178.1729302760703
 30
0.0
 10
152.8257470419403
 20
179.2553838954884
 30
0.0
 10
153.1451243667553
 20
180.400525677254
 30
0.0
 10
153.3372181447007
 20
181.5292553927274
 30
0.0
 10
153.4085271312832
 20
182.5742476516014
 30
0.0
 10
153.3678709507572
 20
183.6341218087878
 30
0.0
 10
153.2223636208292
 20
184.6546742155467
 30
0.0
 10
152.9913807722886
 20
185.6268502664331
 30
0.0
 10
152.688463875658
 20
186.5723086245209
 30
0.0
 10
152.3258811257383
 20
187.4852759176446
 30
0.0
 10
151.9197008610728
 20
188.361352849044
 30
0.0
 10
151.5191706983586
 20
189.1331061590129
 30
0.0
 10
151.18293151373
 20
189.7313982251887
 30
0.0
 10
150.9677383265059
 20
190.0977529274446
 30
0.0
 10
150.8789845645262
 20
190.2454032175125
 30
0.0
 10
150.8961247246002
 20
190.2167854698887
 30
0.0
 10
150.8984373998484
 20
190.2129241549242
 30
0.0
  0
SPLINE
  5
E3
330
1F
100
AcDbEntity
  8
0
  6
Continuous
 62
     7
370
    15
100
AcDbSpline
210
0.0
220
0.0
230
1.0
 70
     8
 71
     3
 72
    17
 73
    13
 74
     0
 42
0.000000001
 43
0.00000001
 40
0.0
 40
0.0
 40
0.0
 40
0.0
 40
0.0920092256637349
 40
0.1871622844330192
 40
0.2790658145367738
 40
0.3731149117526817
 40
0.4763008472249342
 40
0.5819127721635767
 40
0.6955855032216063
 40
0.8132395256160573
 40
0.9158279495818995
 40
1.0
 40
1.0
 40
1.0
 40
1.0
 10
173.3909784000954
 20
182.725381227659
 30
0.0
 10
173.4031123398717
 20
183.0965516748131
 30
0.0
 10
173.4277948200396
 20
183.8515749705993
 30
0.0
 10
173.6170826063824
 20
184.9389610709014
 30
0.0
 10
173.8889274984923
 20
185.96657349605
 30
0.0
 10
174.2305711058691
 20
186.9382402390459
 30
0.0
 10
174.6185147624158
 20
187.8500022974302
 30
0.0
 10
175.0270947584922
 20
188.6876620954043
 30
0.0
 10
175.410943987961
 20
189.4014473197168
 30
0.0
 10
175.6993565377234
 20
189.9037519478339
 30
0.0
 10
175.8682910459413
 20
190.187692876581
 30
0.0
 10
175.8763863317847
 20
190.2010691697129
 30
0.0
 10
175.880034838303
 20
190.2070978008974
 30
0.0
  0
SPLINE
  5
E4
330
1F
100
AcDbEntity
  8
0
  6
Continuous
 62
     7
370
    15
100
AcDbSpline
210
0.0
220
0.0
230
1.0
 70
     8
 71
     3
 72
    17
 73
    13
 74
     0
 42
0.000000001
 43
0.00000001
 40
0.0
 40
0.0
 40
0.0
 40
0.0
 40
0.0850838377475273
 40
0.1791100861429708
 40
0.2692145315285138
 40
0.3614641966769451
 40
0.4614608129195986
 40
0.5637505869139563
 40
0.6760208900606025
 40
0.7917557064282817
 40
0.8938537316619221
 40
1.0
 40
1.0
 40
1.0
 40
1.0
 10
175.8879138272843
 20
175.2304994785059
 30
0.0
 10
175.8809211699881
 20
175.2421094256605
 30
0.0
 10
175.866200918953
 20
175.2665495389654
 30
0.0
 10
175.7235877492051
 20
175.5063179039266
 30
0.0
 10
175.5024829479167
 20
175.8892123577276
 30
0.0
 10
175.2082223054175
 20
176.4218893258681
 30
0.0
 10
174.8524819082621
 20
177.1113057160647
 30
0.0
 10
174.4480762905435
 20
177.9818957499535
 30
0.0
 10
174.0330266419821
 20
179.0303431345347
 30
0.0
 10
173.6828351401173
 20
180.2060728879963
 30
0.0
 10
173.4389217168065
 20
181.4564362329377
 30
0.0
 10
173.4071652860175
 20
182.2969530487158
 30
0.0
 10
173.3909784000954
 20
182.725381227659
 30
0.0
  0
LINE
  5
E5
330
1F
100
AcDbEntity
  8
0
  6
Continuous
 62
     7
370
    15
100
AcDbLine
 10
175.8909760159
 20
210.2253773534
 30
0.0
 11
150.890977506
 21
210.2253773534
 31
0.0
  0
LINE
  5
E6
330
1F
100
AcDbEntity
  8
0
  6
Continuous
 62
     7
370
    15
100
AcDbLine
 10
151.390977588
 20
210.7253858172
 30
0.0
 11
175.3909787279
 21
210.7253858172
 31
0.0
  0
LINE
  5
E7
330
1F
100
AcDbEntity
  8
0
  6
Continuous
 62
     7
370
    15
100
AcDbLine
 10
180.8909786981
 20
120.8943800353
 30
0.0
 11
145.8909776178
 21
120.8943800353
 31
0.0
  0
LINE
  5
E8
330
1F
100
AcDbEntity
  8
0
  6
Continuous
 62
     7
370
    15
100
AcDbLine
 10
145.8909776178
 20
86.8943800502
 30
0.0
 11
180.8909786981
 21
86.8943800502
 31
0.0
  0
SPLINE
  5
E9
330
1F
100
AcDbEntity
  8
0
  6
Continuous
 62
     7
370
    15
100
AcDbSpline
210
0.0
220
0.0
230
1.0
 70
    11
 71
     3
 72
    26
 73
    22
 74
     0
 42
0.000000001
 43
0.00000001
 40
0.0
 40
0.0
 40
0.0
 40
0.0
 40
0.0534508686411542
 40
0.1068933270506943
 40
0.1605526135353246
 40
0.2143592725313381
 40
0.2679285950887305
 40
0.3212456342404398
 40
0.3746889206684156
 40
0.4284396223412445
 40
0.4822007814471796
 40
0.5356608380752679
 40
0.5889780315156237
 40
0.6425287006656598
 40
0.6963304313416727
 40
0.7500084340469553
 40
0.8033775908130522
 40
0.8567359384280004
 40
0.9103965903950658
 40
0.9642030022048311
 40
1.0
 40
1.0
 40
1.0
 40
1.0
 10
163.3909767609677
 20
119.3943807207811
 30
0.0
 10
163.6150591089166
 20
119.3724155781377
 30
0.0
 10
164.0631885465579
 20
119.3284887489581
 30
0.0
 10
164.6601570943733
 20
118.9862266632821
 30
0.0
 10
165.1159345054231
 20
118.4810466969195
 30
0.0
 10
165.3781755297437
 20
117.848000559065
 30
0.0
 10
165.4161327751257
 20
117.1657838819191
 30
0.0
 10
165.2273740313361
 20
116.5109586621167
 30
0.0
 10
164.833732012194
 20
115.9548594703357
 30
0.0
 10
164.2769525513673
 20
115.5586063592507
 30
0.0
 10
163.6193619407291
 20
115.3689479669113
 30
0.0
 10
162.9376511459297
 20
115.4075216844818
 30
0.0
 10
162.3082920056317
 20
115.6678990472369
 30
0.0
 10
161.7991085699828
 20
116.1215001679083
 30
0.0
 10
161.4674664388832
 20
116.7196970236687
 30
0.0
 10
161.352832474085
 20
117.3941693709772
 30
0.0
 10
161.4671519989093
 20
118.0663608755387
 30
0.0
 10
161.7960031736507
 20
118.6635102041488
 30
0.0
 10
162.3039492136318
 20
119.1165527688925
 30
0.0
 10
162.8668655076936
 20
119.3594231288679
 30
0.0
 10
163.2413631371617
 20
119.3844016715373
 30
0.0
 10
163.3909767609677
 20
119.3943807207811
 30
0.0
  0
LINE
  5
EA
330
1F
100
AcDbEntity
  8
0
  6
Continuous
 62
     7
370
    15
100
AcDbLine
 10
146.3909776997
 20
121.3943810486
 30
0.0
 11
180.3909776848
 21
121.3943810486
 31
0.0
  0
LINE
  5
EB
330
1F
100
AcDbEntity
  8
0
  6
Continuous
 62
     7
370
    15
100
AcDbLine
 10
145.8909776178
 20
86.3943808996
 30
0.0
 11
180.8909786981
 21
86.3943808996
 31
0.0
  0
LINE
  5
EC
330
1F
100
AcDbEntity
  8
0
  6
Continuous
 62
     7
370
    15
100
AcDbLine
 10
145.8909776178
 20
81.39438008
 30
0.0
 11
180.8909786981
 21
81.39438008
 31
0.0
  0
LINE
  5
ED
330
1F
100
AcDbEntity
  8
0
  6
Continuous
 62
     8
370
    15
100
AcDbLine
 10
150.6909769144
 20
182.7253812277
 30
0.0
 11
150.6909769144
 21
176.2253755056
 31
0.0
  0
LINE
  5
EE
330
1F
100
AcDbEntity
  8
0
  6
Continuous
 62
     8
370
    15
100
AcDbLine
 10
150.6909769144
 20
189.2253794991
 30
0.0
 11
150.6909769144
 21
182.7253812277
 31
0.0
  0
LINE
  5
EF
330
1F
100
AcDbEntity
  8
0
  6
Continuous
 62
     7
370
    15
100
AcDbLine
 10
256.4259792289
 20
91.1806282871
 30
0.0
 11
256.3025692671
 21
91.0043810778
 31
0.0
  0
LINE
  5
F0
330
1F
100
AcDbEntity
  8
0
  6
Continuous
 62
     7
370
    15
100
AcDbLine
 10
256.3025692671
 20
87.7843798422
 30
0.0
 11
256.4259792289
 21
87.6081326329
 31
0.0
  0
LINE
  5
F1
330
1F
100
AcDbEntity
  8
0
  6
Continuous
 62
     7
370
    15
100
AcDbLine
 10
256.4259792289
 20
87.6081326329
 30
0.0
 11
256.5277358827
 21
87.7843798422
 31
0.0
  0
LINE
  5
F2
330
1F
100
AcDbEntity
  8
0
  6
Continuous
 62
     7
370
    15
100
AcDbLine
 10
256.5277358827
 20
91.0043810778
 30
0.0
 11
256.4259792289
 21
91.1806282871
 31
0.0
  0
LINE
  5
F3
330
1F
100
AcDbEntity
  8
0
  6
Continuous
 62
     7
370
    15
100
AcDbLine
 10
221.3025698457
 20
91.0273493551
 30
0.0
 11
221.2893078123
 21
91.0043810778
 31
0.0
  0
LINE
  5
F4
330
1F
100
AcDbEntity
  8
0
  6
Continuous
 62
     7
370
    15
100
AcDbLine
 10
221.2893078123
 20
87.7843798422
 30
0.0
 11
221.3124008868
 21
87.7443795376
 31
0.0
  0
LINE
  5
F5
330
1F
100
AcDbEntity
  8
0
  6
Continuous
 62
     7
370
    15
100
AcDbLine
 10
226.3025688026
 20
210.2253773534
 30
0.0
 11
226.3025688026
 21
121.3943810486
 31
0.0
  0
LINE
  5
F6
330
1F
100
AcDbEntity
  8
0
  6
Continuous
 62
     7
370
    15
100
AcDbLine
 10
251.3025687095
 20
121.3943810486
 30
0.0
 11
251.3025687095
 21
210.2253773534
 31
0.0
  0
LINE
  5
F7
330
1F
100
AcDbEntity
  8
0
  6
Continuous
 62
     7
370
    15
100
AcDbLine
 10
251.3025687095
 20
210.2253773534
 30
0.0
 11
250.8025690932
 21
210.7253858172
 31
0.0
  0
LINE
  5
F8
330
1F
100
AcDbEntity
  8
0
  6
Continuous
 62
     7
370
    15
100
AcDbLine
 10
226.8025698159
 20
210.7253858172
 30
0.0
 11
226.3025688026
 21
210.2253773534
 31
0.0
  0
LINE
  5
F9
330
1F
100
AcDbEntity
  8
0
  6
Continuous
 62
     7
370
    15
100
AcDbLine
 10
256.3025689179
 20
119.3943807208
 30
0.0
 11
256.3025689179
 21
120.8943800353
 31
0.0
  0
LINE
  5
FA
330
1F
100
AcDbEntity
  8
0
  6
Continuous
 62
     7
370
    15
100
AcDbLine
 10
256.3025689179
 20
91.0443795197
 30
0.0
 11
256.3025689179
 21
115.4194214665
 31
0.0
  0
LINE
  5
FB
330
1F
100
AcDbEntity
  8
0
  6
Continuous
 62
     7
370
    15
100
AcDbLine
 10
256.3025689179
 20
86.8943800502
 30
0.0
 11
256.3025689179
 21
87.7648816728
 31
0.0
  0
LINE
  5
FC
330
1F
100
AcDbEntity
  8
0
  6
Continuous
 62
     7
370
    15
100
AcDbLine
 10
221.3025698457
 20
87.7443795376
 30
0.0
 11
221.3025698457
 21
86.8943800502
 31
0.0
  0
LINE
  5
FD
330
1F
100
AcDbEntity
  8
0
  6
Continuous
 62
     7
370
    15
100
AcDbLine
 10
221.3025698457
 20
120.8943800353
 30
0.0
 11
221.3025698457
 21
91.0273493551
 31
0.0
  0
LINE
  5
FE
330
1F
100
AcDbEntity
  8
0
  6
Continuous
 62
     7
370
    15
100
AcDbLine
 10
221.3025698457
 20
86.8943800502
 30
0.0
 11
221.8025671337
 21
86.3943808996
 31
0.0
  0
LINE
  5
FF
330
1F
100
AcDbEntity
  8
0
  6
Continuous
 62
     7
370
    15
100
AcDbLine
 10
255.8025689232
 20
86.3943808996
 30
0.0
 11
256.3025689179
 21
86.8943800502
 31
0.0
  0
LINE
  5
100
330
1F
100
AcDbEntity
  8
0
  6
Continuous
 62
     7
370
    15
100
AcDbLine
 10
256.3025689179
 20
120.8943800353
 30
0.0
 11
255.8025689232
 21
121.3943810486
 31
0.0
  0
LINE
  5
101
330
1F
100
AcDbEntity
  8
0
  6
Continuous
 62
     7
370
    15
100
AcDbLine
 10
221.8025671337
 20
121.3943810486
 30
0.0
 11
221.3025698457
 21
120.8943800353
 31
0.0
  0
LINE
  5
102
330
1F
100
AcDbEntity
  8
0
  6
Continuous
 62
     7
370
    15
100
AcDbLine
 10
221.3025698457
 20
86.3943808996
 30
0.0
 11
221.3025698457
 21
81.39438008
 31
0.0
  0
LINE
  5
103
330
1F
100
AcDbEntity
  8
0
  6
Continuous
 62
     7
370
    15
100
AcDbLine
 10
256.3025689179
 20
81.39438008
 30
0.0
 11
256.3025689179
 21
86.3943808996
 31
0.0
  0
CIRCLE
  5
104
330
1F
100
AcDbEntity
  8
0
  6
Continuous
 62
     7
370
    15
100
AcDbCircle
 10
238.8025689109
 20
182.7253784417
 30
0.0
 40
5.699999999999989
  0
CIRCLE
  5
105
330
1F
100
AcDbEntity
  8
0
  6
Continuous
 62
     7
370
    15
100
AcDbCircle
 10
238.8025689109
 20
182.7253784417
 30
0.0
 40
6.500000000000028
  0
LINE
  5
106
330
1F
100
AcDbEntity
  8
0
  6
Continuous
 62
     7
370
    15
100
AcDbLine
 10
238.8025680576
 20
186.2010249221
 30
0.0
 11
235.7925688867
 21
184.4631993496
 31
0.0
  0
LINE
  5
107
330
1F
100
AcDbEntity
  8
0
  6
Continuous
 62
     7
370
    15
100
AcDbLine
 10
235.7925688867
 20
184.4631993496
 30
0.0
 11
235.7925688867
 21
180.9875556552
 31
0.0
  0
LINE
  5
108
330
1F
100
AcDbEntity
  8
0
  6
Continuous
 62
     7
370
    15
100
AcDbLine
 10
238.8025680576
 20
179.2497300827
 30
0.0
 11
235.7925688867
 21
180.9875556552
 31
0.0
  0
LINE
  5
109
330
1F
100
AcDbEntity
  8
0
  6
Continuous
 62
     7
370
    15
100
AcDbLine
 10
241.8125690911
 20
180.9875556552
 30
0.0
 11
238.8025680576
 21
179.2497300827
 31
0.0
  0
LINE
  5
10A
330
1F
100
AcDbEntity
  8
0
  6
Continuous
 62
     7
370
    15
100
AcDbLine
 10
241.8125690911
 20
180.9875556552
 30
0.0
 11
241.8125690911
 21
184.4631993496
 31
0.0
  0
LINE
  5
10B
330
1F
100
AcDbEntity
  8
0
  6
Continuous
 62
     7
370
    15
100
AcDbLine
 10
238.8025680576
 20
186.2010249221
 30
0.0
 11
241.8125690911
 21
184.4631993496
 31
0.0
  0
ARC
  5
10C
330
1F
100
AcDbEntity
  8
0
  6
Continuous
 62
     7
370
    15
100
AcDbCircle
 10
238.8025689109
 20
182.7253784417
 30
0.0
 40
3.010000000000014
100
AcDbArc
 50
180.0
 51
240.0
  0
ARC
  5
10D
330
1F
100
AcDbEntity
  8
0
  6
Continuous
 62
     7
370
    15
100
AcDbCircle
 10
238.8025689109
 20
182.7253784417
 30
0.0
 40
3.009999999999991
100
AcDbArc
 50
120.0
 51
180.0
  0
ARC
  5
10E
330
1F
100
AcDbEntity
  8
0
  6
Continuous
 62
     7
370
    15
100
AcDbCircle
 10
238.8025689109
 20
182.7253784417
 30
0.0
 40
3.010000000000029
100
AcDbArc
 50
300.0
 51
0.0
  0
ARC
  5
10F
330
1F
100
AcDbEntity
  8
0
  6
Continuous
 62
     7
370
    15
100
AcDbCircle
 10
238.8025689109
 20
182.7253784417
 30
0.0
 40
3.010000000000029
100
AcDbArc
 50
240.0
 51
300.0
  0
ARC
  5
110
330
1F
100
AcDbEntity
  8
0
  6
Continuous
 62
     7
370
    15
100
AcDbCircle
 10
238.8025689109
 20
182.7253784417
 30
0.0
 40
3.009999999999965
100
AcDbArc
 50
60.0
 51
120.0
  0
ARC
  5
111
330
1F
100
AcDbEntity
  8
0
  6
Continuous
 62
     7
370
    15
100
AcDbCircle
 10
238.8025689109
 20
182.7253784417
 30
0.0
 40
3.009999999999991
100
AcDbArc
 50
0.0
 51
60.0
  0
LINE
  5
112
330
1F
100
AcDbEntity
  8
0
  6
Continuous
 62
     7
370
    15
100
AcDbLine
 10
256.3025692671
 20
91.0043810778
 30
0.0
 11
256.3025692671
 21
87.7843798422
 31
0.0
  0
LINE
  5
113
330
1F
100
AcDbEntity
  8
0
  6
Continuous
 62
     7
370
    15
100
AcDbLine
 10
256.4259792289
 20
87.6081326329
 30
0.0
 11
256.4259792289
 21
91.1806282871
 31
0.0
  0
LINE
  5
114
330
1F
100
AcDbEntity
  8
0
  6
Continuous
 62
     7
370
    15
100
AcDbLine
 10
256.5277358827
 20
91.0043810778
 30
0.0
 11
256.5277358827
 21
87.7843798422
 31
0.0
  0
LINE
  5
115
330
1F
100
AcDbEntity
  8
0
  6
Continuous
 62
     7
370
    15
100
AcDbLine
 10
221.2893078123
 20
87.7843798422
 30
0.0
 11
221.2893078123
 21
91.0043810778
 31
0.0
  0
LINE
  5
116
330
1F
100
AcDbEntity
  8
0
  6
Continuous
 62
     7
370
    15
100
AcDbLine
 10
221.3910641168
 20
89.7124746167
 30
0.0
 11
221.3910641168
 21
89.0762863033
 31
0.0
  0
ARC
  5
117
330
1F
100
AcDbEntity
  8
0
  6
Continuous
 62
     7
370
    15
100
AcDbCircle
 10
238.8025689109
 20
182.7253784417
 30
0.0
 40
17.50000000000001
100
AcDbArc
 50
315.5846914028
 51
44.4153085972
  0
ARC
  5
118
330
1F
100
AcDbEntity
  8
0
  6
Continuous
 62
     7
370
    15
100
AcDbCircle
 10
238.8025689109
 20
182.7253784417
 30
0.0
 40
17.50000000000001
100
AcDbArc
 50
135.5846914028
 51
224.4153085972
  0
SPLINE
  5
119
330
1F
100
AcDbEntity
  8
0
  6
Continuous
 62
     7
370
    15
100
AcDbSpline
210
0.0
220
0.0
230
1.0
 70
    11
 71
     3
 72
    48
 73
    44
 74
     0
 42
0.000000001
 43
0.00000001
 40
0.0
 40
0.0
 40
0.0
 40
0.0
 40
0.0238199031205997
 40
0.0476481609993625
 40
0.0713757855905224
 40
0.0951165729995737
 40
0.1206770559870375
 40
0.1462425760846072
 40
0.1749503986623816
 40
0.2036262157455055
 40
0.2253638709087004
 40
0.2470886071528268
 40
0.268851516422114
 40
0.2906250748781316
 40
0.3121187852537021
 40
0.3336256740517985
 40
0.3589003574176387
 40
0.3841782123905791
 40
0.4129939254045331
 40
0.4417855233697895
 40
0.4687559163189874
 40
0.4957095686897728
 40
0.5189943720287041
 40
0.5422854446966761
 40
0.5650043896302287
 40
0.5877347064862584
 40
0.6128311952005355
 40
0.6379349362595057
 40
0.6663191288678897
 40
0.6946793357399363
 40
0.7169054415195018
 40
0.739114959044476
 40
0.7614020353071463
 40
0.7836965716435167
 40
0.8049178706528084
 40
0.8261529457246259
 40
0.8506523697741595
 40
0.8751580140624345
 40
0.903686814500229
 40
0.9321957528916268
 40
0.9598032863808034
 40
0.9873892490866043
 40
1.0
 40
1.0
 40
1.0
 40
1.0
 10
238.8025680575765
 20
175.2253809296358
 30
0.0
 10
239.1868699466129
 20
175.2429696244821
 30
0.0
 10
239.955608517398
 20
175.2781531833556
 30
0.0
 10
241.0714608597997
 20
175.5482946310483
 30
0.0
 10
242.1178685698932
 20
175.9675013633356
 30
0.0
 10
243.1006818948455
 20
176.5434043906477
 30
0.0
 10
243.9949683526347
 20
177.2718290360299
 30
0.0
 10
244.813546534702
 20
178.1817934212869
 30
0.0
 10
245.4985547986602
 20
179.2627120320208
 30
0.0
 10
245.9712631317928
 20
180.4120281764806
 30
0.0
 10
246.2308790854049
 20
181.5345431000452
 30
0.0
 10
246.3266083048733
 20
182.5842468911335
 30
0.0
 10
246.2701987530871
 20
183.639061831989
 30
0.0
 10
246.0728818403953
 20
184.6630179967715
 30
0.0
 10
245.7412171375148
 20
185.6297974473365
 30
0.0
 10
245.2675065930025
 20
186.5790530029128
 30
0.0
 10
244.6339793312809
 20
187.4883893902619
 30
0.0
 10
243.7946889861926
 20
188.3692820276141
 30
0.0
 10
242.7678237910544
 20
189.1367949129856
 30
0.0
 10
241.5805489755477
 20
189.7349050957739
 30
0.0
 10
240.311210848408
 20
190.1080099600277
 30
0.0
 10
239.0700291630114
 20
190.2546601517384
 30
0.0
 10
237.8810155309766
 20
190.1954693072148
 30
0.0
 10
236.7876703902509
 20
189.9782517098372
 30
0.0
 10
235.7609162357012
 20
189.6079535797809
 30
0.0
 10
234.784800602865
 20
189.0915163329497
 30
0.0
 10
233.8786421311825
 20
188.4211554160408
 30
0.0
 10
233.0293687020684
 20
187.5657873217714
 30
0.0
 10
232.3012428393526
 20
186.5389890674499
 30
0.0
 10
231.7711811168147
 20
185.4265227539744
 30
0.0
 10
231.4487999018299
 20
184.3169841048363
 30
0.0
 10
231.294614393697
 20
183.2534435915201
 30
0.0
 10
231.2985412629611
 20
182.1711585896256
 30
0.0
 10
231.4506563856264
 20
181.1222802488157
 30
0.0
 10
231.7404118346152
 20
180.1368688569983
 30
0.0
 10
232.1640568549103
 20
179.1810692107378
 30
0.0
 10
232.7397604488862
 20
178.2634747933543
 30
0.0
 10
233.5130514561767
 20
177.3612932535702
 30
0.0
 10
234.4755002658188
 20
176.5536497571127
 30
0.0
 10
235.6195688729278
 20
175.8898679093875
 30
0.0
 10
236.872606300167
 20
175.4417447236427
 30
0.0
 10
237.9513180214622
 20
175.2462007747942
 30
0.0
 10
238.5992842554574
 20
175.2303528381278
 30
0.0
 10
238.8025680575765
 20
175.2253809296358
 30
0.0
  0
LINE
  5
11A
330
1F
100
AcDbEntity
  8
0
  6
Continuous
 62
     7
370
    15
100
AcDbLine
 10
251.3025687095
 20
210.2253773534
 30
0.0
 11
226.3025688026
 21
210.2253773534
 31
0.0
  0
LINE
  5
11B
330
1F
100
AcDbEntity
  8
0
  6
Continuous
 62
     7
370
    15
100
AcDbLine
 10
226.8025698159
 20
210.7253858172
 30
0.0
 11
250.8025690932
 21
210.7253858172
 31
0.0
  0
LINE
  5
11C
330
1F
100
AcDbEntity
  8
0
  6
Continuous
 62
     7
370
    15
100
AcDbLine
 10
256.3025689179
 20
120.8943800353
 30
0.0
 11
221.3025698457
 21
120.8943800353
 31
0.0
  0
LINE
  5
11D
330
1F
100
AcDbEntity
  8
0
  6
Continuous
 62
     7
370
    15
100
AcDbLine
 10
221.3025698457
 20
86.8943800502
 30
0.0
 11
256.3025689179
 21
86.8943800502
 31
0.0
  0
SPLINE
  5
11E
330
1F
100
AcDbEntity
  8
0
  6
Continuous
 62
     7
370
    15
100
AcDbSpline
210
0.0
220
0.0
230
1.0
 70
     8
 71
     3
 72
     9
 73
     5
 74
     0
 42
0.000000001
 43
0.00000001
 40
0.0
 40
0.0
 40
0.0
 40
0.0
 40
0.6241381751501044
 40
1.0
 40
1.0
 40
1.0
 40
1.0
 10
221.3044846449293
 20
91.02387738458997
 30
0.0
 10
221.3040920149881
 20
91.02921322255612
 30
0.0
 10
221.3034629396378
 20
91.03776235186534
 30
0.0
 10
221.3110503579217
 20
90.94923661880017
 30
0.0
 10
221.3139021788038
 20
90.91596317522412
 30
0.0
  0
SPLINE
  5
11F
330
1F
100
AcDbEntity
  8
0
  6
Continuous
 62
     7
370
    15
100
AcDbSpline
210
0.0
220
0.0
230
1.0
 70
     8
 71
     3
 72
     9
 73
     5
 74
     0
 42
0.000000001
 43
0.00000001
 40
0.0
 40
0.0
 40
0.0
 40
0.0
 40
0.393730682983411
 40
1.0
 40
1.0
 40
1.0
 40
1.0
 10
221.313954332868
 20
87.87337143950349
 30
0.0
 10
221.3110491924562
 20
87.83947871088778
 30
0.0
 10
221.3036706960948
 20
87.75339771674507
 30
0.0
 10
221.3029853500153
 20
87.74778335368616
 30
0.0
 10
221.3025698457159
 20
87.74437953762894
 30
0.0
  0
ARC
  5
120
330
1F
100
AcDbEntity
  8
0
  6
Continuous
 62
     7
370
    15
100
AcDbCircle
 10
273.7604662132
 20
89.3944379858
 30
0.0
 40
17.53569174681341
100
AcDbArc
 50
174.6010267204
 51
185.3320738739
  0
ARC
  5
121
330
1F
100
AcDbEntity
  8
0
  6
Continuous
 62
     7
370
    15
100
AcDbCircle
 10
273.7413431012
 20
117.3944614501
 30
0.0
 40
17.55307728309109
100
AcDbArc
 50
173.4577677798
 51
186.4604970006
  0
LINE
  5
122
330
1F
100
AcDbEntity
  8
0
  6
Continuous
 62
     7
370
    15
100
AcDbLine
 10
221.8025671337
 20
121.3943810486
 30
0.0
 11
255.8025689232
 21
121.3943810486
 31
0.0
  0
LINE
  5
123
330
1F
100
AcDbEntity
  8
0
  6
Continuous
 62
     7
370
    15
100
AcDbLine
 10
221.3025698457
 20
81.39438008
 30
0.0
 11
256.3025689179
 21
81.39438008
 31
0.0
  0
LINE
  5
124
330
1F
100
AcDbEntity
  8
0
  6
Continuous
 62
     7
370
    15
100
AcDbLine
 10
221.3025698457
 20
86.3943808996
 30
0.0
 11
256.3025689179
 21
86.3943808996
 31
0.0
  0
ARC
  5
125
330
1F
100
AcDbEntity
  8
0
  6
Continuous
 62
     7
370
    15
100
AcDbCircle
 10
67.9604350268
 20
188.4253784417
 30
0.0
 40
0.8000000000000398
100
AcDbArc
 50
0.0
 51
90.0
  0
ARC
  5
126
330
1F
100
AcDbEntity
  8
0
  6
Continuous
 62
     7
370
    15
100
AcDbCircle
 10
67.9604350268
 20
177.0253784417
 30
0.0
 40
0.8000000000000114
100
AcDbArc
 50
270.0
 51
0.0
  0
LINE
  5
127
330
1F
100
AcDbEntity
  8
0
  6
Continuous
 62
     7
370
    15
100
AcDbLine
 10
67.9604353895
 20
189.2253794991
 30
0.0
 11
67.188755474
 21
189.2253794991
 31
0.0
  0
LINE
  5
128
330
1F
100
AcDbEntity
  8
0
  6
Continuous
 62
     7
370
    15
100
AcDbLine
 10
67.1906367456
 20
176.2253755056
 30
0.0
 11
67.9604353895
 21
176.2253755056
 31
0.0
  0
LINE
  5
129
330
1F
100
AcDbEntity
  8
0
  6
Continuous
 62
     7
370
    15
100
AcDbLine
 10
34.7604349767
 20
165.2253755652
 30
0.0
 11
40.7604359602
 21
165.2253755652
 31
0.0
  0
LINE
  5
12A
330
1F
100
AcDbEntity
  8
0
  6
Continuous
 62
     7
370
    15
100
AcDbLine
 10
40.7604359602
 20
200.2253719889
 30
0.0
 11
34.7604349767
 21
200.2253719889
 31
0.0
  0
LINE
  5
12B
330
1F
100
AcDbEntity
  8
0
  6
Continuous
 62
     7
370
    15
100
AcDbLine
 10
40.7604359602
 20
175.2253809296
 30
0.0
 11
42.760436288
 21
175.2253809296
 31
0.0
  0
LINE
  5
12C
330
1F
100
AcDbEntity
  8
0
  6
Continuous
 62
     7
370
    15
100
AcDbLine
 10
42.760436288
 20
190.2253815257
 30
0.0
 11
40.7604359602
 21
190.2253815257
 31
0.0
  0
LINE
  5
12D
330
1F
100
AcDbEntity
  8
0
  6
Continuous
 62
     7
370
    15
100
AcDbLine
 10
34.7604349767
 20
200.2253719889
 30
0.0
 11
33.7604366755
 21
200.2253719889
 31
0.0
  0
LINE
  5
12E
330
1F
100
AcDbEntity
  8
0
  6
Continuous
 62
     7
370
    15
100
AcDbLine
 10
33.7604366755
 20
165.2253755652
 30
0.0
 11
34.7604349767
 21
165.2253755652
 31
0.0
  0
LINE
  5
12F
330
1F
100
AcDbEntity
  8
0
  6
Continuous
 62
     7
370
    15
100
AcDbLine
 10
33.7604366755
 20
192.7253791415
 30
0.0
 11
29.7604360198
 21
192.7253791415
 31
0.0
  0
LINE
  5
130
330
1F
100
AcDbEntity
  8
0
  6
Continuous
 62
     7
370
    15
100
AcDbLine
 10
29.7604360198
 20
172.7253758632
 30
0.0
 11
33.7604366755
 21
172.7253758632
 31
0.0
  0
LINE
  5
131
330
1F
100
AcDbEntity
  8
0
  6
Continuous
 62
     7
370
    15
100
AcDbLine
 10
22.7604367351
 20
165.2253755652
 30
0.0
 11
23.7604350363
 21
165.2253755652
 31
0.0
  0
LINE
  5
132
330
1F
100
AcDbEntity
  8
0
  6
Continuous
 62
     7
370
    15
100
AcDbLine
 10
23.7604350363
 20
200.2253719889
 30
0.0
 11
22.7604367351
 21
200.2253719889
 31
0.0
  0
LINE
  5
133
330
1F
100
AcDbEntity
  8
0
  6
Continuous
 62
     7
370
    15
100
AcDbLine
 10
23.7604350363
 20
172.7253758632
 30
0.0
 11
27.760435692
 21
172.7253758632
 31
0.0
  0
LINE
  5
134
330
1F
100
AcDbEntity
  8
0
  6
Continuous
 62
     7
370
    15
100
AcDbLine
 10
27.760435692
 20
192.7253791415
 30
0.0
 11
23.7604350363
 21
192.7253791415
 31
0.0
  0
LINE
  5
135
330
1F
100
AcDbEntity
  8
0
  6
Continuous
 62
     7
370
    15
100
AcDbLine
 10
22.5604333495
 20
165.2253755652
 30
0.0
 11
22.7604367351
 21
165.4253789508
 31
0.0
  0
LINE
  5
136
330
1F
100
AcDbEntity
  8
0
  6
Continuous
 62
     7
370
    15
100
AcDbLine
 10
22.7604367351
 20
200.0253835046
 30
0.0
 11
22.5604333495
 21
200.2253719889
 31
0.0
  0
LINE
  5
137
330
1F
100
AcDbEntity
  8
0
  6
Continuous
 62
     7
370
    15
100
AcDbLine
 10
21.7604347085
 20
165.2253755652
 30
0.0
 11
22.5604333495
 21
165.2253755652
 31
0.0
  0
LINE
  5
138
330
1F
100
AcDbEntity
  8
0
  6
Continuous
 62
     7
370
    15
100
AcDbLine
 10
22.5604333495
 20
200.2253719889
 30
0.0
 11
21.7604347085
 21
200.2253719889
 31
0.0
  0
LINE
  5
139
330
1F
100
AcDbEntity
  8
0
  6
Continuous
 62
     7
370
    15
100
AcDbLine
 10
21.7604347085
 20
200.2253719889
 30
0.0
 11
19.7604343807
 21
198.225382837
 31
0.0
  0
LINE
  5
13A
330
1F
100
AcDbEntity
  8
0
  6
Continuous
 62
     7
370
    15
100
AcDbLine
 10
19.7604343807
 20
167.2253796183
 30
0.0
 11
21.7604347085
 21
165.2253755652
 31
0.0
  0
LINE
  5
13B
330
1F
100
AcDbEntity
  8
0
  6
Continuous
 62
     7
370
    15
100
AcDbLine
 10
27.760435692
 20
174.7253799164
 30
0.0
 11
29.7604360198
 21
174.7253799164
 31
0.0
  0
LINE
  5
13C
330
1F
100
AcDbEntity
  8
0
  6
Continuous
 62
     7
370
    15
100
AcDbLine
 10
29.7604360198
 20
190.7253750884
 30
0.0
 11
27.760435692
 21
190.7253750884
 31
0.0
  0
LINE
  5
13D
330
1F
100
AcDbEntity
  8
0
  6
Continuous
 62
     7
370
    15
100
AcDbLine
 10
67.7604347979
 20
210.2253773534
 30
0.0
 11
67.260434716
 21
210.7253858172
 31
0.0
  0
LINE
  5
13E
330
1F
100
AcDbEntity
  8
0
  6
Continuous
 62
     7
370
    15
100
AcDbLine
 10
43.260433576
 20
210.7253858172
 30
0.0
 11
42.760436288
 21
210.2253773534
 31
0.0
  0
LINE
  5
13F
330
1F
100
AcDbEntity
  8
0
  6
Continuous
 62
     7
370
    15
100
AcDbLine
 10
42.760436288
 20
175.2253809296
 30
0.0
 11
42.760436288
 21
121.3943810486
 31
0.0
  0
LINE
  5
140
330
1F
100
AcDbEntity
  8
0
  6
Continuous
 62
     7
370
    15
100
AcDbLine
 10
42.760436288
 20
210.2253773534
 30
0.0
 11
42.760436288
 21
190.2253815257
 31
0.0
  0
LINE
  5
141
330
1F
100
AcDbEntity
  8
0
  6
Continuous
 62
     7
370
    15
100
AcDbLine
 10
67.7604347979
 20
190.2129241549
 30
0.0
 11
67.7604347979
 21
210.2253773534
 31
0.0
  0
LINE
  5
142
330
1F
100
AcDbEntity
  8
0
  6
Continuous
 62
     7
370
    15
100
AcDbLine
 10
67.7604347979
 20
121.3943810486
 30
0.0
 11
67.7604347979
 21
175.2253809296
 31
0.0
  0
LINE
  5
143
330
1F
100
AcDbEntity
  8
0
  6
Continuous
 62
     7
370
    15
100
AcDbLine
 10
37.7604336058
 20
86.8943800502
 30
0.0
 11
38.2604346191
 21
86.3943808996
 31
0.0
  0
LINE
  5
144
330
1F
100
AcDbEntity
  8
0
  6
Continuous
 62
     7
370
    15
100
AcDbLine
 10
72.2604346042
 20
86.3943808996
 30
0.0
 11
72.7604346862
 21
86.8943800502
 31
0.0
  0
LINE
  5
145
330
1F
100
AcDbEntity
  8
0
  6
Continuous
 62
     7
370
    15
100
AcDbLine
 10
72.7604346862
 20
86.8943800502
 30
0.0
 11
72.7604346862
 21
120.8943800353
 31
0.0
  0
LINE
  5
146
330
1F
100
AcDbEntity
  8
0
  6
Continuous
 62
     7
370
    15
100
AcDbLine
 10
37.7604336058
 20
120.8943800353
 30
0.0
 11
37.7604336058
 21
86.8943800502
 31
0.0
  0
LINE
  5
147
330
1F
100
AcDbEntity
  8
0
  6
Continuous
 62
     7
370
    15
100
AcDbLine
 10
72.7604346862
 20
120.8943800353
 30
0.0
 11
72.2604346042
 21
121.3943810486
 31
0.0
  0
LINE
  5
148
330
1F
100
AcDbEntity
  8
0
  6
Continuous
 62
     7
370
    15
100
AcDbLine
 10
38.2604346191
 20
121.3943810486
 30
0.0
 11
37.7604336058
 21
120.8943800353
 31
0.0
  0
LINE
  5
149
330
1F
100
AcDbEntity
  8
0
  6
Continuous
 62
     7
370
    15
100
AcDbLine
 10
37.7604336058
 20
86.3943808996
 30
0.0
 11
37.7604336058
 21
81.39438008
 31
0.0
  0
LINE
  5
14A
330
1F
100
AcDbEntity
  8
0
  6
Continuous
 62
     7
370
    15
100
AcDbLine
 10
72.7604346862
 20
81.39438008
 30
0.0
 11
72.7604346862
 21
86.3943808996
 31
0.0
  0
LINE
  5
14B
330
1F
100
AcDbEntity
  8
0
  6
Continuous
 62
     7
370
    15
100
AcDbLine
 10
68.7604349618
 20
188.4253808581
 30
0.0
 11
68.7604349618
 21
177.0253815972
 31
0.0
  0
CIRCLE
  5
14C
330
1F
100
AcDbEntity
  8
0
  6
Continuous
 62
     7
370
    15
100
AcDbCircle
 10
55.2604350268
 20
89.3943802956
 30
0.0
 40
1.609999999999999
  0
LINE
  5
14D
330
1F
100
AcDbEntity
  8
0
  6
Continuous
 62
     7
370
    15
100
AcDbLine
 10
53.4741867845
 20
89.3943795287
 30
0.0
 11
53.502739272
 21
89.7124746167
 31
0.0
  0
LWPOLYLINE
  5
14E
330
1F
100
AcDbEntity
  8
0
  6
Continuous
 62
     7
370
    15
100
AcDbPolyline
 90
        3
 70
   128
 43
0.0
 10
57.0181318139
 20
89.7124746167
 10
57.0466824388
 20
89.3943795287
 10
57.0181318139
 20
89.0762863033
  0
LINE
  5
14F
330
1F
100
AcDbEntity
  8
0
  6
Continuous
 62
     7
370
    15
100
AcDbLine
 10
53.502739272
 20
89.0762863033
 30
0.0
 11
53.4741867845
 21
89.3943795287
 31
0.0
  0
LINE
  5
150
330
1F
100
AcDbEntity
  8
0
  6
Continuous
 62
     7
370
    15
100
AcDbLine
 10
54.2604353791
 20
89.9717306071
 30
0.0
 11
55.260435543
 21
90.5490816855
 31
0.0
  0
LINE
  5
151
330
1F
100
AcDbEntity
  8
0
  6
Continuous
 62
     7
370
    15
100
AcDbLine
 10
54.2604353791
 20
88.8170303129
 30
0.0
 11
54.2604353791
 21
89.9717306071
 31
0.0
  0
LINE
  5
152
330
1F
100
AcDbEntity
  8
0
  6
Continuous
 62
     7
370
    15
100
AcDbLine
 10
54.2604353791
 20
88.8170303129
 30
0.0
 11
55.260435543
 21
88.2396792346
 31
0.0
  0
LINE
  5
153
330
1F
100
AcDbEntity
  8
0
  6
Continuous
 62
     7
370
    15
100
AcDbLine
 10
56.2604357069
 20
88.8170303129
 30
0.0
 11
55.260435543
 21
88.2396792346
 31
0.0
  0
LINE
  5
154
330
1F
100
AcDbEntity
  8
0
  6
Continuous
 62
     7
370
    15
100
AcDbLine
 10
56.2604357069
 20
89.9717306071
 30
0.0
 11
55.260435543
 21
90.5490816855
 31
0.0
  0
LINE
  5
155
330
1F
100
AcDbEntity
  8
0
  6
Continuous
 62
     7
370
    15
100
AcDbLine
 10
56.2604357069
 20
88.8170303129
 30
0.0
 11
56.2604357069
 21
89.9717306071
 31
0.0
  0
LINE
  5
156
330
1F
100
AcDbEntity
  8
0
  6
Continuous
 62
     7
370
    15
100
AcDbLine
 10
40.7604359602
 20
197.1852519833
 30
0.0
 11
40.7604359602
 21
200.2253719889
 31
0.0
  0
LINE
  5
157
330
1F
100
AcDbEntity
  8
0
  6
Continuous
 62
     7
370
    15
100
AcDbLine
 10
40.7604359602
 20
165.2253755652
 30
0.0
 11
40.7604359602
 21
197.1852519833
 31
0.0
  0
LINE
  5
158
330
1F
100
AcDbEntity
  8
0
  6
Continuous
 62
     7
370
    15
100
AcDbLine
 10
34.7604349767
 20
197.1852519833
 30
0.0
 11
34.7604349767
 21
200.2253719889
 31
0.0
  0
LINE
  5
159
330
1F
100
AcDbEntity
  8
0
  6
Continuous
 62
     7
370
    15
100
AcDbLine
 10
34.7604349767
 20
165.2253755652
 30
0.0
 11
34.7604349767
 21
197.1852519833
 31
0.0
  0
LINE
  5
15A
330
1F
100
AcDbEntity
  8
0
  6
Continuous
 62
     7
370
    15
100
AcDbLine
 10
33.7604366755
 20
183.7406047904
 30
0.0
 11
33.7604366755
 21
165.2253755652
 31
0.0
  0
LINE
  5
15B
330
1F
100
AcDbEntity
  8
0
  6
Continuous
 62
     7
370
    15
100
AcDbLine
 10
33.7604366755
 20
200.2253719889
 30
0.0
 11
33.7604366755
 21
183.7406047904
 31
0.0
  0
LINE
  5
15C
330
1F
100
AcDbEntity
  8
0
  6
Continuous
 62
     7
370
    15
100
AcDbLine
 10
34.7604349767
 20
183.7406047904
 30
0.0
 11
34.7604349767
 21
165.2253755652
 31
0.0
  0
LINE
  5
15D
330
1F
100
AcDbEntity
  8
0
  6
Continuous
 62
     7
370
    15
100
AcDbLine
 10
34.7604349767
 20
200.2253719889
 30
0.0
 11
34.7604349767
 21
183.7406047904
 31
0.0
  0
LINE
  5
15E
330
1F
100
AcDbEntity
  8
0
  6
Continuous
 62
     7
370
    15
100
AcDbLine
 10
29.7604360198
 20
183.3055057847
 30
0.0
 11
29.7604360198
 21
172.7253758632
 31
0.0
  0
LINE
  5
15F
330
1F
100
AcDbEntity
  8
0
  6
Continuous
 62
     7
370
    15
100
AcDbLine
 10
29.7604360198
 20
192.7253791415
 30
0.0
 11
29.7604360198
 21
183.3055057847
 31
0.0
  0
LINE
  5
160
330
1F
100
AcDbEntity
  8
0
  6
Continuous
 62
     7
370
    15
100
AcDbLine
 10
23.7604350363
 20
165.2253755652
 30
0.0
 11
23.7604350363
 21
200.2253719889
 31
0.0
  0
LINE
  5
161
330
1F
100
AcDbEntity
  8
0
  6
Continuous
 62
     7
370
    15
100
AcDbLine
 10
22.7604367351
 20
165.2253755652
 30
0.0
 11
22.7604367351
 21
200.2253719889
 31
0.0
  0
LINE
  5
162
330
1F
100
AcDbEntity
  8
0
  6
Continuous
 62
     7
370
    15
100
AcDbLine
 10
27.760435692
 20
172.7253758632
 30
0.0
 11
27.760435692
 21
192.7253791415
 31
0.0
  0
LINE
  5
163
330
1F
100
AcDbEntity
  8
0
  6
Continuous
 62
     7
370
    15
100
AcDbLine
 10
22.5604333495
 20
165.2253755652
 30
0.0
 11
22.5604333495
 21
200.2253719889
 31
0.0
  0
LINE
  5
164
330
1F
100
AcDbEntity
  8
0
  6
Continuous
 62
     7
370
    15
100
AcDbLine
 10
21.7604347085
 20
169.7671526396
 30
0.0
 11
21.7604347085
 21
165.2253755652
 31
0.0
  0
LINE
  5
165
330
1F
100
AcDbEntity
  8
0
  6
Continuous
 62
     7
370
    15
100
AcDbLine
 10
21.7604347085
 20
200.2253719889
 30
0.0
 11
21.7604347085
 21
169.7671526396
 31
0.0
  0
LINE
  5
166
330
1F
100
AcDbEntity
  8
0
  6
Continuous
 62
     7
370
    15
100
AcDbLine
 10
19.7604343807
 20
171.2480896436
 30
0.0
 11
19.7604343807
 21
198.225382837
 31
0.0
  0
LINE
  5
167
330
1F
100
AcDbEntity
  8
0
  6
Continuous
 62
     7
370
    15
100
AcDbLine
 10
19.7604343807
 20
167.2253796183
 30
0.0
 11
19.7604343807
 21
171.2480896436
 31
0.0
  0
LINE
  5
168
330
1F
100
AcDbEntity
  8
0
  6
Continuous
 62
     7
370
    15
100
AcDbLine
 10
67.7604347979
 20
210.2253773534
 30
0.0
 11
42.760436288
 21
210.2253773534
 31
0.0
  0
LINE
  5
169
330
1F
100
AcDbEntity
  8
0
  6
Continuous
 62
     7
370
    15
100
AcDbLine
 10
43.260433576
 20
210.7253858172
 30
0.0
 11
67.260434716
 21
210.7253858172
 31
0.0
  0
LWPOLYLINE
  5
16A
330
1F
100
AcDbEntity
  8
0
  6
Continuous
 62
     7
370
    15
100
AcDbPolyline
 90
       23
 70
   128
 43
0.0
 10
67.7529749041
 20
190.2129241549
 10
67.7279735496
 20
190.1711487495
 10
67.5971190026
 20
189.9499037587
 10
67.3906811093
 20
189.591441425
 10
67.1133192768
 20
189.0886240923
 10
66.7625552555
 20
188.4085797989
 10
66.3773648953
 20
187.5819304311
 10
65.9612834965
 20
186.5343340956
 10
65.5919954692
 20
185.3217521035
 10
65.3873540973
 20
184.3236574256
 10
65.2742784982
 20
183.2517498457
 10
65.274699456
 20
182.1910628402
 10
65.3895240789
 20
181.1134108626
 10
65.5850198632
 20
180.1569053256
 10
65.8505520364
 20
179.2396121942
 10
66.1997356033
 20
178.290482732
 10
66.5770283481
 20
177.4277129494
 10
66.9903781777
 20
176.5941792452
 10
67.3570883041
 20
175.9188362681
 10
67.6086413255
 20
175.4811966144
 10
67.7455904474
 20
175.2501466595
 10
67.7604347979
 20
175.2253809296
 10
67.7604347979
 20
175.2253809296
  0
SPLINE
  5
16B
330
1F
100
AcDbEntity
  8
0
  6
Continuous
 62
     7
370
    15
100
AcDbSpline
210
0.0
220
0.0
230
1.0
 70
     8
 71
     3
 72
    29
 73
    25
 74
     0
 42
0.000000001
 43
0.00000001
 40
0.0
 40
0.0
 40
0.0
 40
0.0
 40
0.0111442892800399
 40
0.0562489298668896
 40
0.1026565759978727
 40
0.1481548846359882
 40
0.1947153398038944
 40
0.2456890176002541
 40
0.2978535196258328
 40
0.354446395446727
 40
0.4129152333863361
 40
0.4555347082312855
 40
0.4993512351604438
 40
0.5419939533766214
 40
0.5858911436296063
 40
0.6286814980556227
 40
0.6723735894937998
 40
0.7228719590094242
 40
0.7745148455060364
 40
0.8312887170526372
 40
0.8899540706775443
 40
0.9424193515382588
 40
0.9969057259951468
 40
1.0
 40
1.0
 40
1.0
 40
1.0
 10
42.77137746564301
 20
190.2070978008974
 30
0.0
 10
42.7679320390388
 20
190.2128556242962
 30
0.0
 10
42.75054182647767
 20
190.2419172716031
 30
0.0
 10
42.8254321497628
 20
190.1171086545362
 30
0.0
 10
42.98195465927335
 20
189.8518790511951
 30
0.0
 10
43.22825088323835
 20
189.4208472719632
 30
0.0
 10
43.54150831205913
 20
188.8438059396882
 30
0.0
 10
43.9133263089639
 20
188.1043482177382
 30
0.0
 10
44.32525970643886
 20
187.1813985472832
 30
0.0
 10
44.73278320808554
 20
186.0813433563713
 30
0.0
 10
45.04262235942477
 20
184.9252698523213
 30
0.0
 10
45.22121203758827
 20
183.7924257683069
 30
0.0
 10
45.27889677108909
 20
182.7511196829653
 30
0.0
 10
45.22562296881199
 20
181.6992173339391
 30
0.0
 10
45.07004318342362
 20
180.685711464895
 30
0.0
 10
44.83089258767598
 20
179.7188266490884
 30
0.0
 10
44.52029706566555
 20
178.7753611714112
 30
0.0
 10
44.15184055348317
 20
177.8655860997544
 30
0.0
 10
43.74370529759531
 20
176.9980422951577
 30
0.0
 10
43.34714371736371
 20
176.2416694641879
 30
0.0
 10
43.02116264096301
 20
175.6654819005445
 30
0.0
 10
42.82222384273739
 20
175.3280143824364
 30
0.0
 10
42.74381727478056
 20
175.1976009578617
 30
0.0
 10
42.76249478306169
 20
175.22882173368
 30
0.0
 10
42.76349847666177
 20
175.2304994785059
 30
0.0
  0
LINE
  5
16C
330
1F
100
AcDbEntity
  8
0
  6
Continuous
 62
     7
370
    15
100
AcDbLine
 10
37.7604336058
 20
86.8943800502
 30
0.0
 11
72.7604346862
 21
86.8943800502
 31
0.0
  0
LINE
  5
16D
330
1F
100
AcDbEntity
  8
0
  6
Continuous
 62
     7
370
    15
100
AcDbLine
 10
72.7604346862
 20
120.8943800353
 30
0.0
 11
37.7604336058
 21
120.8943800353
 31
0.0
  0
SPLINE
  5
16E
330
1F
100
AcDbEntity
  8
0
  6
Continuous
 62
     7
370
    15
100
AcDbSpline
210
0.0
220
0.0
230
1.0
 70
    11
 71
     3
 72
    26
 73
    22
 74
     0
 42
0.000000001
 43
0.00000001
 40
0.0
 40
0.0
 40
0.0
 40
0.0
 40
0.0535266951075957
 40
0.1070474401393486
 40
0.1607167814534073
 40
0.2144855567332153
 40
0.2680921639013129
 40
0.3215278006446093
 40
0.3750505222517225
 40
0.4287819126650675
 40
0.4825190755263022
 40
0.5360506666760395
 40
0.5894862803102013
 40
0.6430828145079418
 40
0.6968489336092173
 40
0.7505281837100389
 40
0.8039979691811592
 40
0.8574634143339873
 40
0.9111353009293709
 40
0.9649033610637483
 40
1.0
 40
1.0
 40
1.0
 40
1.0
 10
55.26043554297837
 20
87.74437953762894
 30
0.0
 10
55.07535360793882
 20
87.7625395449237
 30
0.0
 10
54.70521031173503
 20
87.79885754083038
 30
0.0
 10
54.21227551833081
 20
88.08188037829491
 30
0.0
 10
53.83644231168595
 20
88.4993195649732
 30
0.0
 10
53.62063070293561
 20
89.02182142286973
 30
0.0
 10
53.5898275460623
 20
89.5849061450476
 30
0.0
 10
53.74646831523015
 20
90.12568854829972
 30
0.0
 10
54.07258985154508
 20
90.58449567435942
 30
0.0
 10
54.53290594708125
 20
90.91050576939865
 30
0.0
 10
55.07575705170202
 20
91.06578650911983
 30
0.0
 10
55.638508528778
 20
91.0327057416008
 30
0.0
 10
56.15794555644477
 20
90.8161553701554
 30
0.0
 10
56.5772718993161
 20
90.44010528361126
 30
0.0
 10
56.84920527115392
 20
89.94553705490962
 30
0.0
 10
56.94193315830861
 20
89.3887136725418
 30
0.0
 10
56.84556773121312
 20
88.83388711273457
 30
0.0
 10
56.57180242286042
 20
88.34159021896632
 30
0.0
 10
56.15065006383415
 20
87.96943951529825
 30
0.0
 10
55.68771003754517
 20
87.77233718274418
 30
0.0
 10
55.38140792762339
 20
87.75229506509818
 30
0.0
 10
55.26043554297837
 20
87.74437953762894
 30
0.0
  0
LINE
  5
16F
330
1F
100
AcDbEntity
  8
0
  6
Continuous
 62
     7
370
    15
100
AcDbLine
 10
38.2604346191
 20
121.3943810486
 30
0.0
 11
72.2604346042
 21
121.3943810486
 31
0.0
  0
LINE
  5
170
330
1F
100
AcDbEntity
  8
0
  6
Continuous
 62
     7
370
    15
100
AcDbLine
 10
37.7604336058
 20
81.39438008
 30
0.0
 11
72.7604346862
 21
81.39438008
 31
0.0
  0
LINE
  5
171
330
1F
100
AcDbEntity
  8
0
  6
Continuous
 62
     7
370
    15
100
AcDbLine
 10
37.7604336058
 20
86.3943808996
 30
0.0
 11
72.7604346862
 21
86.3943808996
 31
0.0
  0
LINE
  5
172
330
1F
100
AcDbEntity
  8
0
  6
Continuous
 62
     8
370
    15
100
AcDbLine
 10
67.9604353895
 20
176.2253755056
 30
0.0
 11
67.9604353895
 21
189.2253794991
 31
0.0
  0
LINE
  5
173
330
1F
100
AcDbEntity
  8
0
  6
Continuous
 62
     7
370
    15
100
AcDbLine
 10
93.6104903527
 20
249.7227911254
 30
0.0
 11
93.5244878061
 21
249.5999664416
 31
0.0
  0
LINE
  5
174
330
1F
100
AcDbEntity
  8
0
  6
Continuous
 62
     7
370
    15
100
AcDbLine
 10
93.5244878061
 20
246.3799670686
 30
0.0
 11
93.6104903527
 21
246.2571423848
 31
0.0
  0
LINE
  5
175
330
1F
100
AcDbEntity
  8
0
  6
Continuous
 62
     7
370
    15
100
AcDbLine
 10
93.4010778443
 20
246.2037198593
 30
0.0
 11
93.5244878061
 21
246.3799670686
 31
0.0
  0
LINE
  5
176
330
1F
100
AcDbEntity
  8
0
  6
Continuous
 62
     7
370
    15
100
AcDbLine
 10
93.5244878061
 20
249.5999664416
 30
0.0
 11
93.4010778443
 21
249.7762155135
 31
0.0
  0
LINE
  5
177
330
1F
100
AcDbEntity
  8
0
  6
Continuous
 62
     7
370
    15
100
AcDbLine
 10
93.4010778443
 20
249.7762155135
 30
0.0
 11
93.2993211906
 21
249.5999664416
 31
0.0
  0
LINE
  5
178
330
1F
100
AcDbEntity
  8
0
  6
Continuous
 62
     7
370
    15
100
AcDbLine
 10
93.2993211906
 20
246.3799670686
 30
0.0
 11
93.4010778443
 21
246.2037198593
 31
0.0
  0
LINE
  5
179
330
1F
100
AcDbEntity
  8
0
  6
Continuous
 62
     7
370
    15
100
AcDbLine
 10
128.4359929565
 20
246.2037198593
 30
0.0
 11
128.537749261
 21
246.3799670686
 31
0.0
  0
LINE
  5
17A
330
1F
100
AcDbEntity
  8
0
  6
Continuous
 62
     7
370
    15
100
AcDbLine
 10
128.537749261
 20
249.5999664416
 30
0.0
 11
128.4359929565
 21
249.7762155135
 31
0.0
  0
LINE
  5
17B
330
1F
100
AcDbEntity
  8
0
  6
Continuous
 62
     7
370
    15
100
AcDbLine
 10
128.4359929565
 20
249.7762155135
 30
0.0
 11
128.4334597591
 21
249.7725945314
 31
0.0
  0
LINE
  5
17C
330
1F
100
AcDbEntity
  8
0
  6
Continuous
 62
     7
370
    15
100
AcDbLine
 10
128.4334597591
 20
246.2073389788
 30
0.0
 11
128.4359929565
 21
246.2037198593
 31
0.0
  0
LINE
  5
17D
330
1F
100
AcDbEntity
  8
0
  6
Continuous
 62
     7
370
    15
100
AcDbLine
 10
93.5244881554
 20
268.4899673213
 30
0.0
 11
93.5244881554
 21
262.4899663379
 31
0.0
  0
LINE
  5
17E
330
1F
100
AcDbEntity
  8
0
  6
Continuous
 62
     7
370
    15
100
AcDbLine
 10
128.5244872276
 20
262.4899663379
 30
0.0
 11
128.5244872276
 21
268.4899673213
 31
0.0
  0
LINE
  5
17F
330
1F
100
AcDbEntity
  8
0
  6
Continuous
 62
     7
370
    15
100
AcDbLine
 10
128.5244872276
 20
268.4899673213
 30
0.0
 11
128.5244872276
 21
269.4899656226
 31
0.0
  0
LINE
  5
180
330
1F
100
AcDbEntity
  8
0
  6
Continuous
 62
     7
370
    15
100
AcDbLine
 10
93.5244881554
 20
269.4899656226
 30
0.0
 11
93.5244881554
 21
268.4899673213
 31
0.0
  0
LINE
  5
181
330
1F
100
AcDbEntity
  8
0
  6
Continuous
 62
     7
370
    15
100
AcDbLine
 10
121.0244887922
 20
269.4899656226
 30
0.0
 11
121.0244887922
 21
273.4899662783
 31
0.0
  0
LINE
  5
182
330
1F
100
AcDbEntity
  8
0
  6
Continuous
 62
     7
370
    15
100
AcDbLine
 10
101.0244883079
 20
273.4899662783
 30
0.0
 11
101.0244883079
 21
269.4899656226
 31
0.0
  0
LINE
  5
183
330
1F
100
AcDbEntity
  8
0
  6
Continuous
 62
     7
370
    15
100
AcDbLine
 10
93.5244881554
 20
280.489965563
 30
0.0
 11
93.5244881554
 21
279.4899672617
 31
0.0
  0
LINE
  5
184
330
1F
100
AcDbEntity
  8
0
  6
Continuous
 62
     7
370
    15
100
AcDbLine
 10
128.5244872276
 20
279.4899672617
 30
0.0
 11
128.5244872276
 21
280.489965563
 31
0.0
  0
LINE
  5
185
330
1F
100
AcDbEntity
  8
0
  6
Continuous
 62
     7
370
    15
100
AcDbLine
 10
101.0244883079
 20
279.4899672617
 30
0.0
 11
101.0244883079
 21
275.4899666061
 31
0.0
  0
LINE
  5
186
330
1F
100
AcDbEntity
  8
0
  6
Continuous
 62
     7
370
    15
100
AcDbLine
 10
121.0244887922
 20
275.4899666061
 30
0.0
 11
121.0244887922
 21
279.4899672617
 31
0.0
  0
LINE
  5
187
330
1F
100
AcDbEntity
  8
0
  6
Continuous
 62
     7
370
    15
100
AcDbLine
 10
93.5244881554
 20
280.6899689486
 30
0.0
 11
93.7244881649
 21
280.489965563
 31
0.0
  0
LINE
  5
188
330
1F
100
AcDbEntity
  8
0
  6
Continuous
 62
     7
370
    15
100
AcDbLine
 10
128.3244875673
 20
280.489965563
 30
0.0
 11
128.5244872276
 21
280.6899689486
 31
0.0
  0
LINE
  5
189
330
1F
100
AcDbEntity
  8
0
  6
Continuous
 62
     7
370
    15
100
AcDbLine
 10
128.5244872276
 20
281.4899675896
 30
0.0
 11
126.5244868997
 21
283.4899679174
 31
0.0
  0
LINE
  5
18A
330
1F
100
AcDbEntity
  8
0
  6
Continuous
 62
     7
370
    15
100
AcDbLine
 10
95.5244881049
 20
283.4899679174
 30
0.0
 11
93.5244881554
 21
281.4899675896
 31
0.0
  0
LINE
  5
18B
330
1F
100
AcDbEntity
  8
0
  6
Continuous
 62
     7
370
    15
100
AcDbLine
 10
93.5244881554
 20
281.4899675896
 30
0.0
 11
93.5244881554
 21
280.6899689486
 31
0.0
  0
LINE
  5
18C
330
1F
100
AcDbEntity
  8
0
  6
Continuous
 62
     7
370
    15
100
AcDbLine
 10
128.5244872276
 20
280.6899689486
 30
0.0
 11
128.5244872276
 21
281.4899675896
 31
0.0
  0
LINE
  5
18D
330
1F
100
AcDbEntity
  8
0
  6
Continuous
 62
     7
370
    15
100
AcDbLine
 10
103.0244877044
 20
275.4899666061
 30
0.0
 11
103.0244877044
 21
273.4899662783
 31
0.0
  0
LINE
  5
18E
330
1F
100
AcDbEntity
  8
0
  6
Continuous
 62
     7
370
    15
100
AcDbLine
 10
119.0244884644
 20
273.4899662783
 30
0.0
 11
119.0244884644
 21
275.4899666061
 31
0.0
  0
LINE
  5
18F
330
1F
100
AcDbEntity
  8
0
  6
Continuous
 62
     7
370
    15
100
AcDbLine
 10
109.2866634432
 20
250.9999677886
 30
0.0
 11
112.7623127255
 21
250.9999677886
 31
0.0
  0
LINE
  5
190
330
1F
100
AcDbEntity
  8
0
  6
Continuous
 62
     7
370
    15
100
AcDbLine
 10
107.5488397334
 20
247.9899667551
 30
0.0
 11
109.2866634432
 21
250.9999677886
 31
0.0
  0
LINE
  5
191
330
1F
100
AcDbEntity
  8
0
  6
Continuous
 62
     7
370
    15
100
AcDbLine
 10
109.2866634432
 20
244.9799675842
 30
0.0
 11
107.5488397334
 21
247.9899667551
 31
0.0
  0
LINE
  5
192
330
1F
100
AcDbEntity
  8
0
  6
Continuous
 62
     7
370
    15
100
AcDbLine
 10
112.7623127255
 20
244.9799675842
 30
0.0
 11
109.2866634432
 21
244.9799675842
 31
0.0
  0
LINE
  5
193
330
1F
100
AcDbEntity
  8
0
  6
Continuous
 62
     7
370
    15
100
AcDbLine
 10
114.5001364354
 20
247.9899667551
 30
0.0
 11
112.7623127255
 21
244.9799675842
 31
0.0
  0
LINE
  5
194
330
1F
100
AcDbEntity
  8
0
  6
Continuous
 62
     7
370
    15
100
AcDbLine
 10
112.7623127255
 20
250.9999677886
 30
0.0
 11
114.5001364354
 21
247.9899667551
 31
0.0
  0
ARC
  5
195
330
1F
100
AcDbEntity
  8
0
  6
Continuous
 62
     7
370
    15
100
AcDbCircle
 10
111.0244881623
 20
247.9899672713
 30
0.0
 40
3.010000000000016
100
AcDbArc
 50
30.0
 51
90.0
  0
ARC
  5
196
330
1F
100
AcDbEntity
  8
0
  6
Continuous
 62
     7
370
    15
100
AcDbCircle
 10
111.0244881623
 20
247.9899672713
 30
0.0
 40
3.010000000000016
100
AcDbArc
 50
330.0
 51
30.0
  0
ARC
  5
197
330
1F
100
AcDbEntity
  8
0
  6
Continuous
 62
     7
370
    15
100
AcDbCircle
 10
111.0244881623
 20
247.9899672713
 30
0.0
 40
3.010000000000002
100
AcDbArc
 50
270.0
 51
330.0
  0
ARC
  5
198
330
1F
100
AcDbEntity
  8
0
  6
Continuous
 62
     7
370
    15
100
AcDbCircle
 10
111.0244881623
 20
247.9899672713
 30
0.0
 40
3.010000000000002
100
AcDbArc
 50
210.0
 51
270.0
  0
ARC
  5
199
330
1F
100
AcDbEntity
  8
0
  6
Continuous
 62
     7
370
    15
100
AcDbCircle
 10
111.0244881623
 20
247.9899672713
 30
0.0
 40
3.010000000000002
100
AcDbArc
 50
150.0
 51
210.0
  0
ARC
  5
19A
330
1F
100
AcDbEntity
  8
0
  6
Continuous
 62
     7
370
    15
100
AcDbCircle
 10
111.0244881623
 20
247.9899672713
 30
0.0
 40
3.010000000000002
100
AcDbArc
 50
90.0
 51
150.0
  0
LINE
  5
19B
330
1F
100
AcDbEntity
  8
0
  6
Continuous
 62
     7
370
    15
100
AcDbLine
 10
93.5244878061
 20
248.2818488379
 30
0.0
 11
93.5244878061
 21
249.5999664416
 31
0.0
  0
LINE
  5
19C
330
1F
100
AcDbEntity
  8
0
  6
Continuous
 62
     7
370
    15
100
AcDbLine
 10
93.5244878061
 20
246.3799670686
 30
0.0
 11
93.5244878061
 21
248.2818488379
 31
0.0
  0
LINE
  5
19D
330
1F
100
AcDbEntity
  8
0
  6
Continuous
 62
     7
370
    15
100
AcDbLine
 10
93.4010778443
 20
248.3138025155
 30
0.0
 11
93.4010778443
 21
246.2037198593
 31
0.0
  0
LINE
  5
19E
330
1F
100
AcDbEntity
  8
0
  6
Continuous
 62
     7
370
    15
100
AcDbLine
 10
93.4010778443
 20
249.7762155135
 30
0.0
 11
93.4010778443
 21
248.3138025155
 31
0.0
  0
LINE
  5
19F
330
1F
100
AcDbEntity
  8
0
  6
Continuous
 62
     7
370
    15
100
AcDbLine
 10
93.2993211906
 20
246.3799670686
 30
0.0
 11
93.2993211906
 21
249.5999664416
 31
0.0
  0
LINE
  5
1A0
330
1F
100
AcDbEntity
  8
0
  6
Continuous
 62
     7
370
    15
100
AcDbLine
 10
128.537749261
 20
247.9899667551
 30
0.0
 11
128.537749261
 21
246.3799670686
 31
0.0
  0
LINE
  5
1A1
330
1F
100
AcDbEntity
  8
0
  6
Continuous
 62
     7
370
    15
100
AcDbLine
 10
128.537749261
 20
249.5999664416
 30
0.0
 11
128.537749261
 21
247.9899667551
 31
0.0
  0
LINE
  5
1A2
330
1F
100
AcDbEntity
  8
0
  6
Continuous
 62
     7
370
    15
100
AcDbLine
 10
128.4359929565
 20
246.2037198593
 30
0.0
 11
128.4359929565
 21
246.2322704842
 31
0.0
  0
LINE
  5
1A3
330
1F
100
AcDbEntity
  8
0
  6
Continuous
 62
     7
370
    15
100
AcDbLine
 10
128.4359929565
 20
249.747663026
 30
0.0
 11
128.4359929565
 21
249.7762155135
 31
0.0
  0
LINE
  5
1A4
330
1F
100
AcDbEntity
  8
0
  6
Continuous
 62
     7
370
    15
100
AcDbLine
 10
93.5244881554
 20
262.4899663379
 30
0.0
 11
101.2265294272
 21
262.4899663379
 31
0.0
  0
LINE
  5
1A5
330
1F
100
AcDbEntity
  8
0
  6
Continuous
 62
     7
370
    15
100
AcDbLine
 10
120.8224476728
 20
262.4899663379
 30
0.0
 11
128.5244872276
 21
262.4899663379
 31
0.0
  0
LINE
  5
1A6
330
1F
100
AcDbEntity
  8
0
  6
Continuous
 62
     7
370
    15
100
AcDbLine
 10
93.5244881554
 20
268.4899673213
 30
0.0
 11
128.5244872276
 21
268.4899673213
 31
0.0
  0
LINE
  5
1A7
330
1F
100
AcDbEntity
  8
0
  6
Continuous
 62
     7
370
    15
100
AcDbLine
 10
128.5244872276
 20
269.4899656226
 30
0.0
 11
93.5244881554
 21
269.4899656226
 31
0.0
  0
LINE
  5
1A8
330
1F
100
AcDbEntity
  8
0
  6
Continuous
 62
     7
370
    15
100
AcDbLine
 10
121.0244887922
 20
273.4899662783
 30
0.0
 11
101.0244883079
 21
273.4899662783
 31
0.0
  0
LINE
  5
1A9
330
1F
100
AcDbEntity
  8
0
  6
Continuous
 62
     7
370
    15
100
AcDbLine
 10
93.5244881554
 20
279.4899672617
 30
0.0
 11
128.5244872276
 21
279.4899672617
 31
0.0
  0
LINE
  5
1AA
330
1F
100
AcDbEntity
  8
0
  6
Continuous
 62
     7
370
    15
100
AcDbLine
 10
93.5244881554
 20
280.489965563
 30
0.0
 11
128.5244872276
 21
280.489965563
 31
0.0
  0
LINE
  5
1AB
330
1F
100
AcDbEntity
  8
0
  6
Continuous
 62
     7
370
    15
100
AcDbLine
 10
101.0244883079
 20
275.4899666061
 30
0.0
 11
121.0244887922
 21
275.4899666061
 31
0.0
  0
LINE
  5
1AC
330
1F
100
AcDbEntity
  8
0
  6
Continuous
 62
     7
370
    15
100
AcDbLine
 10
93.5244881554
 20
280.6899689486
 30
0.0
 11
128.5244872276
 21
280.6899689486
 31
0.0
  0
LINE
  5
1AD
330
1F
100
AcDbEntity
  8
0
  6
Continuous
 62
     7
370
    15
100
AcDbLine
 10
121.4418721799
 20
283.4899679174
 30
0.0
 11
126.5244868997
 21
283.4899679174
 31
0.0
  0
LINE
  5
1AE
330
1F
100
AcDbEntity
  8
0
  6
Continuous
 62
     7
370
    15
100
AcDbLine
 10
95.5244881049
 20
283.4899679174
 30
0.0
 11
121.4418721799
 21
283.4899679174
 31
0.0
  0
LINE
  5
1AF
330
1F
100
AcDbEntity
  8
0
  6
Continuous
 62
     7
370
    15
100
AcDbLine
 10
122.7860519145
 20
281.4899675896
 30
0.0
 11
93.5244881554
 21
281.4899675896
 31
0.0
  0
LINE
  5
1B0
330
1F
100
AcDbEntity
  8
0
  6
Continuous
 62
     7
370
    15
100
AcDbLine
 10
128.5244872276
 20
281.4899675896
 30
0.0
 11
122.7860519145
 21
281.4899675896
 31
0.0
  0
CIRCLE
  5
1B1
330
1F
100
AcDbEntity
  8
0
  6
Continuous
 62
     7
370
    15
100
AcDbCircle
 10
111.0244881623
 20
247.9899672713
 30
0.0
 40
17.49999999999997
  0
CIRCLE
  5
1B2
330
1F
100
AcDbEntity
  8
0
  6
Continuous
 62
     7
370
    15
100
AcDbCircle
 10
111.0244881623
 20
247.9899672713
 30
0.0
 40
10.99999999999997
  0
ARC
  5
1B3
330
1F
100
AcDbEntity
  8
0
  6
Continuous
 62
     7
370
    15
100
AcDbCircle
 10
111.0244881623
 20
245.2899672713
 30
0.0
 40
4.300000000000011
100
AcDbArc
 50
180.0
 51
270.0
  0
ARC
  5
1B4
330
1F
100
AcDbEntity
  8
0
  6
Continuous
 62
     7
370
    15
100
AcDbCircle
 10
111.0244881623
 20
245.2899672713
 30
0.0
 40
4.300000000000011
100
AcDbArc
 50
270.0
 51
0.0
  0
LINE
  5
1B5
330
1F
100
AcDbEntity
  8
0
  6
Continuous
 62
     7
370
    15
100
AcDbLine
 10
115.3244872991
 20
245.2899676164
 30
0.0
 11
115.3244872991
 21
250.6899677565
 31
0.0
  0
ARC
  5
1B6
330
1F
100
AcDbEntity
  8
0
  6
Continuous
 62
     7
370
    15
100
AcDbCircle
 10
111.0244881623
 20
250.6899672713
 30
0.0
 40
4.300000000000011
100
AcDbArc
 50
0.0
 51
90.0
  0
ARC
  5
1B7
330
1F
100
AcDbEntity
  8
0
  6
Continuous
 62
     7
370
    15
100
AcDbCircle
 10
111.0244881623
 20
250.6899672713
 30
0.0
 40
4.299999999999997
100
AcDbArc
 50
90.0
 51
180.0
  0
LINE
  5
1B8
330
1F
100
AcDbEntity
  8
0
  6
Continuous
 62
     7
370
    15
100
AcDbLine
 10
106.7244879384
 20
250.6899677565
 30
0.0
 11
106.7244879384
 21
245.2899676164
 31
0.0
  0
ARC
  5
1B9
330
1F
100
AcDbEntity
  8
0
  6
Continuous
 62
     7
370
    15
100
AcDbCircle
 10
105.3244881623
 20
65.5550917953
 30
0.0
 40
0.8000000000000114
100
AcDbArc
 50
90.0
 51
180.0
  0
ARC
  5
1BA
330
1F
100
AcDbEntity
  8
0
  6
Continuous
 62
     7
370
    15
100
AcDbCircle
 10
116.7244881623
 20
65.5550917953
 30
0.0
 40
0.8000000000000114
100
AcDbArc
 50
0.0
 51
90.0
  0
LINE
  5
1BB
330
1F
100
AcDbEntity
  8
0
  6
Continuous
 62
     7
370
    15
100
AcDbLine
 10
104.5244879503
 20
65.5550921579
 30
0.0
 11
104.5244879503
 21
63.5321701189
 31
0.0
  0
LINE
  5
1BC
330
1F
100
AcDbEntity
  8
0
  6
Continuous
 62
     7
370
    15
100
AcDbLine
 10
117.5244872872
 20
63.5321701189
 30
0.0
 11
117.5244872872
 21
65.5550921579
 31
0.0
  0
LINE
  5
1BD
330
1F
100
AcDbEntity
  8
0
  6
Continuous
 62
     7
370
    15
100
AcDbLine
 10
93.6104903527
 20
54.5879166817
 30
0.0
 11
93.5244878061
 21
54.4650919979
 31
0.0
  0
LINE
  5
1BE
330
1F
100
AcDbEntity
  8
0
  6
Continuous
 62
     7
370
    15
100
AcDbLine
 10
93.5244878061
 20
51.2450926249
 30
0.0
 11
93.6104903527
 21
51.1222679411
 31
0.0
  0
LINE
  5
1BF
330
1F
100
AcDbEntity
  8
0
  6
Continuous
 62
     7
370
    15
100
AcDbLine
 10
93.4010778443
 20
51.068843553
 30
0.0
 11
93.5244878061
 21
51.2450926249
 31
0.0
  0
LINE
  5
1C0
330
1F
100
AcDbEntity
  8
0
  6
Continuous
 62
     7
370
    15
100
AcDbLine
 10
93.5244878061
 20
54.4650919979
 30
0.0
 11
93.4010778443
 21
54.6413392072
 31
0.0
  0
LINE
  5
1C1
330
1F
100
AcDbEntity
  8
0
  6
Continuous
 62
     7
370
    15
100
AcDbLine
 10
93.4010778443
 20
54.6413392072
 30
0.0
 11
93.2993211906
 21
54.4650919979
 31
0.0
  0
LINE
  5
1C2
330
1F
100
AcDbEntity
  8
0
  6
Continuous
 62
     7
370
    15
100
AcDbLine
 10
93.2993211906
 20
51.2450926249
 30
0.0
 11
93.4010778443
 21
51.068843553
 31
0.0
  0
LINE
  5
1C3
330
1F
100
AcDbEntity
  8
0
  6
Continuous
 62
     7
370
    15
100
AcDbLine
 10
128.4359929565
 20
51.068843553
 30
0.0
 11
128.537749261
 21
51.2450926249
 31
0.0
  0
LINE
  5
1C4
330
1F
100
AcDbEntity
  8
0
  6
Continuous
 62
     7
370
    15
100
AcDbLine
 10
128.537749261
 20
54.4650919979
 30
0.0
 11
128.4359929565
 21
54.6413392072
 31
0.0
  0
LINE
  5
1C5
330
1F
100
AcDbEntity
  8
0
  6
Continuous
 62
     7
370
    15
100
AcDbLine
 10
128.4359929565
 20
54.6413392072
 30
0.0
 11
128.4334597591
 21
54.6377200877
 31
0.0
  0
LINE
  5
1C6
330
1F
100
AcDbEntity
  8
0
  6
Continuous
 62
     7
370
    15
100
AcDbLine
 10
128.4334597591
 20
51.0724645351
 30
0.0
 11
128.4359929565
 21
51.068843553
 31
0.0
  0
LINE
  5
1C7
330
1F
100
AcDbEntity
  8
0
  6
Continuous
 62
     7
370
    15
100
AcDbLine
 10
128.5244872276
 20
32.3550917452
 30
0.0
 11
128.5244872276
 21
38.3550927286
 31
0.0
  0
LINE
  5
1C8
330
1F
100
AcDbEntity
  8
0
  6
Continuous
 62
     7
370
    15
100
AcDbLine
 10
93.5244881554
 20
38.3550927286
 30
0.0
 11
93.5244881554
 21
32.3550917452
 31
0.0
  0
LINE
  5
1C9
330
1F
100
AcDbEntity
  8
0
  6
Continuous
 62
     7
370
    15
100
AcDbLine
 10
118.5244874511
 20
38.3550927286
 30
0.0
 11
118.5244874511
 21
42.8550906723
 31
0.0
  0
LINE
  5
1CA
330
1F
100
AcDbEntity
  8
0
  6
Continuous
 62
     7
370
    15
100
AcDbLine
 10
103.5244877864
 20
42.8550906723
 30
0.0
 11
103.5244877864
 21
38.3550927286
 31
0.0
  0
LINE
  5
1CB
330
1F
100
AcDbEntity
  8
0
  6
Continuous
 62
     7
370
    15
100
AcDbLine
 10
93.5244881554
 20
32.3550917452
 30
0.0
 11
93.5244881554
 21
31.3550934439
 31
0.0
  0
LINE
  5
1CC
330
1F
100
AcDbEntity
  8
0
  6
Continuous
 62
     7
370
    15
100
AcDbLine
 10
128.5244872276
 20
31.3550934439
 30
0.0
 11
128.5244872276
 21
32.3550917452
 31
0.0
  0
LINE
  5
1CD
330
1F
100
AcDbEntity
  8
0
  6
Continuous
 62
     7
370
    15
100
AcDbLine
 10
101.0244883079
 20
31.3550934439
 30
0.0
 11
101.0244883079
 21
27.3550927882
 31
0.0
  0
LINE
  5
1CE
330
1F
100
AcDbEntity
  8
0
  6
Continuous
 62
     7
370
    15
100
AcDbLine
 10
121.0244887922
 20
27.3550927882
 30
0.0
 11
121.0244887922
 21
31.3550934439
 31
0.0
  0
LINE
  5
1CF
330
1F
100
AcDbEntity
  8
0
  6
Continuous
 62
     7
370
    15
100
AcDbLine
 10
128.5244872276
 20
20.3550935035
 30
0.0
 11
128.5244872276
 21
21.3550918048
 31
0.0
  0
LINE
  5
1D0
330
1F
100
AcDbEntity
  8
0
  6
Continuous
 62
     7
370
    15
100
AcDbLine
 10
93.5244881554
 20
21.3550918048
 30
0.0
 11
93.5244881554
 21
20.3550935035
 31
0.0
  0
LINE
  5
1D1
330
1F
100
AcDbEntity
  8
0
  6
Continuous
 62
     7
370
    15
100
AcDbLine
 10
121.0244887922
 20
21.3550918048
 30
0.0
 11
121.0244887922
 21
25.3550924604
 31
0.0
  0
LINE
  5
1D2
330
1F
100
AcDbEntity
  8
0
  6
Continuous
 62
     7
370
    15
100
AcDbLine
 10
101.0244883079
 20
25.3550924604
 30
0.0
 11
101.0244883079
 21
21.3550918048
 31
0.0
  0
LINE
  5
1D3
330
1F
100
AcDbEntity
  8
0
  6
Continuous
 62
     7
370
    15
100
AcDbLine
 10
128.5244872276
 20
19.3550914769
 30
0.0
 11
128.5244872276
 21
20.155090118
 31
0.0
  0
LINE
  5
1D4
330
1F
100
AcDbEntity
  8
0
  6
Continuous
 62
     7
370
    15
100
AcDbLine
 10
93.5244881554
 20
20.155090118
 30
0.0
 11
93.5244881554
 21
19.3550914769
 31
0.0
  0
LINE
  5
1D5
330
1F
100
AcDbEntity
  8
0
  6
Continuous
 62
     7
370
    15
100
AcDbLine
 10
93.5244881554
 20
19.3550914769
 30
0.0
 11
95.5244881049
 21
17.3550911491
 31
0.0
  0
LINE
  5
1D6
330
1F
100
AcDbEntity
  8
0
  6
Continuous
 62
     7
370
    15
100
AcDbLine
 10
126.5244868997
 20
17.3550911491
 30
0.0
 11
128.5244872276
 21
19.3550914769
 31
0.0
  0
LINE
  5
1D7
330
1F
100
AcDbEntity
  8
0
  6
Continuous
 62
     7
370
    15
100
AcDbLine
 10
128.5244872276
 20
20.155090118
 30
0.0
 11
128.3244875673
 21
20.3550935035
 31
0.0
  0
LINE
  5
1D8
330
1F
100
AcDbEntity
  8
0
  6
Continuous
 62
     7
370
    15
100
AcDbLine
 10
93.7244881649
 20
20.3550935035
 30
0.0
 11
93.5244881554
 21
20.155090118
 31
0.0
  0
LINE
  5
1D9
330
1F
100
AcDbEntity
  8
0
  6
Continuous
 62
     7
370
    15
100
AcDbLine
 10
119.0244884644
 20
25.3550924604
 30
0.0
 11
119.0244884644
 21
27.3550927882
 31
0.0
  0
LINE
  5
1DA
330
1F
100
AcDbEntity
  8
0
  6
Continuous
 62
     7
370
    15
100
AcDbLine
 10
103.0244877044
 20
27.3550927882
 30
0.0
 11
103.0244877044
 21
25.3550924604
 31
0.0
  0
LINE
  5
1DB
330
1F
100
AcDbEntity
  8
0
  6
Continuous
 62
     7
370
    15
100
AcDbLine
 10
105.3244884539
 20
66.3550917303
 30
0.0
 11
116.7244886462
 21
66.3550917303
 31
0.0
  0
LINE
  5
1DC
330
1F
100
AcDbEntity
  8
0
  6
Continuous
 62
     7
370
    15
100
AcDbLine
 10
93.5244878061
 20
51.2450926249
 30
0.0
 11
93.5244878061
 21
54.4650919979
 31
0.0
  0
LINE
  5
1DD
330
1F
100
AcDbEntity
  8
0
  6
Continuous
 62
     7
370
    15
100
AcDbLine
 10
93.4010778443
 20
54.6413392072
 30
0.0
 11
93.4010778443
 21
51.068843553
 31
0.0
  0
LINE
  5
1DE
330
1F
100
AcDbEntity
  8
0
  6
Continuous
 62
     7
370
    15
100
AcDbLine
 10
93.2993211906
 20
51.2450926249
 30
0.0
 11
93.2993211906
 21
54.4650919979
 31
0.0
  0
LINE
  5
1DF
330
1F
100
AcDbEntity
  8
0
  6
Continuous
 62
     7
370
    15
100
AcDbLine
 10
128.537749261
 20
54.4650919979
 30
0.0
 11
128.537749261
 21
51.2450926249
 31
0.0
  0
LINE
  5
1E0
330
1F
100
AcDbEntity
  8
0
  6
Continuous
 62
     7
370
    15
100
AcDbLine
 10
128.4359929565
 20
51.068843553
 30
0.0
 11
128.4359929565
 21
51.0973960405
 31
0.0
  0
LINE
  5
1E1
330
1F
100
AcDbEntity
  8
0
  6
Continuous
 62
     7
370
    15
100
AcDbLine
 10
128.4359929565
 20
54.6127885824
 30
0.0
 11
128.4359929565
 21
54.6413392072
 31
0.0
  0
LINE
  5
1E2
330
1F
100
AcDbEntity
  8
0
  6
Continuous
 62
     7
370
    15
100
AcDbLine
 10
120.8815773431
 20
38.3550927286
 30
0.0
 11
93.5244881554
 21
38.3550927286
 31
0.0
  0
LINE
  5
1E3
330
1F
100
AcDbEntity
  8
0
  6
Continuous
 62
     7
370
    15
100
AcDbLine
 10
128.5244872276
 20
38.3550927286
 30
0.0
 11
120.8815773431
 21
38.3550927286
 31
0.0
  0
LINE
  5
1E4
330
1F
100
AcDbEntity
  8
0
  6
Continuous
 62
     7
370
    15
100
AcDbLine
 10
120.8815773431
 20
32.3550917452
 30
0.0
 11
93.5244881554
 21
32.3550917452
 31
0.0
  0
LINE
  5
1E5
330
1F
100
AcDbEntity
  8
0
  6
Continuous
 62
     7
370
    15
100
AcDbLine
 10
128.5244872276
 20
32.3550917452
 30
0.0
 11
120.8815773431
 21
32.3550917452
 31
0.0
  0
LINE
  5
1E6
330
1F
100
AcDbEntity
  8
0
  6
Continuous
 62
     7
370
    15
100
AcDbLine
 10
128.495016456
 20
31.3550934439
 30
0.0
 11
128.5244872276
 21
31.3550934439
 31
0.0
  0
LINE
  5
1E7
330
1F
100
AcDbEntity
  8
0
  6
Continuous
 62
     7
370
    15
100
AcDbLine
 10
93.5244881554
 20
31.3550934439
 30
0.0
 11
128.495016456
 21
31.3550934439
 31
0.0
  0
LINE
  5
1E8
330
1F
100
AcDbEntity
  8
0
  6
Continuous
 62
     7
370
    15
100
AcDbLine
 10
128.495016456
 20
32.3550917452
 30
0.0
 11
128.5244872276
 21
32.3550917452
 31
0.0
  0
LINE
  5
1E9
330
1F
100
AcDbEntity
  8
0
  6
Continuous
 62
     7
370
    15
100
AcDbLine
 10
93.5244881554
 20
32.3550917452
 30
0.0
 11
128.495016456
 21
32.3550917452
 31
0.0
  0
LINE
  5
1EA
330
1F
100
AcDbEntity
  8
0
  6
Continuous
 62
     7
370
    15
100
AcDbLine
 10
121.0076467547
 20
27.3550927882
 30
0.0
 11
121.0244887922
 21
27.3550927882
 31
0.0
  0
LINE
  5
1EB
330
1F
100
AcDbEntity
  8
0
  6
Continuous
 62
     7
370
    15
100
AcDbLine
 10
101.0244883079
 20
27.3550927882
 30
0.0
 11
121.0076467547
 21
27.3550927882
 31
0.0
  0
LINE
  5
1EC
330
1F
100
AcDbEntity
  8
0
  6
Continuous
 62
     7
370
    15
100
AcDbLine
 10
99.4337916788
 20
21.3550918048
 30
0.0
 11
93.5244881554
 21
21.3550918048
 31
0.0
  0
LINE
  5
1ED
330
1F
100
AcDbEntity
  8
0
  6
Continuous
 62
     7
370
    15
100
AcDbLine
 10
128.5244872276
 20
21.3550918048
 30
0.0
 11
99.4337916788
 21
21.3550918048
 31
0.0
  0
LINE
  5
1EE
330
1F
100
AcDbEntity
  8
0
  6
Continuous
 62
     7
370
    15
100
AcDbLine
 10
99.4337916788
 20
20.3550935035
 30
0.0
 11
93.5244881554
 21
20.3550935035
 31
0.0
  0
LINE
  5
1EF
330
1F
100
AcDbEntity
  8
0
  6
Continuous
 62
     7
370
    15
100
AcDbLine
 10
128.5244872276
 20
20.3550935035
 30
0.0
 11
99.4337916788
 21
20.3550935035
 31
0.0
  0
LINE
  5
1F0
330
1F
100
AcDbEntity
  8
0
  6
Continuous
 62
     7
370
    15
100
AcDbLine
 10
104.4012329955
 20
25.3550924604
 30
0.0
 11
101.0244883079
 21
25.3550924604
 31
0.0
  0
LINE
  5
1F1
330
1F
100
AcDbEntity
  8
0
  6
Continuous
 62
     7
370
    15
100
AcDbLine
 10
121.0244887922
 20
25.3550924604
 30
0.0
 11
104.4012329955
 21
25.3550924604
 31
0.0
  0
LINE
  5
1F2
330
1F
100
AcDbEntity
  8
0
  6
Continuous
 62
     7
370
    15
100
AcDbLine
 10
99.2629251856
 20
20.155090118
 30
0.0
 11
93.5244881554
 21
20.155090118
 31
0.0
  0
LINE
  5
1F3
330
1F
100
AcDbEntity
  8
0
  6
Continuous
 62
     7
370
    15
100
AcDbLine
 10
128.5244872276
 20
20.155090118
 30
0.0
 11
99.2629251856
 21
20.155090118
 31
0.0
  0
LINE
  5
1F4
330
1F
100
AcDbEntity
  8
0
  6
Continuous
 62
     7
370
    15
100
AcDbLine
 10
93.5244881554
 20
19.3550914769
 30
0.0
 11
128.5244872276
 21
19.3550914769
 31
0.0
  0
LINE
  5
1F5
330
1F
100
AcDbEntity
  8
0
  6
Continuous
 62
     7
370
    15
100
AcDbLine
 10
126.5244868997
 20
17.3550911491
 30
0.0
 11
95.5244881049
 21
17.3550911491
 31
0.0
  0
CIRCLE
  5
1F6
330
1F
100
AcDbEntity
  8
0
  6
Continuous
 62
     7
370
    15
100
AcDbCircle
 10
111.0244881623
 20
52.8550917953
 30
0.0
 40
12.00000000000001
  0
CIRCLE
  5
1F7
330
1F
100
AcDbEntity
  8
0
  6
Continuous
 62
     7
370
    15
100
AcDbCircle
 10
111.0244881623
 20
52.8550917953
 30
0.0
 40
12.50000000000001
  0
ARC
  5
1F8
330
1F
100
AcDbEntity
  8
0
  6
Continuous
 62
     7
370
    15
100
AcDbCircle
 10
111.0244881623
 20
52.8550917953
 30
0.0
 40
17.00000000000001
100
AcDbArc
 50
301.4669762933
 51
238.5330237067
  0
ARC
  5
1F9
330
1F
100
AcDbEntity
  8
0
  6
Continuous
 62
     7
370
    15
100
AcDbCircle
 10
111.0244881623
 20
52.8550917953
 30
0.0
 40
17.5
100
AcDbArc
 50
304.04773237
 51
235.95226763
  0
ARC
  5
1FA
330
1F
100
AcDbEntity
  8
0
  6
Continuous
 62
     7
370
    15
100
AcDbCircle
 10
111.0244881623
 20
52.8550917953
 30
0.0
 40
13.0
100
AcDbArc
 50
305.2344179846
 51
60.0
  0
ARC
  5
1FB
330
1F
100
AcDbEntity
  8
0
  6
Continuous
 62
     7
370
    15
100
AcDbCircle
 10
111.0244881623
 20
52.8550917953
 30
0.0
 40
13.00000000000002
100
AcDbArc
 50
120.0
 51
234.7655820154
  0
LINE
  5
1FC
330
1F
100
AcDbEntity
  8
0
  6
Continuous
 62
     8
370
    15
100
AcDbLine
 10
117.5244872872
 20
65.5550921579
 30
0.0
 11
104.5244879503
 21
65.5550921579
 31
0.0
  0
ENDSEC
  0
SECTION
  2
OBJECTS
  0
DICTIONARY
  5
C
330
0
100
AcDbDictionary
281
     1
  3
ACAD_GROUP
350
D
  3
ACAD_LAYOUT
350
1A
  3
ACAD_MLINESTYLE
350
17
  3
ACAD_PLOTSETTINGS
350
19
  3
ACAD_PLOTSTYLENAME
350
E
  3
ACAD_SCALELIST
350
47
  0
DICTIONARY
  5
D
102
{ACAD_REACTORS
330
C
102
}
330
C
100
AcDbDictionary
281
     1
  0
DICTIONARY
  5
1A
102
{ACAD_REACTORS
330
C
102
}
330
C
100
AcDbDictionary
281
     1
  3
Layout1
350
1E
  3
Layout2
350
26
  3
Model
350
22
  0
DICTIONARY
  5
17
102
{ACAD_REACTORS
330
C
102
}
330
C
100
AcDbDictionary
281
     1
  3
Standard
350
18
  0
DICTIONARY
  5
19
102
{ACAD_REACTORS
330
C
102
}
330
C
100
AcDbDictionary
281
     1
  0
ACDBDICTIONARYWDFLT
  5
E
102
{ACAD_REACTORS
330
C
102
}
330
C
100
AcDbDictionary
281
     1
  3
Normal
350
F
100
AcDbDictionaryWithDefault
340
F
  0
DICTIONARY
  5
47
102
{ACAD_REACTORS
330
C
102
}
330
C
100
AcDbDictionary
281
     1
  3
A0
350
48
  3
A1
350
49
  3
A2
350
4A
  3
A3
350
4B
  3
A4
350
4C
  3
A5
350
4D
  3
A6
350
4E
  3
A7
350
4F
  3
A8
350
50
  3
A9
350
51
  3
B0
350
52
  3
B1
350
53
  3
B2
350
54
  3
B3
350
55
  3
B4
350
56
  3
B5
350
57
  3
B6
350
58
  3
B7
350
59
  3
B8
350
5A
  3
B9
350
5B
  3
C0
350
5C
  3
C1
350
5D
  3
C2
350
5E
  3
C3
350
5F
  3
C4
350
60
  3
C5
350
61
  3
C6
350
62
  3
C7
350
63
  3
C8
350
64
  3
C9
350
65
  3
D0
350
66
  3
D1
350
67
  3
D2
350
68
  0
LAYOUT
  5
1E
102
{ACAD_REACTORS
330
1A
102
}
330
1A
100
AcDbPlotSettings
  1

  2
none_device
  4

  6

 40
0.0
 41
0.0
 42
0.0
 43
0.0
 44
0.0
 45
0.0
 46
0.0
 47
0.0
 48
0.0
 49
0.0
140
0.0
141
0.0
142
1.0
143
1.0
 70
   688
 72
     1
 73
     0
 74
     5
  7

 75
    16
147
1.0
148
0.0
149
0.0
100
AcDbLayout
  1
Layout1
 70
     1
 71
     1
 10
0.0
 20
0.0
 11
420.0
 21
297.0
 12
0.0
 22
0.0
 32
0.0
 14
1.0000000000E+20
 24
1.0000000000E+20
 34
1.0000000000E+20
 15
-1.0000000000E+20
 25
-1.0000000000E+20
 35
-1.0000000000E+20
146
0.0
 13
0.0
 23
0.0
 33
0.0
 16
1.0
 26
0.0
 36
0.0
 17
0.0
 27
1.0
 37
0.0
 76
     0
330
1B
  0
LAYOUT
  5
26
102
{ACAD_REACTORS
330
1A
102
}
330
1A
100
AcDbPlotSettings
  1

  2
none_device
  4

  6

 40
0.0
 41
0.0
 42
0.0
 43
0.0
 44
0.0
 45
0.0
 46
0.0
 47
0.0
 48
0.0
 49
0.0
140
0.0
141
0.0
142
1.0
143
1.0
 70
   688
 72
     1
 73
     0
 74
     5
  7

 75
    16
147
1.0
148
0.0
149
0.0
100
AcDbLayout
  1
Layout2
 70
     1
 71
     2
 10
0.0
 20
0.0
 11
0.0
 21
0.0
 12
0.0
 22
0.0
 32
0.0
 14
0.0
 24
0.0
 34
0.0
 15
0.0
 25
0.0
 35
0.0
146
0.0
 13
0.0
 23
0.0
 33
0.0
 16
1.0
 26
0.0
 36
0.0
 17
0.0
 27
1.0
 37
0.0
 76
     0
330
23
  0
LAYOUT
  5
22
102
{ACAD_REACTORS
330
1A
102
}
330
1A
100
AcDbPlotSettings
  1

  2
none_device
  4
Letter_(8.50_x_11.00_Inches)
  6

 40
6.35
 41
6.35
 42
6.35000508
 43
6.35000508
 44
215.9
 45
279.4
 46
0.0
 47
0.0
 48
0.0
 49
0.0
140
0.0
141
0.0
142
1.0
143
1.0
 70
  1712
 72
     1
 73
     0
 74
     0
  7

 75
     0
147
1.0
148
0.0
149
0.0
100
AcDbLayout
  1
Model
 70
     1
 71
     0
 10
0.0
 20
0.0
 11
279.4
 21
215.9
 12
0.0
 22
0.0
 32
0.0
 14
0.0
 24
0.0
 34
0.0
 15
279.4
 25
215.9
 35
0.0
146
0.0
 13
0.0
 23
0.0
 33
0.0
 16
1.0
 26
0.0
 36
0.0
 17
0.0
 27
1.0
 37
0.0
 76
     0
330
1F
331
29
  0
MLINESTYLE
  5
18
102
{ACAD_REACTORS
330
17
102
}
330
17
100
AcDbMlineStyle
  2
Standard
 70
     0
  3

 62
   256
 51
90.0
 52
90.0
 71
     2
 49
0.5
 62
   256
  6
BYLAYER
 49
-0.5
 62
   256
  6
BYLAYER
  0
ACDBPLACEHOLDER
  5
F
102
{ACAD_REACTORS
330
E
102
}
330
E
  0
SCALE
  5
48
102
{ACAD_REACTORS
330
47
102
}
330
47
100
AcDbScale
 70
     0
300
1:1
140
1.0
141
1.0
290
     1
  0
SCALE
  5
49
102
{ACAD_REACTORS
330
47
102
}
330
47
100
AcDbScale
 70
     0
300
1:2
140
1.0
141
2.0
290
     0
  0
SCALE
  5
4A
102
{ACAD_REACTORS
330
47
102
}
330
47
100
AcDbScale
 70
     0
300
1:4
140
1.0
141
4.0
290
     0
  0
SCALE
  5
4B
102
{ACAD_REACTORS
330
47
102
}
330
47
100
AcDbScale
 70
     0
300
1:5
140
1.0
141
5.0
290
     0
  0
SCALE
  5
4C
102
{ACAD_REACTORS
330
47
102
}
330
47
100
AcDbScale
 70
     0
300
1:8
140
1.0
141
8.0
290
     0
  0
SCALE
  5
4D
102
{ACAD_REACTORS
330
47
102
}
330
47
100
AcDbScale
 70
     0
300
1:10
140
1.0
141
10.0
290
     0
  0
SCALE
  5
4E
102
{ACAD_REACTORS
330
47
102
}
330
47
100
AcDbScale
 70
     0
300
1:16
140
1.0
141
16.0
290
     0
  0
SCALE
  5
4F
102
{ACAD_REACTORS
330
47
102
}
330
47
100
AcDbScale
 70
     0
300
1:20
140
1.0
141
20.0
290
     0
  0
SCALE
  5
50
102
{ACAD_REACTORS
330
47
102
}
330
47
100
AcDbScale
 70
     0
300
1:30
140
1.0
141
30.0
290
     0
  0
SCALE
  5
51
102
{ACAD_REACTORS
330
47
102
}
330
47
100
AcDbScale
 70
     0
300
1:40
140
1.0
141
40.0
290
     0
  0
SCALE
  5
52
102
{ACAD_REACTORS
330
47
102
}
330
47
100
AcDbScale
 70
     0
300
1:50
140
1.0
141
50.0
290
     0
  0
SCALE
  5
53
102
{ACAD_REACTORS
330
47
102
}
330
47
100
AcDbScale
 70
     0
300
1:100
140
1.0
141
100.0
290
     0
  0
SCALE
  5
54
102
{ACAD_REACTORS
330
47
102
}
330
47
100
AcDbScale
 70
     0
300
2:1
140
2.0
141
1.0
290
     0
  0
SCALE
  5
55
102
{ACAD_REACTORS
330
47
102
}
330
47
100
AcDbScale
 70
     0
300
4:1
140
4.0
141
1.0
290
     0
  0
SCALE
  5
56
102
{ACAD_REACTORS
330
47
102
}
330
47
100
AcDbScale
 70
     0
300
8:1
140
8.0
141
1.0
290
     0
  0
SCALE
  5
57
102
{ACAD_REACTORS
330
47
102
}
330
47
100
AcDbScale
 70
     0
300
10:1
140
10.0
141
1.0
290
     0
  0
SCALE
  5
58
102
{ACAD_REACTORS
330
47
102
}
330
47
100
AcDbScale
 70
     0
300
100:1
140
100.0
141
1.0
290
     0
  0
SCALE
  5
59
102
{ACAD_REACTORS
330
47
102
}
330
47
100
AcDbScale
 70
     0
300
1/128" = 1'-0"
140
0.0078125
141
12.0
290
     0
  0
SCALE
  5
5A
102
{ACAD_REACTORS
330
47
102
}
330
47
100
AcDbScale
 70
     0
300
1/64" = 1'-0"
140
0.015625
141
12.0
290
     0
  0
SCALE
  5
5B
102
{ACAD_REACTORS
330
47
102
}
330
47
100
AcDbScale
 70
     0
300
1/32" = 1'-0"
140
0.03125
141
12.0
290
     0
  0
SCALE
  5
5C
102
{ACAD_REACTORS
330
47
102
}
330
47
100
AcDbScale
 70
     0
300
1/16" = 1'-0"
140
0.0625
141
12.0
290
     0
  0
SCALE
  5
5D
102
{ACAD_REACTORS
330
47
102
}
330
47
100
AcDbScale
 70
     0
300
3/32" = 1'-0"
140
0.09375
141
12.0
290
     0
  0
SCALE
  5
5E
102
{ACAD_REACTORS
330
47
102
}
330
47
100
AcDbScale
 70
     0
300
1/8" = 1'-0"
140
0.125
141
12.0
290
     0
  0
SCALE
  5
5F
102
{ACAD_REACTORS
330
47
102
}
330
47
100
AcDbScale
 70
     0
300
3/16" = 1'-0"
140
0.1875
141
12.0
290
     0
  0
SCALE
  5
60
102
{ACAD_REACTORS
330
47
102
}
330
47
100
AcDbScale
 70
     0
300
1/4" = 1'-0"
140
0.25
141
12.0
290
     0
  0
SCALE
  5
61
102
{ACAD_REACTORS
330
47
102
}
330
47
100
AcDbScale
 70
     0
300
3/8" = 1'-0"
140
0.375
141
12.0
290
     0
  0
SCALE
  5
62
102
{ACAD_REACTORS
330
47
102
}
330
47
100
AcDbScale
 70
     0
300
1/2" = 1'-0"
140
0.5
141
12.0
290
     0
  0
SCALE
  5
63
102
{ACAD_REACTORS
330
47
102
}
330
47
100
AcDbScale
 70
     0
300
3/4" = 1'-0"
140
0.75
141
12.0
290
     0
  0
SCALE
  5
64
102
{ACAD_REACTORS
330
47
102
}
330
47
100
AcDbScale
 70
     0
300
1" = 1'-0"
140
1.0
141
12.0
290
     0
  0
SCALE
  5
65
102
{ACAD_REACTORS
330
47
102
}
330
47
100
AcDbScale
 70
     0
300
1-1/2" = 1'-0"
140
1.5
141
12.0
290
     0
  0
SCALE
  5
66
102
{ACAD_REACTORS
330
47
102
}
330
47
100
AcDbScale
 70
     0
300
3" = 1'-0"
140
3.0
141
12.0
290
     0
  0
SCALE
  5
67
102
{ACAD_REACTORS
330
47
102
}
330
47
100
AcDbScale
 70
     0
300
6" = 1'-0"
140
6.0
141
12.0
290
     0
  0
SCALE
  5
68
102
{ACAD_REACTORS
330
47
102
}
330
47
100
AcDbScale
 70
     0
300
1'-0" = 1'-0"
140
12.0
141
12.0
290
     0
  0
ENDSEC
  0
EOF
