  0
SECTION
  2
HEADER
  9
$ACADVER
  1
AC1015
  9
$ACADMAINTVER
 70
     6
  9
$DWGCODEPAGE
  3
ANSI_1252
  9
$INSBASE
 10
0.0
 20
0.0
 30
0.0
  9
$EXTMIN
 10
0.0
 20
0.0
 30
0.0
  9
$EXTMAX
 10
279.4
 20
215.9
 30
0.0
  9
$LIMMIN
 10
0.0
 20
0.0
  9
$LIMMAX
 10
279.4
 20
215.9
  9
$ORTHOMODE
 70
     0
  9
$REGENMODE
 70
     1
  9
$FILLMODE
 70
     1
  9
$QTEXTMODE
 70
     0
  9
$MIRRTEXT
 70
     1
  9
$LTSCALE
 40
1.0
  9
$ATTMODE
 70
     1
  9
$TEXTSIZE
 40
3.5
  9
$TRACEWID
 40
1.0
  9
$TEXTSTYLE
  7
Standard
  9
$CLAYER
  8
0
  9
$CELTYPE
  6
ByLayer
  9
$CECOLOR
 62
   256
  9
$CELTSCALE
 40
1.0
  9
$DISPSILH
 70
     0
  9
$DIMSCALE
 40
1.0
  9
$DIMASZ
 40
1.0
  9
$DIMEXO
 40
1.0
  9
$DIMDLI
 40
3.75
  9
$DIMRND
 40
0.0
  9
$DIMDLE
 40
0.0
  9
$DIMEXE
 40
1.0
  9
$DIMTP
 40
0.0
  9
$DIMTM
 40
0.0
  9
$DIMTXT
 40
3.5
  9
$DIMCEN
 40
2.5
  9
$DIMTSZ
 40
0.0
  9
$DIMTOL
 70
     0
  9
$DIMLIM
 70
     0
  9
$DIMTIH
 70
     1
  9
$DIMTOH
 70
     1
  9
$DIMSE1
 70
     0
  9
$DIMSE2
 70
     0
  9
$DIMTAD
 70
     1
  9
$DIMZIN
 70
     1
  9
$DIMBLK
  1

  9
$DIMASO
 70
     1
  9
$DIMSHO
 70
     1
  9
$DIMPOST
  1

  9
$DIMAPOST
  1

  9
$DIMALT
 70
     0
  9
$DIMALTD
 70
     3
  9
$DIMALTF
 40
0.0393700787
  9
$DIMLFAC
 40
1.0
  9
$DIMTOFL
 70
     1
  9
$DIMTVP
 40
0.0
  9
$DIMTIX
 70
     0
  9
$DIMSOXD
 70
     0
  9
$DIMSAH
 70
     0
  9
$DIMBLK1
  1

  9
$DIMBLK2
  1

  9
$DIMSTYLE
  2
ISO-25
  9
$DIMCLRD
 70
     0
  9
$DIMCLRE
 70
     0
  9
$DIMCLRT
 70
     0
  9
$DIMTFAC
 40
1.0
  9
$DIMGAP
 40
1.524
  9
$DIMJUST
 70
     0
  9
$DIMSD1
 70
     0
  9
$DIMSD2
 70
     0
  9
$DIMTOLJ
 70
     0
  9
$DIMTZIN
 70
     1
  9
$DIMALTZ
 70
     0
  9
$DIMALTTZ
 70
     0
  9
$DIMUPT
 70
     0
  9
$DIMDEC
 70
     2
  9
$DIMTDEC
 70
     2
  9
$DIMALTU
 70
     2
  9
$DIMALTTD
 70
     3
  9
$DIMTXSTY
  7
Standard
  9
$DIMAUNIT
 70
     0
  9
$DIMADEC
 70
     2
  9
$DIMALTRND
 40
0.0
  9
$DIMAZIN
 70
     0
  9
$DIMDSEP
 70
    44
  9
$DIMATFIT
 70
     3
  9
$DIMFRAC
 70
     0
  9
$DIMLDRBLK
  1

  9
$DIMLUNIT
 70
     2
  9
$DIMLWD
 70
    -2
  9
$DIMLWE
 70
    -2
  9
$DIMTMOVE
 70
     0
  9
$LUNITS
 70
     2
  9
$LUPREC
 70
     2
  9
$SKETCHINC
 40
1.0
  9
$FILLETRAD
 40
0.0
  9
$AUNITS
 70
     0
  9
$AUPREC
 70
     2
  9
$MENU
  1
.
  9
$ELEVATION
 40
0.0
  9
$PELEVATION
 40
0.0
  9
$THICKNESS
 40
0.0
  9
$LIMCHECK
 70
     0
  9
$CHAMFERA
 40
0.0
  9
$CHAMFERB
 40
0.0
  9
$CHAMFERC
 40
0.0
  9
$CHAMFERD
 40
0.0
  9
$SKPOLY
 70
     0
  9
$TDCREATE
 40
2459648.709454294
  9
$TDUCREATE
 40
2459648.709454294
  9
$TDUPDATE
 40
2459648.709454572
  9
$TDUUPDATE
 40
2459648.709454572
  9
$TDINDWG
 40
0.0000000116
  9
$TDUSRTIMER
 40
0.0000000116
  9
$USRTIMER
 70
     1
  9
$ANGBASE
 50
0.0
  9
$ANGDIR
 70
     0
  9
$PDMODE
 70
     0
  9
$PDSIZE
 40
-1.0
  9
$PLINEWID
 40
0.0
  9
$SPLFRAME
 70
     0
  9
$SPLINETYPE
 70
     6
  9
$SPLINESEGS
 70
     8
  9
$HANDSEED
  5
306
  9
$SURFTAB1
 70
     6
  9
$SURFTAB2
 70
     6
  9
$SURFTYPE
 70
     6
  9
$SURFU
 70
     6
  9
$SURFV
 70
     6
  9
$UCSBASE
  2

  9
$UCSNAME
  2

  9
$UCSORG
 10
0.0
 20
0.0
 30
0.0
  9
$UCSXDIR
 10
1.0
 20
0.0
 30
0.0
  9
$UCSYDIR
 10
0.0
 20
1.0
 30
0.0
  9
$UCSORTHOREF
  2

  9
$UCSORTHOVIEW
 70
     0
  9
$UCSORGTOP
 10
0.0
 20
0.0
 30
0.0
  9
$UCSORGBOTTOM
 10
0.0
 20
0.0
 30
0.0
  9
$UCSORGLEFT
 10
0.0
 20
0.0
 30
0.0
  9
$UCSORGRIGHT
 10
0.0
 20
0.0
 30
0.0
  9
$UCSORGFRONT
 10
0.0
 20
0.0
 30
0.0
  9
$UCSORGBACK
 10
0.0
 20
0.0
 30
0.0
  9
$PUCSBASE
  2

  9
$PUCSNAME
  2

  9
$PUCSORG
 10
0.0
 20
0.0
 30
0.0
  9
$PUCSXDIR
 10
1.0
 20
0.0
 30
0.0
  9
$PUCSYDIR
 10
0.0
 20
1.0
 30
0.0
  9
$PUCSORTHOREF
  2

  9
$PUCSORTHOVIEW
 70
     0
  9
$PUCSORGTOP
 10
0.0
 20
0.0
 30
0.0
  9
$PUCSORGBOTTOM
 10
0.0
 20
0.0
 30
0.0
  9
$PUCSORGLEFT
 10
0.0
 20
0.0
 30
0.0
  9
$PUCSORGRIGHT
 10
0.0
 20
0.0
 30
0.0
  9
$PUCSORGFRONT
 10
0.0
 20
0.0
 30
0.0
  9
$PUCSORGBACK
 10
0.0
 20
0.0
 30
0.0
  9
$USERI1
 70
     0
  9
$USERI2
 70
     0
  9
$USERI3
 70
     0
  9
$USERI4
 70
     0
  9
$USERI5
 70
     0
  9
$USERR1
 40
0.0
  9
$USERR2
 40
0.0
  9
$USERR3
 40
0.0
  9
$USERR4
 40
0.0
  9
$USERR5
 40
0.0
  9
$WORLDVIEW
 70
     1
  9
$SHADEDGE
 70
     3
  9
$SHADEDIF
 70
    70
  9
$TILEMODE
 70
     1
  9
$MAXACTVP
 70
    64
  9
$PINSBASE
 10
0.0
 20
0.0
 30
0.0
  9
$PLIMCHECK
 70
     0
  9
$PEXTMIN
 10
1.0000000000E+20
 20
1.0000000000E+20
 30
1.0000000000E+20
  9
$PEXTMAX
 10
-1.0000000000E+20
 20
-1.0000000000E+20
 30
-1.0000000000E+20
  9
$PLIMMIN
 10
0.0
 20
0.0
  9
$PLIMMAX
 10
420.0
 20
297.0
  9
$UNITMODE
 70
     0
  9
$VISRETAIN
 70
     1
  9
$PLINEGEN
 70
     0
  9
$PSLTSCALE
 70
     1
  9
$TREEDEPTH
 70
  3020
  9
$CMLSTYLE
  2
Standard
  9
$CMLJUST
 70
     0
  9
$CMLSCALE
 40
20.0
  9
$PROXYGRAPHICS
 70
     1
  9
$MEASUREMENT
 70
     1
  9
$CELWEIGHT
370
    -1
  9
$ENDCAPS
280
     0
  9
$JOINSTYLE
280
     0
  9
$LWDISPLAY
290
     1
  9
$INSUNITS
 70
     4
  9
$HYPERLINKBASE
  1

  9
$STYLESHEET
  1

  9
$XEDIT
290
     1
  9
$CEPSNTYPE
380
     0
  9
$PSTYLEMODE
290
     1
  9
$FINGERPRINTGUID
  2
{b0e8db85-ee32-4640-8cfe-cb587ccd7a60}
  9
$VERSIONGUID
  2
{FAEB1C32-E019-11D5-929B-00C0DF256EC4}
  9
$EXTNAMES
290
     1
  9
$PSVPSCALE
 40
0.0
  9
$OLESTARTUP
290
     0
  0
ENDSEC
  0
SECTION
  2
CLASSES
  0
CLASS
  1
ACDBDICTIONARYWDFLT
  2
AcDbDictionaryWithDefault
  3
ObjectDBX Classes
 90
        0
280
     0
281
     0
  0
CLASS
  1
VISUALSTYLE
  2
AcDbVisualStyle
  3
ObjectDBX Classes
 90
     4095
280
     0
281
     0
  0
CLASS
  1
MATERIAL
  2
AcDbMaterial
  3
ObjectDBX Classes
 90
     1153
280
     0
281
     0
  0
CLASS
  1
SCALE
  2
AcDbScale
  3
ObjectDBX Classes
 90
     1153
280
     0
281
     0
  0
CLASS
  1
TABLESTYLE
  2
AcDbTableStyle
  3
ObjectDBX Classes
 90
     4095
280
     0
281
     0
  0
CLASS
  1
MLEADERSTYLE
  2
AcDbMLeaderStyle
  3
ACDB_MLEADERSTYLE_CLASS
 90
     4095
280
     0
281
     0
  0
CLASS
  1
SUN
  2
AcDbSun
  3
SCENEOE
 90
     1153
280
     0
281
     0
  0
CLASS
  1
ACDBPLACEHOLDER
  2
AcDbPlaceHolder
  3
ObjectDBX Classes
 90
        0
280
     0
281
     0
  0
CLASS
  1
LAYOUT
  2
AcDbLayout
  3
ObjectDBX Classes
 90
        0
280
     0
281
     0
  0
ENDSEC
  0
SECTION
  2
TABLES
  0
TABLE
  2
VPORT
  5
8
330
0
100
AcDbSymbolTable
 70
     1
  0
VPORT
  5
29
330
8
100
AcDbSymbolTableRecord
100
AcDbViewportTableRecord
  2
*Active
 70
     0
 10
0.0
 20
0.0
 11
1.0
 21
1.0
 12
139.7
 22
107.95
 13
0.0
 23
0.0
 14
10.0
 24
10.0
 15
10.0
 25
10.0
 16
0.0
 26
0.0
 36
1.0
 17
0.0
 27
0.0
 37
0.0
 40
215.9
 41
1.2941176471
 42
50.0
 43
0.0
 44
0.0
 50
0.0
 51
0.0
 71
     0
 72
  2000
 73
     1
 74
     3
 75
     0
 76
     0
 77
     0
 78
     0
281
     0
 65
     1
110
0.0
120
0.0
130
0.0
111
1.0
121
0.0
131
0.0
112
0.0
122
1.0
132
0.0
 79
     0
146
0.0
  0
ENDTAB
  0
TABLE
  2
LTYPE
  5
5
330
0
100
AcDbSymbolTable
 70
     6
  0
LTYPE
  5
14
330
5
100
AcDbSymbolTableRecord
100
AcDbLinetypeTableRecord
  2
ByBlock
 70
     0
  3

 72
    65
 73
     0
 40
0.0
  0
LTYPE
  5
15
330
5
100
AcDbSymbolTableRecord
100
AcDbLinetypeTableRecord
  2
ByLayer
 70
     0
  3

 72
    65
 73
     0
 40
0.0
  0
LTYPE
  5
16
330
5
100
AcDbSymbolTableRecord
100
AcDbLinetypeTableRecord
  2
Continuous
 70
     0
  3
Solid line
 72
    65
 73
     0
 40
0.0
  0
LTYPE
  5
5E
330
5
100
AcDbSymbolTableRecord
100
AcDbLinetypeTableRecord
  2
HIDDEN
 70
     0
  3
Hidden __ __ __ __ __ __ __ __ __ __ __ __ __ __
 72
    65
 73
     2
 40
1.905
 49
1.27
 74
     0
 49
-0.635
 74
     0
  0
LTYPE
  5
5F
330
5
100
AcDbSymbolTableRecord
100
AcDbLinetypeTableRecord
  2
PHANTOM
 70
     0
  3
Phantom ______  __  __  ______  __  __  ______
 72
    65
 73
     6
 40
12.7
 49
6.35
 74
     0
 49
-1.27
 74
     0
 49
1.27
 74
     0
 49
-1.27
 74
     0
 49
1.27
 74
     0
 49
-1.27
 74
     0
  0
LTYPE
  5
60
330
5
100
AcDbSymbolTableRecord
100
AcDbLinetypeTableRecord
  2
CENTER
 70
     0
  3
Center ____ _ ____ _ ____ _ ____ _ ____ _ ____
 72
    65
 73
     4
 40
10.16
 49
6.35
 74
     0
 49
-1.27
 74
     0
 49
1.27
 74
     0
 49
-1.27
 74
     0
  0
LTYPE
  5
61
330
5
100
AcDbSymbolTableRecord
100
AcDbLinetypeTableRecord
  2
CENTERX2
 70
     0
  3
Center (2x) ________  __  ________  __  _____
 72
    65
 73
     4
 40
20.32
 49
12.7
 74
     0
 49
-2.54
 74
     0
 49
2.54
 74
     0
 49
-2.54
 74
     0
  0
LTYPE
  5
62
330
5
100
AcDbSymbolTableRecord
100
AcDbLinetypeTableRecord
  2
DOT2
 70
     0
  3
Dot (.5x) ........................................
 72
    65
 73
     2
 40
0.635
 49
0.0
 74
     0
 49
-0.635
 74
     0
  0
ENDTAB
  0
TABLE
  2
LAYER
  5
2
330
0
100
AcDbSymbolTable
 70
     1
  0
LAYER
  5
10
330
2
100
AcDbSymbolTableRecord
100
AcDbLayerTableRecord
  2
0
 70
     0
 62
     7
  6
Continuous
370
    -3
390
F
  0
ENDTAB
  0
TABLE
  2
STYLE
  5
3
330
0
100
AcDbSymbolTable
 70
     1
  0
STYLE
  5
11
330
3
100
AcDbSymbolTableRecord
100
AcDbTextStyleTableRecord
  2
Standard
 70
     0
 40
0.0
 41
1.0
 50
0.0
 71
     0
 42
3.5
  3
txt
  4

  0
ENDTAB
  0
TABLE
  2
VIEW
  5
6
330
0
100
AcDbSymbolTable
 70
     0
  0
ENDTAB
  0
TABLE
  2
UCS
  5
7
330
0
100
AcDbSymbolTable
 70
     0
  0
ENDTAB
  0
TABLE
  2
APPID
  5
9
330
0
100
AcDbSymbolTable
 70
     1
  0
APPID
  5
12
330
9
100
AcDbSymbolTableRecord
100
AcDbRegAppTableRecord
  2
ACAD
 70
     0
  0
ENDTAB
  0
TABLE
  2
DIMSTYLE
  5
A
330
0
100
AcDbSymbolTable
 70
     1
100
AcDbDimStyleTable
  0
DIMSTYLE
105
27
330
A
100
AcDbSymbolTableRecord
100
AcDbDimStyleTableRecord
  2
ISO-25
 70
     0
 41
2.5
 42
0.625
 43
3.75
 44
1.25
 73
     0
 74
     0
 77
     1
 78
     8
140
2.5
141
2.5
143
0.0393700787
147
0.625
171
     3
172
     1
178
     0
271
     2
272
     2
274
     3
278
    44
283
     0
284
     8
340
11
  0
ENDTAB
  0
TABLE
  2
BLOCK_RECORD
  5
1
330
0
100
AcDbSymbolTable
 70
     1
  0
BLOCK_RECORD
  5
1F
330
1
100
AcDbSymbolTableRecord
100
AcDbBlockTableRecord
  2
*Model_Space
340
22
  0
BLOCK_RECORD
  5
1B
330
1
100
AcDbSymbolTableRecord
100
AcDbBlockTableRecord
  2
*Paper_Space
340
1E
  0
BLOCK_RECORD
  5
23
330
1
100
AcDbSymbolTableRecord
100
AcDbBlockTableRecord
  2
*Paper_Space0
340
26
  0
ENDTAB
  0
ENDSEC
  0
SECTION
  2
BLOCKS
  0
BLOCK
  5
20
330
1F
100
AcDbEntity
  8
0
100
AcDbBlockBegin
  2
*Model_Space
 70
     0
 10
0.0
 20
0.0
 30
0.0
  3
*Model_Space
  1

  0
ENDBLK
  5
21
330
1F
100
AcDbEntity
  8
0
100
AcDbBlockEnd
  0
BLOCK
  5
1C
330
1B
100
AcDbEntity
 67
     1
  8
0
100
AcDbBlockBegin
  2
*Paper_Space
 70
     0
 10
0.0
 20
0.0
 30
0.0
  3
*Paper_Space
  1

  0
ENDBLK
  5
1D
330
1B
100
AcDbEntity
 67
     1
  8
0
100
AcDbBlockEnd
  0
BLOCK
  5
24
330
23
100
AcDbEntity
  8
0
100
AcDbBlockBegin
  2
*Paper_Space0
 70
     0
 10
0.0
 20
0.0
 30
0.0
  3
*Paper_Space0
  1

  0
ENDBLK
  5
25
330
23
100
AcDbEntity
  8
0
100
AcDbBlockEnd
  0
ENDSEC
  0
SECTION
  2
ENTITIES
  0
LINE
  5
63
330
1F
100
AcDbEntity
  8
0
  6
Continuous
 62
     7
100
AcDbLine
 10
114.3348351344
 20
110.7076898013
 30
0.0
 11
114.3158556539
 21
110.7076898013
 31
0.0
  0
LINE
  5
64
330
1F
100
AcDbEntity
  8
0
  6
Continuous
 62
     7
100
AcDbLine
 10
114.3348351344
 20
110.7076898013
 30
0.0
 11
114.3348351344
 21
110.7461558275
 31
0.0
  0
LINE
  5
65
330
1F
100
AcDbEntity
  8
0
  6
Continuous
 62
     7
100
AcDbLine
 10
117.4692281659
 20
111.0289616566
 30
0.0
 11
117.4806224531
 21
111.0289616566
 31
0.0
  0
LINE
  5
66
330
1F
100
AcDbEntity
  8
0
  6
Continuous
 62
     7
100
AcDbLine
 10
117.4692281659
 20
111.0289616566
 30
0.0
 11
117.4692281659
 21
111.0674276828
 31
0.0
  0
LINE
  5
67
330
1F
100
AcDbEntity
  8
0
  6
Continuous
 62
     7
100
AcDbLine
 10
117.4530248628
 20
102.5078270233
 30
0.0
 11
117.4612485747
 21
102.5078270233
 31
0.0
  0
LINE
  5
68
330
1F
100
AcDbEntity
  8
0
  6
Continuous
 62
     7
100
AcDbLine
 10
117.4530248628
 20
102.5078270233
 30
0.0
 11
117.4530248628
 21
102.5462930495
 31
0.0
  0
LINE
  5
69
330
1F
100
AcDbEntity
  8
0
  6
Continuous
 62
     7
100
AcDbLine
 10
126.4692281659
 20
114.5289616566
 30
0.0
 11
126.4720037284
 21
114.5289616566
 31
0.0
  0
LINE
  5
6A
330
1F
100
AcDbEntity
  8
0
  6
Continuous
 62
     7
100
AcDbLine
 10
126.4692281659
 20
114.5289616566
 30
0.0
 11
126.4692281659
 21
114.5674276828
 31
0.0
  0
LINE
  5
6B
330
1F
100
AcDbEntity
  8
0
  6
Continuous
 62
     7
100
AcDbLine
 10
117.4692281659
 20
118.0289616566
 30
0.0
 11
117.4743716129
 21
118.0289616566
 31
0.0
  0
LINE
  5
6C
330
1F
100
AcDbEntity
  8
0
  6
Continuous
 62
     7
100
AcDbLine
 10
117.4692281659
 20
118.0289616566
 30
0.0
 11
117.4692281659
 21
118.0674276828
 31
0.0
  0
LINE
  5
6D
330
1F
100
AcDbEntity
  8
0
  6
Continuous
 62
     7
100
AcDbLine
 10
129.4559635199
 20
102.4807648667
 30
0.0
 11
129.46166813
 21
102.4807648667
 31
0.0
  0
LINE
  5
6E
330
1F
100
AcDbEntity
  8
0
  6
Continuous
 62
     7
100
AcDbLine
 10
129.4559635199
 20
102.4807648667
 30
0.0
 11
129.4559635199
 21
102.5192308929
 31
0.0
  0
LINE
  5
6F
330
1F
100
AcDbEntity
  8
0
  6
Continuous
 62
     7
100
AcDbLine
 10
129.4692281659
 20
111.0289616566
 30
0.0
 11
129.4502486854
 21
111.0289616566
 31
0.0
  0
LINE
  5
70
330
1F
100
AcDbEntity
  8
0
  6
Continuous
 62
     7
100
AcDbLine
 10
129.4692281659
 20
111.0289616566
 30
0.0
 11
129.4692281659
 21
111.0674276828
 31
0.0
  0
LINE
  5
71
330
1F
100
AcDbEntity
  8
0
  6
Continuous
 62
     7
100
AcDbLine
 10
120.4692281659
 20
116.5289616566
 30
0.0
 11
120.47248118
 21
116.5289616566
 31
0.0
  0
LINE
  5
72
330
1F
100
AcDbEntity
  8
0
  6
Continuous
 62
     7
100
AcDbLine
 10
120.4692281659
 20
116.5289616566
 30
0.0
 11
120.4692281659
 21
116.5674276828
 31
0.0
  0
LINE
  5
73
330
1F
100
AcDbEntity
  8
0
  6
Continuous
 62
     7
100
AcDbLine
 10
120.4664727185
 20
101.5951778433
 30
0.0
 11
120.4563494244
 21
101.5951778433
 31
0.0
  0
LINE
  5
74
330
1F
100
AcDbEntity
  8
0
  6
Continuous
 62
     7
100
AcDbLine
 10
120.4664727185
 20
101.5951778433
 30
0.0
 11
120.4664727185
 21
101.6336438695
 31
0.0
  0
LINE
  5
75
330
1F
100
AcDbEntity
  8
0
  6
Continuous
 62
     7
100
AcDbLine
 10
114.3588737878
 20
102.286678216
 30
0.0
 11
114.3670974997
 21
102.286678216
 31
0.0
  0
LINE
  5
76
330
1F
100
AcDbEntity
  8
0
  6
Continuous
 62
     7
100
AcDbLine
 10
114.3588737878
 20
102.286678216
 30
0.0
 11
114.3588737878
 21
102.3251442422
 31
0.0
  0
LINE
  5
77
330
1F
100
AcDbEntity
  8
0
  6
Continuous
 62
     7
100
AcDbLine
 10
103.4692281659
 20
122.5289616566
 30
0.0
 11
103.4692281659
 21
122.5192937968
 31
0.0
  0
LINE
  5
78
330
1F
100
AcDbEntity
  8
0
  6
Continuous
 62
     7
100
AcDbLine
 10
103.4692281659
 20
122.5289616566
 30
0.0
 11
103.5076941921
 21
122.5289616566
 31
0.0
  0
LINE
  5
79
330
1F
100
AcDbEntity
  8
0
  6
Continuous
 62
     7
100
AcDbLine
 10
98.4576465849
 20
122.5289616566
 30
0.0
 11
98.4576465849
 21
122.5281513532
 31
0.0
  0
LINE
  5
7A
330
1F
100
AcDbEntity
  8
0
  6
Continuous
 62
     7
100
AcDbLine
 10
98.4576465849
 20
122.5289616566
 30
0.0
 11
98.4191805587
 21
122.5289616566
 31
0.0
  0
LINE
  5
7B
330
1F
100
AcDbEntity
  8
0
  6
Continuous
 62
     7
100
AcDbLine
 10
82.6036211974
 20
110.7076898013
 30
0.0
 11
82.622600678
 21
110.7076898013
 31
0.0
  0
LINE
  5
7C
330
1F
100
AcDbEntity
  8
0
  6
Continuous
 62
     7
100
AcDbLine
 10
82.6036211974
 20
110.7076898013
 30
0.0
 11
82.6036211974
 21
110.7461558275
 31
0.0
  0
LINE
  5
7D
330
1F
100
AcDbEntity
  8
0
  6
Continuous
 62
     7
100
AcDbLine
 10
79.4692281659
 20
111.0289616566
 30
0.0
 11
79.4578338788
 21
111.0289616566
 31
0.0
  0
LINE
  5
7E
330
1F
100
AcDbEntity
  8
0
  6
Continuous
 62
     7
100
AcDbLine
 10
79.4692281659
 20
111.0289616566
 30
0.0
 11
79.4692281659
 21
111.0674276828
 31
0.0
  0
LINE
  5
7F
330
1F
100
AcDbEntity
  8
0
  6
Continuous
 62
     7
100
AcDbLine
 10
79.4854314691
 20
102.5078270233
 30
0.0
 11
79.4772077572
 21
102.5078270233
 31
0.0
  0
LINE
  5
80
330
1F
100
AcDbEntity
  8
0
  6
Continuous
 62
     7
100
AcDbLine
 10
79.4854314691
 20
102.5078270233
 30
0.0
 11
79.4854314691
 21
102.5462930495
 31
0.0
  0
LINE
  5
81
330
1F
100
AcDbEntity
  8
0
  6
Continuous
 62
     7
100
AcDbLine
 10
70.4692281659
 20
114.5289616566
 30
0.0
 11
70.4664526035
 21
114.5289616566
 31
0.0
  0
LINE
  5
82
330
1F
100
AcDbEntity
  8
0
  6
Continuous
 62
     7
100
AcDbLine
 10
70.4692281659
 20
114.5289616566
 30
0.0
 11
70.4692281659
 21
114.5674276828
 31
0.0
  0
LINE
  5
83
330
1F
100
AcDbEntity
  8
0
  6
Continuous
 62
     7
100
AcDbLine
 10
79.4692281659
 20
118.0289616566
 30
0.0
 11
79.464084719
 21
118.0289616566
 31
0.0
  0
LINE
  5
84
330
1F
100
AcDbEntity
  8
0
  6
Continuous
 62
     7
100
AcDbLine
 10
79.4692281659
 20
118.0289616566
 30
0.0
 11
79.4692281659
 21
118.0674276828
 31
0.0
  0
LINE
  5
85
330
1F
100
AcDbEntity
  8
0
  6
Continuous
 62
     7
100
AcDbLine
 10
67.482492812
 20
102.4807648667
 30
0.0
 11
67.4767882018
 21
102.4807648667
 31
0.0
  0
LINE
  5
86
330
1F
100
AcDbEntity
  8
0
  6
Continuous
 62
     7
100
AcDbLine
 10
67.482492812
 20
102.4807648667
 30
0.0
 11
67.482492812
 21
102.5192308929
 31
0.0
  0
LINE
  5
87
330
1F
100
AcDbEntity
  8
0
  6
Continuous
 62
     7
100
AcDbLine
 10
67.4692281659
 20
111.0289616566
 30
0.0
 11
67.4882076465
 21
111.0289616566
 31
0.0
  0
LINE
  5
88
330
1F
100
AcDbEntity
  8
0
  6
Continuous
 62
     7
100
AcDbLine
 10
67.4692281659
 20
111.0289616566
 30
0.0
 11
67.4692281659
 21
111.0674276828
 31
0.0
  0
LINE
  5
89
330
1F
100
AcDbEntity
  8
0
  6
Continuous
 62
     7
100
AcDbLine
 10
76.4692281659
 20
116.5289616566
 30
0.0
 11
76.4659751518
 21
116.5289616566
 31
0.0
  0
LINE
  5
8A
330
1F
100
AcDbEntity
  8
0
  6
Continuous
 62
     7
100
AcDbLine
 10
76.4692281659
 20
116.5289616566
 30
0.0
 11
76.4692281659
 21
116.5674276828
 31
0.0
  0
LINE
  5
8B
330
1F
100
AcDbEntity
  8
0
  6
Continuous
 62
     7
100
AcDbLine
 10
76.4719836133
 20
101.5951778433
 30
0.0
 11
76.4821069075
 21
101.5951778433
 31
0.0
  0
LINE
  5
8C
330
1F
100
AcDbEntity
  8
0
  6
Continuous
 62
     7
100
AcDbLine
 10
76.4719836133
 20
101.5951778433
 30
0.0
 11
76.4719836133
 21
101.6336438695
 31
0.0
  0
LINE
  5
8D
330
1F
100
AcDbEntity
  8
0
  6
Continuous
 62
     7
100
AcDbLine
 10
82.5795825441
 20
102.286678216
 30
0.0
 11
82.5713588322
 21
102.286678216
 31
0.0
  0
LINE
  5
8E
330
1F
100
AcDbEntity
  8
0
  6
Continuous
 62
     7
100
AcDbLine
 10
82.5795825441
 20
102.286678216
 30
0.0
 11
82.5795825441
 21
102.3251442422
 31
0.0
  0
LINE
  5
8F
330
1F
100
AcDbEntity
  8
0
  6
Continuous
 62
     7
100
AcDbLine
 10
86.3262251782
 20
122.5289616566
 30
0.0
 11
86.3262251782
 21
122.5464201471
 31
0.0
  0
LINE
  5
90
330
1F
100
AcDbEntity
  8
0
  6
Continuous
 62
     7
100
AcDbLine
 10
86.3262251782
 20
122.5289616566
 30
0.0
 11
86.3646912044
 21
122.5289616566
 31
0.0
  0
POINT
  5
91
330
1F
100
AcDbEntity
  8
0
  6
Continuous
 62
     7
100
AcDbPoint
 10
114.3348351344
 20
110.7076898013
 30
0.0
  0
POINT
  5
92
330
1F
100
AcDbEntity
  8
0
  6
Continuous
 62
     7
100
AcDbPoint
 10
117.4692281659
 20
111.0289616566
 30
0.0
  0
POINT
  5
93
330
1F
100
AcDbEntity
  8
0
  6
Continuous
 62
     7
100
AcDbPoint
 10
117.4530248628
 20
102.5078270233
 30
0.0
  0
POINT
  5
94
330
1F
100
AcDbEntity
  8
0
  6
Continuous
 62
     7
100
AcDbPoint
 10
126.4692281659
 20
114.5289616566
 30
0.0
  0
POINT
  5
95
330
1F
100
AcDbEntity
  8
0
  6
Continuous
 62
     7
100
AcDbPoint
 10
117.4692281659
 20
118.0289616566
 30
0.0
  0
POINT
  5
96
330
1F
100
AcDbEntity
  8
0
  6
Continuous
 62
     7
100
AcDbPoint
 10
129.4559635199
 20
102.4807648667
 30
0.0
  0
POINT
  5
97
330
1F
100
AcDbEntity
  8
0
  6
Continuous
 62
     7
100
AcDbPoint
 10
129.4692281659
 20
111.0289616566
 30
0.0
  0
POINT
  5
98
330
1F
100
AcDbEntity
  8
0
  6
Continuous
 62
     7
100
AcDbPoint
 10
120.4692281659
 20
116.5289616566
 30
0.0
  0
POINT
  5
99
330
1F
100
AcDbEntity
  8
0
  6
Continuous
 62
     7
100
AcDbPoint
 10
120.4664727185
 20
101.5951778433
 30
0.0
  0
POINT
  5
9A
330
1F
100
AcDbEntity
  8
0
  6
Continuous
 62
     7
100
AcDbPoint
 10
114.3588737878
 20
102.286678216
 30
0.0
  0
POINT
  5
9B
330
1F
100
AcDbEntity
  8
0
  6
Continuous
 62
     7
100
AcDbPoint
 10
103.4692281659
 20
122.5289616566
 30
0.0
  0
POINT
  5
9C
330
1F
100
AcDbEntity
  8
0
  6
Continuous
 62
     7
100
AcDbPoint
 10
98.4576465849
 20
122.5289616566
 30
0.0
  0
POINT
  5
9D
330
1F
100
AcDbEntity
  8
0
  6
Continuous
 62
     7
100
AcDbPoint
 10
82.6036211974
 20
110.7076898013
 30
0.0
  0
POINT
  5
9E
330
1F
100
AcDbEntity
  8
0
  6
Continuous
 62
     7
100
AcDbPoint
 10
79.4692281659
 20
111.0289616566
 30
0.0
  0
POINT
  5
9F
330
1F
100
AcDbEntity
  8
0
  6
Continuous
 62
     7
100
AcDbPoint
 10
79.4854314691
 20
102.5078270233
 30
0.0
  0
POINT
  5
A0
330
1F
100
AcDbEntity
  8
0
  6
Continuous
 62
     7
100
AcDbPoint
 10
70.4692281659
 20
114.5289616566
 30
0.0
  0
POINT
  5
A1
330
1F
100
AcDbEntity
  8
0
  6
Continuous
 62
     7
100
AcDbPoint
 10
79.4692281659
 20
118.0289616566
 30
0.0
  0
POINT
  5
A2
330
1F
100
AcDbEntity
  8
0
  6
Continuous
 62
     7
100
AcDbPoint
 10
67.482492812
 20
102.4807648667
 30
0.0
  0
POINT
  5
A3
330
1F
100
AcDbEntity
  8
0
  6
Continuous
 62
     7
100
AcDbPoint
 10
67.4692281659
 20
111.0289616566
 30
0.0
  0
POINT
  5
A4
330
1F
100
AcDbEntity
  8
0
  6
Continuous
 62
     7
100
AcDbPoint
 10
76.4692281659
 20
116.5289616566
 30
0.0
  0
POINT
  5
A5
330
1F
100
AcDbEntity
  8
0
  6
Continuous
 62
     7
100
AcDbPoint
 10
76.4719836133
 20
101.5951778433
 30
0.0
  0
POINT
  5
A6
330
1F
100
AcDbEntity
  8
0
  6
Continuous
 62
     7
100
AcDbPoint
 10
82.5795825441
 20
102.286678216
 30
0.0
  0
POINT
  5
A7
330
1F
100
AcDbEntity
  8
0
  6
Continuous
 62
     7
100
AcDbPoint
 10
86.3262251782
 20
122.5289616566
 30
0.0
  0
LINE
  5
A8
330
1F
100
AcDbEntity
  8
0
  6
Continuous
 62
     7
370
    25
100
AcDbLine
 10
98.4692281659
 20
116.0289616566
 30
0.0
 11
98.6692281659
 21
116.0289616566
 31
0.0
  0
LINE
  5
A9
330
1F
100
AcDbEntity
  8
0
  6
Continuous
 62
     7
370
    25
100
AcDbLine
 10
108.2692281659
 20
116.0289616566
 30
0.0
 11
108.4692281659
 21
116.0289616566
 31
0.0
  0
LINE
  5
AA
330
1F
100
AcDbEntity
  8
0
  6
Continuous
 62
     7
370
    25
100
AcDbLine
 10
98.6692281659
 20
114.1289616566
 30
0.0
 11
108.2692281659
 21
114.1289616566
 31
0.0
  0
LINE
  5
AB
330
1F
100
AcDbEntity
  8
0
  6
Continuous
 62
     7
370
    25
100
AcDbLine
 10
108.2692281659
 20
130.9289616566
 30
0.0
 11
98.6692281659
 21
130.9289616566
 31
0.0
  0
LINE
  5
AC
330
1F
100
AcDbEntity
  8
0
  6
Continuous
 62
     7
370
    25
100
AcDbLine
 10
98.8192281659
 20
108.1966317272
 30
0.0
 11
108.1192281659
 21
108.1966317272
 31
0.0
  0
LINE
  5
AD
330
1F
100
AcDbEntity
  8
0
  6
Continuous
 62
     7
370
    25
100
AcDbLine
 10
93.4692281659
 20
131.0289616566
 30
0.0
 11
83.4692281659
 21
131.0289616566
 31
0.0
  0
LINE
  5
AE
330
1F
100
AcDbEntity
  8
0
  6
Continuous
 62
     7
370
    25
100
AcDbLine
 10
87.6692281659
 20
98.0289616566
 30
0.0
 11
97.4692281659
 21
98.0289616566
 31
0.0
  0
ARC
  5
AF
330
1F
100
AcDbEntity
  8
0
  6
Continuous
 62
     7
370
    25
100
AcDbCircle
 10
128.1692281659
 20
98.1289616566
 30
0.0
 40
0.1000000000000259
100
AcDbArc
 50
241.0860930484
 51
270.0
  0
ARC
  5
B0
330
1F
100
AcDbEntity
  8
0
  6
Continuous
 62
     7
370
    25
100
AcDbCircle
 10
130.7692281659
 20
98.1289616566
 30
0.0
 40
0.1000000000000085
100
AcDbArc
 50
270.0
 51
299.3806792719
  0
ARC
  5
B1
330
1F
100
AcDbEntity
  8
0
  6
Continuous
 62
     7
370
    25
100
AcDbCircle
 10
75.1692281659
 20
98.1289616566
 30
0.0
 40
0.1000000000000085
100
AcDbArc
 50
240.9162342291
 51
270.0
  0
ARC
  5
B2
330
1F
100
AcDbEntity
  8
0
  6
Continuous
 62
     7
370
    25
100
AcDbCircle
 10
77.7692281659
 20
98.1289616566
 30
0.0
 40
0.1000000000000087
100
AcDbArc
 50
270.0
 51
299.1291234545
  0
ARC
  5
B3
330
1F
100
AcDbEntity
  8
0
  6
Continuous
 62
     7
370
    25
100
AcDbCircle
 10
66.1692281659
 20
98.1289616566
 30
0.0
 40
0.1000000000000085
100
AcDbArc
 50
240.9162342291
 51
270.0
  0
ARC
  5
B4
330
1F
100
AcDbEntity
  8
0
  6
Continuous
 62
     7
370
    25
100
AcDbCircle
 10
68.7692281659
 20
98.1289616566
 30
0.0
 40
0.1000000000000156
100
AcDbArc
 50
270.0
 51
299.1291234546
  0
ARC
  5
B5
330
1F
100
AcDbEntity
  8
0
  6
Continuous
 62
     7
370
    25
100
AcDbCircle
 10
125.1692281659
 20
98.1289616566
 30
0.0
 40
0.100000000000019
100
AcDbArc
 50
241.0860930484
 51
270.0
  0
ARC
  5
B6
330
1F
100
AcDbEntity
  8
0
  6
Continuous
 62
     7
370
    25
100
AcDbCircle
 10
127.7692281659
 20
98.1289616566
 30
0.0
 40
0.1000000000000085
100
AcDbArc
 50
270.0
 51
299.3806792719
  0
ARC
  5
B7
330
1F
100
AcDbEntity
  8
0
  6
Continuous
 62
     7
370
    25
100
AcDbCircle
 10
116.1692281659
 20
98.1289616566
 30
0.0
 40
0.1000000000000085
100
AcDbArc
 50
241.0860930484
 51
270.0
  0
ARC
  5
B8
330
1F
100
AcDbEntity
  8
0
  6
Continuous
 62
     7
370
    25
100
AcDbCircle
 10
118.7692281659
 20
98.1289616566
 30
0.0
 40
0.1000000000000085
100
AcDbArc
 50
270.0
 51
299.380679272
  0
ARC
  5
B9
330
1F
100
AcDbEntity
  8
0
  6
Continuous
 62
     7
370
    25
100
AcDbCircle
 10
119.1692281659
 20
98.1289616566
 30
0.0
 40
0.1000000000000121
100
AcDbArc
 50
241.0860930484
 51
270.0
  0
ARC
  5
BA
330
1F
100
AcDbEntity
  8
0
  6
Continuous
 62
     7
370
    25
100
AcDbCircle
 10
121.7692281659
 20
98.1289616566
 30
0.0
 40
0.1000000000000085
100
AcDbArc
 50
270.0
 51
299.380679272
  0
ARC
  5
BB
330
1F
100
AcDbEntity
  8
0
  6
Continuous
 62
     7
370
    25
100
AcDbCircle
 10
78.1692281659
 20
98.1289616566
 30
0.0
 40
0.1000000000000085
100
AcDbArc
 50
240.8596971199
 51
270.0
  0
ARC
  5
BC
330
1F
100
AcDbEntity
  8
0
  6
Continuous
 62
     7
370
    25
100
AcDbCircle
 10
80.7692281659
 20
98.1289616566
 30
0.0
 40
0.1000000000000102
100
AcDbArc
 50
270.0
 51
299.1720278587
  0
ARC
  5
BD
330
1F
100
AcDbEntity
  8
0
  6
Continuous
 62
     7
370
    25
100
AcDbCircle
 10
122.1692281659
 20
98.1289616566
 30
0.0
 40
0.1000000000000121
100
AcDbArc
 50
241.0860930484
 51
270.0
  0
ARC
  5
BE
330
1F
100
AcDbEntity
  8
0
  6
Continuous
 62
     7
370
    25
100
AcDbCircle
 10
124.7692281659
 20
98.1289616566
 30
0.0
 40
0.1000000000000085
100
AcDbArc
 50
270.0
 51
299.3806792719
  0
ARC
  5
BF
330
1F
100
AcDbEntity
  8
0
  6
Continuous
 62
     7
370
    25
100
AcDbCircle
 10
72.1692281659
 20
98.1289616566
 30
0.0
 40
0.1000000000000085
100
AcDbArc
 50
240.9162342291
 51
270.0
  0
ARC
  5
C0
330
1F
100
AcDbEntity
  8
0
  6
Continuous
 62
     7
370
    25
100
AcDbCircle
 10
74.7692281659
 20
98.1289616566
 30
0.0
 40
0.1000000000000087
100
AcDbArc
 50
270.0
 51
299.1291234545
  0
ARC
  5
C1
330
1F
100
AcDbEntity
  8
0
  6
Continuous
 62
     7
370
    25
100
AcDbCircle
 10
81.1901320659
 20
98.094640205
 30
0.0
 40
0.0999999999999966
100
AcDbArc
 50
221.0551738845
 51
270.0
  0
ARC
  5
C2
330
1F
100
AcDbEntity
  8
0
  6
Continuous
 62
     7
370
    25
100
AcDbCircle
 10
83.7901320659
 20
98.094640205
 30
0.0
 40
0.0999999999999966
100
AcDbArc
 50
270.0
 51
318.9448261155
  0
ARC
  5
C3
330
1F
100
AcDbEntity
  8
0
  6
Continuous
 62
     7
370
    25
100
AcDbCircle
 10
69.1692281659
 20
98.1289616566
 30
0.0
 40
0.1000000000000085
100
AcDbArc
 50
240.9162342291
 51
270.0
  0
ARC
  5
C4
330
1F
100
AcDbEntity
  8
0
  6
Continuous
 62
     7
370
    25
100
AcDbCircle
 10
71.7692281659
 20
98.1289616566
 30
0.0
 40
0.1000000000000087
100
AcDbArc
 50
270.0
 51
299.1291234545
  0
ARC
  5
C5
330
1F
100
AcDbEntity
  8
0
  6
Continuous
 62
     7
370
    25
100
AcDbCircle
 10
113.1483242659
 20
98.094640205
 30
0.0
 40
0.0999999999999966
100
AcDbArc
 50
221.0551738845
 51
270.0
  0
ARC
  5
C6
330
1F
100
AcDbEntity
  8
0
  6
Continuous
 62
     7
370
    25
100
AcDbCircle
 10
115.7483242659
 20
98.094640205
 30
0.0
 40
0.0999999999999859
100
AcDbArc
 50
270.0
 51
318.9448261155
  0
LINE
  5
C7
330
1F
100
AcDbEntity
  8
0
  6
Continuous
 62
     7
370
    25
100
AcDbLine
 10
113.4692281659
 20
131.0289616566
 30
0.0
 11
108.4692281659
 21
131.0289616566
 31
0.0
  0
LINE
  5
C8
330
1F
100
AcDbEntity
  8
0
  6
Continuous
 62
     7
370
    25
100
AcDbLine
 10
98.4692281659
 20
131.0289616566
 30
0.0
 11
93.4692281659
 21
131.0289616566
 31
0.0
  0
LINE
  5
C9
330
1F
100
AcDbEntity
  8
0
  6
Continuous
 62
     7
370
    25
100
AcDbLine
 10
97.6692281659
 20
98.0289616566
 30
0.0
 11
109.2692281659
 21
98.0289616566
 31
0.0
  0
LINE
  5
CA
330
1F
100
AcDbEntity
  8
0
  6
Continuous
 62
     7
370
    25
100
AcDbLine
 10
133.4692281659
 20
116.2007818963
 30
0.0
 11
134.5024312844
 21
116.9108827259
 31
0.0
  0
ARC
  5
CB
330
1F
100
AcDbEntity
  8
0
  6
Continuous
 62
     7
370
    25
100
AcDbCircle
 10
134.2192281659
 20
117.3229458202
 30
0.0
 40
0.5000000000000131
100
AcDbArc
 50
304.5
 51
0.0
  0
LINE
  5
CC
330
1F
100
AcDbEntity
  8
0
  6
Continuous
 62
     7
370
    25
100
AcDbLine
 10
62.4360250475
 20
116.9108827259
 30
0.0
 11
63.4692281659
 21
116.2007818963
 31
0.0
  0
ARC
  5
CD
330
1F
100
AcDbEntity
  8
0
  6
Continuous
 62
     7
370
    25
100
AcDbCircle
 10
62.7192281659
 20
117.3229458202
 30
0.0
 40
0.499999999999997
100
AcDbArc
 50
180.0
 51
235.5
  0
LINE
  5
CE
330
1F
100
AcDbEntity
  8
0
  6
Continuous
 62
     7
370
    25
100
AcDbLine
 10
83.4692281659
 20
131.0289616566
 30
0.0
 11
63.4692281659
 21
131.0289616566
 31
0.0
  0
LINE
  5
CF
330
1F
100
AcDbEntity
  8
0
  6
Continuous
 62
     7
370
    25
100
AcDbLine
 10
80.8503755881
 20
98.0289616566
 30
0.0
 11
81.1147243192
 21
98.0289616566
 31
0.0
  0
LINE
  5
D0
330
1F
100
AcDbEntity
  8
0
  6
Continuous
 62
     7
370
    25
100
AcDbLine
 10
83.8655398127
 20
98.0289616566
 30
0.0
 11
87.4692281659
 21
98.0289616566
 31
0.0
  0
LINE
  5
D1
330
1F
100
AcDbEntity
  8
0
  6
Continuous
 62
     7
370
    25
100
AcDbLine
 10
77.8503755881
 20
98.0289616566
 30
0.0
 11
78.0692281659
 21
98.0289616566
 31
0.0
  0
LINE
  5
D2
330
1F
100
AcDbEntity
  8
0
  6
Continuous
 62
     7
370
    25
100
AcDbLine
 10
74.8503755881
 20
98.0289616566
 30
0.0
 11
75.0692281659
 21
98.0289616566
 31
0.0
  0
LINE
  5
D3
330
1F
100
AcDbEntity
  8
0
  6
Continuous
 62
     7
370
    25
100
AcDbLine
 10
71.8503755881
 20
98.0289616566
 30
0.0
 11
72.0692281659
 21
98.0289616566
 31
0.0
  0
LINE
  5
D4
330
1F
100
AcDbEntity
  8
0
  6
Continuous
 62
     7
370
    25
100
AcDbLine
 10
68.8503755881
 20
98.0289616566
 30
0.0
 11
69.0692281659
 21
98.0289616566
 31
0.0
  0
LINE
  5
D5
330
1F
100
AcDbEntity
  8
0
  6
Continuous
 62
     7
370
    25
100
AcDbLine
 10
63.4692281659
 20
98.0289616566
 30
0.0
 11
66.0692281659
 21
98.0289616566
 31
0.0
  0
LINE
  5
D6
330
1F
100
AcDbEntity
  8
0
  6
Continuous
 62
     7
370
    25
100
AcDbLine
 10
133.4692281659
 20
131.0289616566
 30
0.0
 11
113.4692281659
 21
131.0289616566
 31
0.0
  0
LINE
  5
D7
330
1F
100
AcDbEntity
  8
0
  6
Continuous
 62
     7
370
    25
100
AcDbLine
 10
130.8692281659
 20
98.0289616566
 30
0.0
 11
133.4692281659
 21
98.0289616566
 31
0.0
  0
LINE
  5
D8
330
1F
100
AcDbEntity
  8
0
  6
Continuous
 62
     7
370
    25
100
AcDbLine
 10
127.8692281659
 20
98.0289616566
 30
0.0
 11
128.0880807438
 21
98.0289616566
 31
0.0
  0
LINE
  5
D9
330
1F
100
AcDbEntity
  8
0
  6
Continuous
 62
     7
370
    25
100
AcDbLine
 10
124.8692281659
 20
98.0289616566
 30
0.0
 11
125.0880807438
 21
98.0289616566
 31
0.0
  0
LINE
  5
DA
330
1F
100
AcDbEntity
  8
0
  6
Continuous
 62
     7
370
    25
100
AcDbLine
 10
121.8692281659
 20
98.0289616566
 30
0.0
 11
122.0880807438
 21
98.0289616566
 31
0.0
  0
LINE
  5
DB
330
1F
100
AcDbEntity
  8
0
  6
Continuous
 62
     7
370
    25
100
AcDbLine
 10
118.8692281659
 20
98.0289616566
 30
0.0
 11
119.0880807438
 21
98.0289616566
 31
0.0
  0
LINE
  5
DC
330
1F
100
AcDbEntity
  8
0
  6
Continuous
 62
     7
370
    25
100
AcDbLine
 10
109.4692281659
 20
98.0289616566
 30
0.0
 11
113.0731551989
 21
98.0289616566
 31
0.0
  0
LINE
  5
DD
330
1F
100
AcDbEntity
  8
0
  6
Continuous
 62
     7
370
    25
100
AcDbLine
 10
115.8234933329
 20
98.0289616566
 30
0.0
 11
116.0880807438
 21
98.0289616566
 31
0.0
  0
LINE
  5
DE
330
1F
100
AcDbEntity
  8
0
  6
Continuous
 62
     7
370
    25
100
AcDbLine
 10
85.9970510053
 20
104.2155496337
 30
0.0
 11
85.1385369555
 21
104.3293636327
 31
0.0
  0
LINE
  5
DF
330
1F
100
AcDbEntity
  8
0
  6
Continuous
 62
     7
370
    25
100
AcDbLine
 10
84.6107141162
 20
103.6427756556
 30
0.0
 11
85.1385369555
 21
104.3293636327
 31
0.0
  0
LINE
  5
E0
330
1F
100
AcDbEntity
  8
0
  6
Continuous
 62
     7
370
    25
100
AcDbLine
 10
84.9414053266
 20
102.8423736795
 30
0.0
 11
85.7999193763
 21
102.7285596805
 31
0.0
  0
LINE
  5
E1
330
1F
100
AcDbEntity
  8
0
  6
Continuous
 62
     7
370
    25
100
AcDbLine
 10
86.3277422157
 20
103.4151476576
 30
0.0
 11
85.7999193763
 21
102.7285596805
 31
0.0
  0
CIRCLE
  5
E2
330
1F
100
AcDbEntity
  8
0
  6
Continuous
 62
     7
370
    25
100
AcDbCircle
 10
85.4692281659
 20
103.5289616566
 30
0.0
 40
1.2195
  0
LINE
  5
E3
330
1F
100
AcDbEntity
  8
0
  6
Continuous
 62
     7
370
    25
100
AcDbLine
 10
86.3277422157
 20
103.4151476576
 30
0.0
 11
85.9970510053
 21
104.2155496337
 31
0.0
  0
LINE
  5
E4
330
1F
100
AcDbEntity
  8
0
  6
Continuous
 62
     7
370
    25
100
AcDbLine
 10
84.9414053266
 20
102.8423736795
 30
0.0
 11
84.6107141162
 21
103.6427756556
 31
0.0
  0
LINE
  5
E5
330
1F
100
AcDbEntity
  8
0
  6
Continuous
 62
     7
370
    25
100
AcDbLine
 10
85.9970510053
 20
112.2155496337
 30
0.0
 11
85.1385369555
 21
112.3293636327
 31
0.0
  0
LINE
  5
E6
330
1F
100
AcDbEntity
  8
0
  6
Continuous
 62
     7
370
    25
100
AcDbLine
 10
84.6107141162
 20
111.6427756556
 30
0.0
 11
85.1385369555
 21
112.3293636327
 31
0.0
  0
LINE
  5
E7
330
1F
100
AcDbEntity
  8
0
  6
Continuous
 62
     7
370
    25
100
AcDbLine
 10
84.9414053266
 20
110.8423736795
 30
0.0
 11
84.6107141162
 21
111.6427756556
 31
0.0
  0
LINE
  5
E8
330
1F
100
AcDbEntity
  8
0
  6
Continuous
 62
     7
370
    25
100
AcDbLine
 10
84.9414053266
 20
110.8423736795
 30
0.0
 11
85.7999193763
 21
110.7285596805
 31
0.0
  0
LINE
  5
E9
330
1F
100
AcDbEntity
  8
0
  6
Continuous
 62
     7
370
    25
100
AcDbLine
 10
86.3277422157
 20
111.4151476576
 30
0.0
 11
85.7999193763
 21
110.7285596805
 31
0.0
  0
LINE
  5
EA
330
1F
100
AcDbEntity
  8
0
  6
Continuous
 62
     7
370
    25
100
AcDbLine
 10
86.3277422157
 20
111.4151476576
 30
0.0
 11
85.9970510053
 21
112.2155496337
 31
0.0
  0
CIRCLE
  5
EB
330
1F
100
AcDbEntity
  8
0
  6
Continuous
 62
     7
370
    25
100
AcDbCircle
 10
85.4692281659
 20
111.5289616566
 30
0.0
 40
1.219500000000006
  0
CIRCLE
  5
EC
330
1F
100
AcDbEntity
  8
0
  6
Continuous
 62
     7
370
    25
100
AcDbCircle
 10
111.4692281659
 20
111.5289616566
 30
0.0
 40
1.219500000000011
  0
LINE
  5
ED
330
1F
100
AcDbEntity
  8
0
  6
Continuous
 62
     7
370
    25
100
AcDbLine
 10
110.9414053266
 20
110.8423736795
 30
0.0
 11
111.7999193763
 21
110.7285596805
 31
0.0
  0
LINE
  5
EE
330
1F
100
AcDbEntity
  8
0
  6
Continuous
 62
     7
370
    25
100
AcDbLine
 10
110.6107141162
 20
111.6427756556
 30
0.0
 11
111.1385369555
 21
112.3293636327
 31
0.0
  0
LINE
  5
EF
330
1F
100
AcDbEntity
  8
0
  6
Continuous
 62
     7
370
    25
100
AcDbLine
 10
112.3277422157
 20
111.4151476576
 30
0.0
 11
111.7999193763
 21
110.7285596805
 31
0.0
  0
LINE
  5
F0
330
1F
100
AcDbEntity
  8
0
  6
Continuous
 62
     7
370
    25
100
AcDbLine
 10
112.3277422157
 20
111.4151476576
 30
0.0
 11
111.9970510053
 21
112.2155496337
 31
0.0
  0
LINE
  5
F1
330
1F
100
AcDbEntity
  8
0
  6
Continuous
 62
     7
370
    25
100
AcDbLine
 10
111.9970510053
 20
112.2155496337
 30
0.0
 11
111.1385369555
 21
112.3293636327
 31
0.0
  0
LINE
  5
F2
330
1F
100
AcDbEntity
  8
0
  6
Continuous
 62
     7
370
    25
100
AcDbLine
 10
110.9414053266
 20
110.8423736795
 30
0.0
 11
110.6107141162
 21
111.6427756556
 31
0.0
  0
LINE
  5
F3
330
1F
100
AcDbEntity
  8
0
  6
Continuous
 62
     7
370
    25
100
AcDbLine
 10
95.9970510053
 20
112.2155496337
 30
0.0
 11
95.1385369555
 21
112.3293636327
 31
0.0
  0
LINE
  5
F4
330
1F
100
AcDbEntity
  8
0
  6
Continuous
 62
     7
370
    25
100
AcDbLine
 10
94.6107141162
 20
111.6427756556
 30
0.0
 11
95.1385369555
 21
112.3293636327
 31
0.0
  0
LINE
  5
F5
330
1F
100
AcDbEntity
  8
0
  6
Continuous
 62
     7
370
    25
100
AcDbLine
 10
94.9414053266
 20
110.8423736795
 30
0.0
 11
94.6107141162
 21
111.6427756556
 31
0.0
  0
LINE
  5
F6
330
1F
100
AcDbEntity
  8
0
  6
Continuous
 62
     7
370
    25
100
AcDbLine
 10
94.9414053266
 20
110.8423736795
 30
0.0
 11
95.7999193763
 21
110.7285596805
 31
0.0
  0
LINE
  5
F7
330
1F
100
AcDbEntity
  8
0
  6
Continuous
 62
     7
370
    25
100
AcDbLine
 10
96.3277422157
 20
111.4151476576
 30
0.0
 11
95.9970510053
 21
112.2155496337
 31
0.0
  0
CIRCLE
  5
F8
330
1F
100
AcDbEntity
  8
0
  6
Continuous
 62
     7
370
    25
100
AcDbCircle
 10
95.4692281659
 20
111.5289616566
 30
0.0
 40
1.219500000000011
  0
LINE
  5
F9
330
1F
100
AcDbEntity
  8
0
  6
Continuous
 62
     7
370
    25
100
AcDbLine
 10
96.3277422157
 20
111.4151476576
 30
0.0
 11
95.7999193763
 21
110.7285596805
 31
0.0
  0
LINE
  5
FA
330
1F
100
AcDbEntity
  8
0
  6
Continuous
 62
     7
370
    25
100
AcDbLine
 10
95.9970510053
 20
104.2155496337
 30
0.0
 11
95.1385369555
 21
104.3293636327
 31
0.0
  0
LINE
  5
FB
330
1F
100
AcDbEntity
  8
0
  6
Continuous
 62
     7
370
    25
100
AcDbLine
 10
94.6107141162
 20
103.6427756556
 30
0.0
 11
95.1385369555
 21
104.3293636327
 31
0.0
  0
LINE
  5
FC
330
1F
100
AcDbEntity
  8
0
  6
Continuous
 62
     7
370
    25
100
AcDbLine
 10
94.9414053266
 20
102.8423736795
 30
0.0
 11
94.6107141162
 21
103.6427756556
 31
0.0
  0
LINE
  5
FD
330
1F
100
AcDbEntity
  8
0
  6
Continuous
 62
     7
370
    25
100
AcDbLine
 10
94.9414053266
 20
102.8423736795
 30
0.0
 11
95.7999193763
 21
102.7285596805
 31
0.0
  0
CIRCLE
  5
FE
330
1F
100
AcDbEntity
  8
0
  6
Continuous
 62
     7
370
    25
100
AcDbCircle
 10
95.4692281659
 20
103.5289616566
 30
0.0
 40
1.219500000000011
  0
LINE
  5
FF
330
1F
100
AcDbEntity
  8
0
  6
Continuous
 62
     7
370
    25
100
AcDbLine
 10
96.3277422157
 20
103.4151476576
 30
0.0
 11
95.7999193763
 21
102.7285596805
 31
0.0
  0
LINE
  5
100
330
1F
100
AcDbEntity
  8
0
  6
Continuous
 62
     7
370
    25
100
AcDbLine
 10
96.3277422157
 20
103.4151476576
 30
0.0
 11
95.9970510053
 21
104.2155496337
 31
0.0
  0
LINE
  5
101
330
1F
100
AcDbEntity
  8
0
  6
Continuous
 62
     7
370
    25
100
AcDbLine
 10
111.9970510053
 20
104.2155496337
 30
0.0
 11
111.1385369555
 21
104.3293636327
 31
0.0
  0
LINE
  5
102
330
1F
100
AcDbEntity
  8
0
  6
Continuous
 62
     7
370
    25
100
AcDbLine
 10
110.6107141162
 20
103.6427756556
 30
0.0
 11
111.1385369555
 21
104.3293636327
 31
0.0
  0
CIRCLE
  5
103
330
1F
100
AcDbEntity
  8
0
  6
Continuous
 62
     7
370
    25
100
AcDbCircle
 10
111.4692281659
 20
103.5289616566
 30
0.0
 40
1.219500000000011
  0
LINE
  5
104
330
1F
100
AcDbEntity
  8
0
  6
Continuous
 62
     7
370
    25
100
AcDbLine
 10
112.3277422157
 20
103.4151476576
 30
0.0
 11
111.9970510053
 21
104.2155496337
 31
0.0
  0
LINE
  5
105
330
1F
100
AcDbEntity
  8
0
  6
Continuous
 62
     7
370
    25
100
AcDbLine
 10
112.3277422157
 20
103.4151476576
 30
0.0
 11
111.7999193763
 21
102.7285596805
 31
0.0
  0
LINE
  5
106
330
1F
100
AcDbEntity
  8
0
  6
Continuous
 62
     7
370
    25
100
AcDbLine
 10
110.9414053266
 20
102.8423736795
 30
0.0
 11
110.6107141162
 21
103.6427756556
 31
0.0
  0
LINE
  5
107
330
1F
100
AcDbEntity
  8
0
  6
Continuous
 62
     7
370
    25
100
AcDbLine
 10
110.9414053266
 20
102.8423736795
 30
0.0
 11
111.7999193763
 21
102.7285596805
 31
0.0
  0
LINE
  5
108
330
1F
100
AcDbEntity
  8
0
  6
Continuous
 62
     7
370
    25
100
AcDbLine
 10
98.4692281659
 20
126.7239408751
 30
0.0
 11
98.6692281659
 21
126.7239408751
 31
0.0
  0
LINE
  5
109
330
1F
100
AcDbEntity
  8
0
  6
Continuous
 62
     7
370
    25
100
AcDbLine
 10
108.2692281659
 20
126.7239408751
 30
0.0
 11
108.4692281659
 21
126.7239408751
 31
0.0
  0
LINE
  5
10A
330
1F
100
AcDbEntity
  8
0
  6
Continuous
 62
     7
370
    25
100
AcDbLine
 10
98.4692281659
 20
122.5510018591
 30
0.0
 11
98.6692281659
 21
122.5510018591
 31
0.0
  0
LINE
  5
10B
330
1F
100
AcDbEntity
  8
0
  6
Continuous
 62
     7
370
    25
100
AcDbLine
 10
108.2692281659
 20
122.5510018591
 30
0.0
 11
108.4692281659
 21
122.5510018591
 31
0.0
  0
LINE
  5
10C
330
1F
100
AcDbEntity
  8
0
  6
Continuous
 62
     7
370
    25
100
AcDbLine
 10
98.4692281659
 20
122.5493064589
 30
0.0
 11
98.6692281659
 21
122.5493064589
 31
0.0
  0
LINE
  5
10D
330
1F
100
AcDbEntity
  8
0
  6
Continuous
 62
     7
370
    25
100
AcDbLine
 10
108.2692281659
 20
122.5493064589
 30
0.0
 11
108.4692281659
 21
122.5493064589
 31
0.0
  0
LINE
  5
10E
330
1F
100
AcDbEntity
  8
0
  6
Continuous
 62
     7
370
    25
100
AcDbLine
 10
98.4692281659
 20
120.4959704545
 30
0.0
 11
98.6692281659
 21
120.4959704545
 31
0.0
  0
LINE
  5
10F
330
1F
100
AcDbEntity
  8
0
  6
Continuous
 62
     7
370
    25
100
AcDbLine
 10
108.2692281659
 20
120.4959704545
 30
0.0
 11
108.4692281659
 21
120.4959704545
 31
0.0
  0
LINE
  5
110
330
1F
100
AcDbEntity
  8
0
  6
Continuous
 62
     7
370
    25
100
AcDbLine
 10
98.4692281659
 20
120.326554521
 30
0.0
 11
98.6692281659
 21
120.326554521
 31
0.0
  0
LINE
  5
111
330
1F
100
AcDbEntity
  8
0
  6
Continuous
 62
     7
370
    25
100
AcDbLine
 10
108.2692281659
 20
120.326554521
 30
0.0
 11
108.4692281659
 21
120.326554521
 31
0.0
  0
LINE
  5
112
330
1F
100
AcDbEntity
  8
0
  6
Continuous
 62
     7
370
    25
100
AcDbLine
 10
98.4692281659
 20
116.9108489941
 30
0.0
 11
98.6692281659
 21
116.9108489941
 31
0.0
  0
LINE
  5
113
330
1F
100
AcDbEntity
  8
0
  6
Continuous
 62
     7
370
    25
100
AcDbLine
 10
108.2692281659
 20
116.9108489941
 30
0.0
 11
108.4692281659
 21
116.9108489941
 31
0.0
  0
LINE
  5
114
330
1F
100
AcDbEntity
  8
0
  6
Continuous
 62
     7
370
    25
100
AcDbLine
 10
98.4692281659
 20
127.7352566089
 30
0.0
 11
98.6692281659
 21
127.7352566089
 31
0.0
  0
LINE
  5
115
330
1F
100
AcDbEntity
  8
0
  6
Continuous
 62
     7
370
    25
100
AcDbLine
 10
108.2692281659
 20
127.7352566089
 30
0.0
 11
108.4692281659
 21
127.7352566089
 31
0.0
  0
LINE
  5
116
330
1F
100
AcDbEntity
  8
0
  6
Continuous
 62
     7
370
    25
100
AcDbLine
 10
98.4692281659
 20
128.5448571837
 30
0.0
 11
98.6692281659
 21
128.5448571837
 31
0.0
  0
LINE
  5
117
330
1F
100
AcDbEntity
  8
0
  6
Continuous
 62
     7
370
    25
100
AcDbLine
 10
108.2692281659
 20
128.5448571837
 30
0.0
 11
108.4692281659
 21
128.5448571837
 31
0.0
  0
LINE
  5
118
330
1F
100
AcDbEntity
  8
0
  6
Continuous
 62
     7
370
    25
100
AcDbLine
 10
98.4692281659
 20
128.1691145216
 30
0.0
 11
98.6692281659
 21
128.1691145216
 31
0.0
  0
LINE
  5
119
330
1F
100
AcDbEntity
  8
0
  6
Continuous
 62
     7
370
    25
100
AcDbLine
 10
108.2692281659
 20
128.1691145216
 30
0.0
 11
108.4692281659
 21
128.1691145216
 31
0.0
  0
LINE
  5
11A
330
1F
100
AcDbEntity
  8
0
  6
Continuous
 62
     7
370
    25
100
AcDbLine
 10
98.4692281659
 20
116.623681945
 30
0.0
 11
98.6692281659
 21
116.623681945
 31
0.0
  0
LINE
  5
11B
330
1F
100
AcDbEntity
  8
0
  6
Continuous
 62
     7
370
    25
100
AcDbLine
 10
108.2692281659
 20
116.623681945
 30
0.0
 11
108.4692281659
 21
116.623681945
 31
0.0
  0
LINE
  5
11C
330
1F
100
AcDbEntity
  8
0
  6
Continuous
 62
     7
370
    25
100
AcDbLine
 10
108.4692281659
 20
129.0220561387
 30
0.0
 11
108.2692281659
 21
129.0220561387
 31
0.0
  0
LINE
  5
11D
330
1F
100
AcDbEntity
  8
0
  6
Continuous
 62
     7
370
    25
100
AcDbLine
 10
98.6692281659
 20
129.0220561387
 30
0.0
 11
98.4692281659
 21
129.0220561387
 31
0.0
  0
LINE
  5
11E
330
1F
100
AcDbEntity
  8
0
  6
Continuous
 62
     7
370
    25
100
AcDbLine
 10
98.4692281659
 20
116.1315753024
 30
0.0
 11
98.6692281659
 21
116.1315753024
 31
0.0
  0
LINE
  5
11F
330
1F
100
AcDbEntity
  8
0
  6
Continuous
 62
     7
370
    25
100
AcDbLine
 10
108.2692281659
 20
116.1315753024
 30
0.0
 11
108.4692281659
 21
116.1315753024
 31
0.0
  0
LINE
  5
120
330
1F
100
AcDbEntity
  8
0
  6
Continuous
 62
     7
370
    25
100
AcDbLine
 10
98.6692281659
 20
129.7905797645
 30
0.0
 11
98.6692281659
 21
114.1289616566
 31
0.0
  0
LINE
  5
121
330
1F
100
AcDbEntity
  8
0
  6
Continuous
 62
     7
370
    25
100
AcDbLine
 10
98.6692281659
 20
130.9289616566
 30
0.0
 11
98.6692281659
 21
129.7905797645
 31
0.0
  0
LINE
  5
122
330
1F
100
AcDbEntity
  8
0
  6
Continuous
 62
     7
370
    25
100
AcDbLine
 10
108.2692281659
 20
129.7905797645
 30
0.0
 11
108.2692281659
 21
114.1289616566
 31
0.0
  0
LINE
  5
123
330
1F
100
AcDbEntity
  8
0
  6
Continuous
 62
     7
370
    25
100
AcDbLine
 10
108.2692281659
 20
130.9289616566
 30
0.0
 11
108.2692281659
 21
129.7905797645
 31
0.0
  0
LINE
  5
124
330
1F
100
AcDbEntity
  8
0
  6
Continuous
 62
     7
370
    25
100
AcDbLine
 10
108.1192281659
 20
113.5990250565
 30
0.0
 11
98.8192281659
 21
113.5990250565
 31
0.0
  0
LINE
  5
125
330
1F
100
AcDbEntity
  8
0
  6
Continuous
 62
     7
370
    25
100
AcDbLine
 10
98.8192281659
 20
114.1289616566
 30
0.0
 11
98.8192281659
 21
113.5990250565
 31
0.0
  0
LINE
  5
126
330
1F
100
AcDbEntity
  8
0
  6
Continuous
 62
     7
370
    25
100
AcDbLine
 10
108.1192281659
 20
114.1289616566
 30
0.0
 11
108.1192281659
 21
113.5990250565
 31
0.0
  0
LINE
  5
127
330
1F
100
AcDbEntity
  8
0
  6
Continuous
 62
     7
370
    25
100
AcDbLine
 10
108.1192281659
 20
108.5323895521
 30
0.0
 11
98.8192281659
 21
108.5323895521
 31
0.0
  0
LINE
  5
128
330
1F
100
AcDbEntity
  8
0
  6
Continuous
 62
     7
370
    25
100
AcDbLine
 10
98.8192281659
 20
113.5990250565
 30
0.0
 11
98.8192281659
 21
108.5323895521
 31
0.0
  0
LINE
  5
129
330
1F
100
AcDbEntity
  8
0
  6
Continuous
 62
     7
370
    25
100
AcDbLine
 10
108.1192281659
 20
113.5990250565
 30
0.0
 11
108.1192281659
 21
108.5323895521
 31
0.0
  0
LINE
  5
12A
330
1F
100
AcDbEntity
  8
0
  6
Continuous
 62
     7
370
    25
100
AcDbLine
 10
98.8192281659
 20
108.5323895521
 30
0.0
 11
98.8192281659
 21
108.1966317272
 31
0.0
  0
LINE
  5
12B
330
1F
100
AcDbEntity
  8
0
  6
Continuous
 62
     7
370
    25
100
AcDbLine
 10
108.1192281659
 20
108.5323895521
 30
0.0
 11
108.1192281659
 21
108.1966317272
 31
0.0
  0
LINE
  5
12C
330
1F
100
AcDbEntity
  8
0
  6
Continuous
 62
     7
370
    25
100
AcDbLine
 10
93.4692281659
 20
115.6550981142
 30
0.0
 11
83.4692281659
 21
115.6550981142
 31
0.0
  0
LINE
  5
12D
330
1F
100
AcDbEntity
  8
0
  6
Continuous
 62
     7
370
    25
100
AcDbLine
 10
83.4692281659
 20
131.0289616566
 30
0.0
 11
83.4692281659
 21
115.6550981142
 31
0.0
  0
LINE
  5
12E
330
1F
100
AcDbEntity
  8
0
  6
Continuous
 62
     7
370
    25
100
AcDbLine
 10
93.4692281659
 20
131.0289616566
 30
0.0
 11
93.4692281659
 21
115.6550981142
 31
0.0
  0
LINE
  5
12F
330
1F
100
AcDbEntity
  8
0
  6
Continuous
 62
     7
370
    25
100
AcDbLine
 10
93.4692281659
 20
103.0289616566
 30
0.0
 11
86.6148720897
 21
103.0289616566
 31
0.0
  0
ARC
  5
130
330
1F
100
AcDbEntity
  8
0
  6
Continuous
 62
     7
370
    25
100
AcDbCircle
 10
85.4692281659
 20
103.5289616566
 30
0.0
 40
1.250000000000012
100
AcDbArc
 50
336.4218215218
 51
203.5781784782
  0
LINE
  5
131
330
1F
100
AcDbEntity
  8
0
  6
Continuous
 62
     7
370
    25
100
AcDbLine
 10
84.3235842422
 20
103.0289616566
 30
0.0
 11
83.4692281659
 21
103.0289616566
 31
0.0
  0
CIRCLE
  5
132
330
1F
100
AcDbEntity
  8
0
  6
Continuous
 62
     7
370
    25
100
AcDbCircle
 10
85.4692281659
 20
111.5289616566
 30
0.0
 40
1.249999999999986
  0
LINE
  5
133
330
1F
100
AcDbEntity
  8
0
  6
Continuous
 62
     7
370
    25
100
AcDbLine
 10
83.4692281659
 20
115.6550981142
 30
0.0
 11
83.4692281659
 21
103.0289616566
 31
0.0
  0
LINE
  5
134
330
1F
100
AcDbEntity
  8
0
  6
Continuous
 62
     7
370
    25
100
AcDbLine
 10
93.4692281659
 20
103.0289616566
 30
0.0
 11
93.4692281659
 21
115.6550981142
 31
0.0
  0
LINE
  5
135
330
1F
100
AcDbEntity
  8
0
  6
Continuous
 62
     7
370
    25
100
AcDbLine
 10
97.4692281659
 20
98.4463859616
 30
0.0
 11
93.4692281659
 21
98.4463859616
 31
0.0
  0
LINE
  5
136
330
1F
100
AcDbEntity
  8
0
  6
Continuous
 62
     7
370
    25
100
AcDbLine
 10
97.4692281659
 20
98.4463859616
 30
0.0
 11
97.4692281659
 21
98.0289616566
 31
0.0
  0
LINE
  5
137
330
1F
100
AcDbEntity
  8
0
  6
Continuous
 62
     7
370
    25
100
AcDbLine
 10
87.6692281659
 20
98.0289616566
 30
0.0
 11
87.6692281659
 21
98.4463859616
 31
0.0
  0
LINE
  5
138
330
1F
100
AcDbEntity
  8
0
  6
Continuous
 62
     7
370
    25
100
AcDbLine
 10
83.4692281659
 20
98.4463859616
 30
0.0
 11
87.6692281659
 21
98.4463859616
 31
0.0
  0
SPLINE
  5
139
330
1F
100
AcDbEntity
  8
0
  6
Continuous
 62
     7
370
    25
100
AcDbSpline
210
0.0
220
0.0
230
1.0
 70
     8
 71
     3
 72
    14
 73
    10
 74
     0
 42
0.00000001
 43
0.00000001
 40
0.0
 40
0.0
 40
0.0
 40
0.0
 40
0.1445446388593755
 40
0.2890175859142063
 40
0.4348030547791351
 40
0.579688673050632
 40
0.7234989855345733
 40
0.8684679877598042
 40
1.0
 40
1.0
 40
1.0
 40
1.0
 10
86.61487208967786
 20
103.0289616566007
 30
0.0
 10
86.54643412042657
 20
102.9063482481626
 30
0.0
 10
86.40959212605054
 20
102.6611822455553
 30
0.0
 10
86.06521583525478
 20
102.404758643635
 30
0.0
 10
85.66256992271063
 20
102.2695541340354
 30
0.0
 10
85.23522706547146
 20
102.2768322600306
 30
0.0
 10
84.83861293935259
 20
102.4240219281145
 30
0.0
 10
84.51350741637496
 20
102.6818100565973
 30
0.0
 10
84.38480717180438
 20
102.9170551551356
 30
0.0
 10
84.32358424219994
 20
103.0289616566007
 30
0.0
  0
LINE
  5
13A
330
1F
100
AcDbEntity
  8
0
  6
Continuous
 62
     7
370
    25
100
AcDbLine
 10
83.4692281659
 20
103.0289616566
 30
0.0
 11
83.4692281659
 21
98.4463859616
 31
0.0
  0
LINE
  5
13B
330
1F
100
AcDbEntity
  8
0
  6
Continuous
 62
     7
370
    25
100
AcDbLine
 10
93.4692281659
 20
98.4463859616
 30
0.0
 11
93.4692281659
 21
103.0289616566
 31
0.0
  0
LINE
  5
13C
330
1F
100
AcDbEntity
  8
0
  6
Continuous
 62
     7
370
    25
100
AcDbLine
 10
130.7692281659
 20
98.0289616566
 30
0.0
 11
128.1692283225
 21
98.0289616566
 31
0.0
  0
LINE
  5
13D
330
1F
100
AcDbEntity
  8
0
  6
Continuous
 62
     7
370
    25
100
AcDbLine
 10
77.7692280093
 20
98.0289616566
 30
0.0
 11
75.1692281659
 21
98.0289616566
 31
0.0
  0
LINE
  5
13E
330
1F
100
AcDbEntity
  8
0
  6
Continuous
 62
     7
370
    25
100
AcDbLine
 10
68.7692280093
 20
98.0289616566
 30
0.0
 11
66.1692281659
 21
98.0289616566
 31
0.0
  0
LINE
  5
13F
330
1F
100
AcDbEntity
  8
0
  6
Continuous
 62
     7
370
    25
100
AcDbLine
 10
127.7692281659
 20
98.0289616566
 30
0.0
 11
125.1692283225
 21
98.0289616566
 31
0.0
  0
LINE
  5
140
330
1F
100
AcDbEntity
  8
0
  6
Continuous
 62
     7
370
    25
100
AcDbLine
 10
118.7692281659
 20
98.0289616566
 30
0.0
 11
116.1692283225
 21
98.0289616566
 31
0.0
  0
LINE
  5
141
330
1F
100
AcDbEntity
  8
0
  6
Continuous
 62
     7
370
    25
100
AcDbLine
 10
121.7692281659
 20
98.0289616566
 30
0.0
 11
119.1692283225
 21
98.0289616566
 31
0.0
  0
LINE
  5
142
330
1F
100
AcDbEntity
  8
0
  6
Continuous
 62
     7
370
    25
100
AcDbLine
 10
80.7692280093
 20
98.0289616566
 30
0.0
 11
78.1692281659
 21
98.0289616566
 31
0.0
  0
LINE
  5
143
330
1F
100
AcDbEntity
  8
0
  6
Continuous
 62
     7
370
    25
100
AcDbLine
 10
124.7692281659
 20
98.0289616566
 30
0.0
 11
122.1692283225
 21
98.0289616566
 31
0.0
  0
LINE
  5
144
330
1F
100
AcDbEntity
  8
0
  6
Continuous
 62
     7
370
    25
100
AcDbLine
 10
74.7692280093
 20
98.0289616566
 30
0.0
 11
72.1692281659
 21
98.0289616566
 31
0.0
  0
LINE
  5
145
330
1F
100
AcDbEntity
  8
0
  6
Continuous
 62
     7
370
    25
100
AcDbLine
 10
83.7901319094
 20
97.994640205
 30
0.0
 11
81.1901320659
 21
97.994640205
 31
0.0
  0
LINE
  5
146
330
1F
100
AcDbEntity
  8
0
  6
Continuous
 62
     7
370
    25
100
AcDbLine
 10
71.7692280093
 20
98.0289616566
 30
0.0
 11
69.1692281659
 21
98.0289616566
 31
0.0
  0
LINE
  5
147
330
1F
100
AcDbEntity
  8
0
  6
Continuous
 62
     7
370
    25
100
AcDbLine
 10
115.7483242659
 20
97.994640205
 30
0.0
 11
113.1483244225
 21
97.994640205
 31
0.0
  0
LINE
  5
148
330
1F
100
AcDbEntity
  8
0
  6
Continuous
 62
     7
370
    25
100
AcDbLine
 10
108.4692281659
 20
115.6550981142
 30
0.0
 11
113.4692281659
 21
115.6550981142
 31
0.0
  0
LINE
  5
149
330
1F
100
AcDbEntity
  8
0
  6
Continuous
 62
     7
370
    25
100
AcDbLine
 10
108.4692281659
 20
131.0289616566
 30
0.0
 11
108.4692281659
 21
115.6550981142
 31
0.0
  0
LINE
  5
14A
330
1F
100
AcDbEntity
  8
0
  6
Continuous
 62
     7
370
    25
100
AcDbLine
 10
113.4692281659
 20
115.6550981142
 30
0.0
 11
113.4692281659
 21
131.0289616566
 31
0.0
  0
LINE
  5
14B
330
1F
100
AcDbEntity
  8
0
  6
Continuous
 62
     7
370
    25
100
AcDbLine
 10
93.4692281659
 20
115.6550981142
 30
0.0
 11
98.4692281659
 21
115.6550981142
 31
0.0
  0
LINE
  5
14C
330
1F
100
AcDbEntity
  8
0
  6
Continuous
 62
     7
370
    25
100
AcDbLine
 10
98.4692281659
 20
115.6550981142
 30
0.0
 11
98.4692281659
 21
131.0289616566
 31
0.0
  0
LINE
  5
14D
330
1F
100
AcDbEntity
  8
0
  6
Continuous
 62
     7
370
    25
100
AcDbLine
 10
96.6148720897
 20
103.0289616566
 30
0.0
 11
101.0197384232
 21
103.0289616566
 31
0.0
  0
ARC
  5
14E
330
1F
100
AcDbEntity
  8
0
  6
Continuous
 62
     7
370
    25
100
AcDbCircle
 10
95.4692281659
 20
103.5289616566
 30
0.0
 40
1.249999999999999
100
AcDbArc
 50
336.4218215218
 51
203.5781784782
  0
LINE
  5
14F
330
1F
100
AcDbEntity
  8
0
  6
Continuous
 62
     7
370
    25
100
AcDbLine
 10
93.4692281659
 20
103.0289616566
 30
0.0
 11
94.3235842422
 21
103.0289616566
 31
0.0
  0
LINE
  5
150
330
1F
100
AcDbEntity
  8
0
  6
Continuous
 62
     7
370
    25
100
AcDbLine
 10
112.6148720897
 20
103.0289616566
 30
0.0
 11
113.4692281659
 21
103.0289616566
 31
0.0
  0
ARC
  5
151
330
1F
100
AcDbEntity
  8
0
  6
Continuous
 62
     7
370
    25
100
AcDbCircle
 10
111.4692281659
 20
103.5289616566
 30
0.0
 40
1.249999999999999
100
AcDbArc
 50
336.4218215218
 51
203.5781784782
  0
LINE
  5
152
330
1F
100
AcDbEntity
  8
0
  6
Continuous
 62
     7
370
    25
100
AcDbLine
 10
105.9187179087
 20
103.0289616566
 30
0.0
 11
110.3235842422
 21
103.0289616566
 31
0.0
  0
ARC
  5
153
330
1F
100
AcDbEntity
  8
0
  6
Continuous
 62
     7
370
    25
100
AcDbCircle
 10
103.4692281659
 20
103.5289616566
 30
0.0
 40
2.500000000000008
100
AcDbArc
 50
348.4630409672
 51
191.5369590328
  0
CIRCLE
  5
154
330
1F
100
AcDbEntity
  8
0
  6
Continuous
 62
     7
370
    25
100
AcDbCircle
 10
95.4692281659
 20
111.5289616566
 30
0.0
 40
1.249999999999986
  0
CIRCLE
  5
155
330
1F
100
AcDbEntity
  8
0
  6
Continuous
 62
     7
370
    25
100
AcDbCircle
 10
111.4692281659
 20
111.5289616566
 30
0.0
 40
1.249999999999986
  0
LINE
  5
156
330
1F
100
AcDbEntity
  8
0
  6
Continuous
 62
     7
370
    25
100
AcDbLine
 10
108.4692281659
 20
107.0289616566
 30
0.0
 11
98.4692281659
 21
107.0289616566
 31
0.0
  0
LINE
  5
157
330
1F
100
AcDbEntity
  8
0
  6
Continuous
 62
     7
370
    25
100
AcDbLine
 10
108.4692281659
 20
115.6550981142
 30
0.0
 11
108.4692281659
 21
107.0289616566
 31
0.0
  0
LINE
  5
158
330
1F
100
AcDbEntity
  8
0
  6
Continuous
 62
     7
370
    25
100
AcDbLine
 10
113.4692281659
 20
103.0289616566
 30
0.0
 11
113.4692281659
 21
115.6550981142
 31
0.0
  0
LINE
  5
159
330
1F
100
AcDbEntity
  8
0
  6
Continuous
 62
     7
370
    25
100
AcDbLine
 10
98.4692281659
 20
107.0289616566
 30
0.0
 11
98.4692281659
 21
115.6550981142
 31
0.0
  0
SPLINE
  5
15A
330
1F
100
AcDbEntity
  8
0
  6
Continuous
 62
     7
370
    25
100
AcDbSpline
210
0.0
220
0.0
230
1.0
 70
     8
 71
     3
 72
    22
 73
    18
 74
     0
 42
0.00000001
 43
0.00000001
 40
0.0
 40
0.0
 40
0.0
 40
0.0
 40
0.0560006635191171
 40
0.1426693316628091
 40
0.2411981269218627
 40
0.301178189521157
 40
0.3611786251272986
 40
0.4307760869341727
 40
0.5003772094013789
 40
0.5736424405641773
 40
0.6469025414290186
 40
0.7203058644272207
 40
0.7936493392942289
 40
0.847514966159757
 40
0.901326741635657
 40
0.9905129381275908
 40
0.9999999999999999
 40
0.9999999999999999
 40
0.9999999999999999
 40
0.9999999999999999
 10
105.9187179087221
 20
103.0289616566007
 30
0.0
 10
105.8869470446848
 20
102.9121682257268
 30
0.0
 10
105.8060064333828
 20
102.6146210239923
 30
0.0
 10
105.5170669179604
 20
102.1735541704259
 30
0.0
 10
105.1214789246521
 20
101.8241479191838
 30
0.0
 10
104.714272486218
 20
101.593890399244
 30
0.0
 10
104.3354319351673
 20
101.4456001081575
 30
0.0
 10
103.9166525677932
 20
101.3498378508017
 30
0.0
 10
103.4586512027982
 20
101.3153773099655
 30
0.0
 10
102.9927425766733
 20
101.3531708417102
 30
0.0
 10
102.5318679238928
 20
101.4652726830296
 30
0.0
 10
102.0980922210719
 20
101.6526175623754
 30
0.0
 10
101.7394805131932
 20
101.8902046779093
 30
0.0
 10
101.458837581808
 20
102.1576238716039
 30
0.0
 10
101.2035208045056
 20
102.4938519128538
 30
0.0
 10
101.0689648922728
 20
102.8013158425221
 30
0.0
 10
101.024056222486
 20
103.0089941683533
 30
0.0
 10
101.0197384231557
 20
103.0289616566007
 30
0.0
  0
CIRCLE
  5
15B
330
1F
100
AcDbEntity
  8
0
  6
Continuous
 62
     7
370
    25
100
AcDbCircle
 10
103.4692281659
 20
103.5289616566
 30
0.0
 40
2.099999999999994
  0
LINE
  5
15C
330
1F
100
AcDbEntity
  8
0
  6
Continuous
 62
     7
370
    25
100
AcDbLine
 10
97.6692281659
 20
98.0289616566
 30
0.0
 11
97.6692281659
 21
98.4463859616
 31
0.0
  0
LINE
  5
15D
330
1F
100
AcDbEntity
  8
0
  6
Continuous
 62
     7
370
    25
100
AcDbLine
 10
93.4692281659
 20
98.4463859616
 30
0.0
 11
97.6692281659
 21
98.4463859616
 31
0.0
  0
LINE
  5
15E
330
1F
100
AcDbEntity
  8
0
  6
Continuous
 62
     7
370
    25
100
AcDbLine
 10
109.2692281659
 20
98.4463859616
 30
0.0
 11
113.4692281659
 21
98.4463859616
 31
0.0
  0
LINE
  5
15F
330
1F
100
AcDbEntity
  8
0
  6
Continuous
 62
     7
370
    25
100
AcDbLine
 10
109.2692281659
 20
98.4463859616
 30
0.0
 11
109.2692281659
 21
98.0289616566
 31
0.0
  0
SPLINE
  5
160
330
1F
100
AcDbEntity
  8
0
  6
Continuous
 62
     7
370
    25
100
AcDbSpline
210
0.0
220
0.0
230
1.0
 70
     8
 71
     3
 72
    14
 73
    10
 74
     0
 42
0.00000001
 43
0.00000001
 40
0.0
 40
0.0
 40
0.0
 40
0.0
 40
0.1445446388593748
 40
0.289017585914206
 40
0.4348030547791349
 40
0.5796886730506313
 40
0.7234989855345719
 40
0.8684679877598044
 40
1.0
 40
1.0
 40
1.0
 40
1.0
 10
96.61487208967786
 20
103.0289616566007
 30
0.0
 10
96.54643412042655
 20
102.9063482481626
 30
0.0
 10
96.40959212605053
 20
102.6611822455553
 30
0.0
 10
96.06521583525479
 20
102.404758643635
 30
0.0
 10
95.66256992271062
 20
102.2695541340354
 30
0.0
 10
95.23522706547146
 20
102.2768322600306
 30
0.0
 10
94.8386129393526
 20
102.4240219281145
 30
0.0
 10
94.51350741637496
 20
102.6818100565973
 30
0.0
 10
94.3848071718044
 20
102.9170551551356
 30
0.0
 10
94.32358424219996
 20
103.0289616566007
 30
0.0
  0
SPLINE
  5
161
330
1F
100
AcDbEntity
  8
0
  6
Continuous
 62
     7
370
    25
100
AcDbSpline
210
0.0
220
0.0
230
1.0
 70
     8
 71
     3
 72
    14
 73
    10
 74
     0
 42
0.00000001
 43
0.00000001
 40
0.0
 40
0.0
 40
0.0
 40
0.0
 40
0.1445446388593732
 40
0.2890175859142034
 40
0.4348030547791329
 40
0.5796886730506301
 40
0.7234989855345719
 40
0.868467987759803
 40
1.0
 40
1.0
 40
1.0
 40
1.0
 10
112.6148720896779
 20
103.0289616566007
 30
0.0
 10
112.5464341204266
 20
102.9063482481626
 30
0.0
 10
112.4095921260505
 20
102.6611822455553
 30
0.0
 10
112.0652158352548
 20
102.404758643635
 30
0.0
 10
111.6625699227106
 20
102.2695541340354
 30
0.0
 10
111.2352270654715
 20
102.2768322600306
 30
0.0
 10
110.8386129393526
 20
102.4240219281145
 30
0.0
 10
110.513507416375
 20
102.6818100565973
 30
0.0
 10
110.3848071718044
 20
102.9170551551356
 30
0.0
 10
110.3235842422
 20
103.0289616566007
 30
0.0
  0
LINE
  5
162
330
1F
100
AcDbEntity
  8
0
  6
Continuous
 62
     7
370
    25
100
AcDbLine
 10
113.4692281659
 20
98.4463859616
 30
0.0
 11
113.4692281659
 21
103.0289616566
 31
0.0
  0
LINE
  5
163
330
1F
100
AcDbEntity
  8
0
  6
Continuous
 62
     7
370
    25
100
AcDbLine
 10
134.5024312844
 20
128.0062156101
 30
0.0
 11
133.4692281659
 21
128.7321278666
 31
0.0
  0
SPLINE
  5
164
330
1F
100
AcDbEntity
  8
0
  6
Continuous
 62
     7
370
    25
100
AcDbSpline
210
0.0
220
0.0
230
1.0
 70
     8
 71
     3
 72
     9
 73
     5
 74
     0
 42
0.00000001
 43
0.00000001
 40
0.0
 40
0.0
 40
0.0
 40
0.0
 40
0.5010346027485828
 40
1.0
 40
1.0
 40
1.0
 40
1.0
 10
134.5024312843939
 20
128.0062156101081
 30
0.0
 10
134.546603371649
 20
127.9687335630783
 30
0.0
 10
134.6347651213821
 20
127.8939242648299
 30
0.0
 10
134.6766828798403
 20
127.7861763951751
 30
0.0
 10
134.6975983908413
 20
127.7324139365898
 30
0.0
  0
LINE
  5
165
330
1F
100
AcDbEntity
  8
0
  6
Continuous
 62
     7
370
    25
100
AcDbLine
 10
134.6975983908
 20
127.7324139366
 30
0.0
 11
134.7192281659
 21
127.4599401374
 31
0.0
  0
LINE
  5
166
330
1F
100
AcDbEntity
  8
0
  6
Continuous
 62
     7
370
    25
100
AcDbLine
 10
134.7192281659
 20
127.4599401374
 30
0.0
 11
134.7192281659
 21
117.3229458202
 31
0.0
  0
SPLINE
  5
167
330
1F
100
AcDbEntity
  8
0
  6
Continuous
 62
     7
370
    25
100
AcDbSpline
210
0.0
220
0.0
230
1.0
 70
     8
 71
     3
 72
     9
 73
     5
 74
     0
 42
0.00000001
 43
0.00000001
 40
0.0
 40
0.0
 40
0.0
 40
0.0
 40
0.8797784899378263
 40
1.0
 40
1.0
 40
1.0
 40
1.0
 10
63.46922816593889
 20
128.7321719848047
 30
0.0
 10
63.16604551798213
 20
128.5195428023274
 30
0.0
 10
62.82143303719936
 20
128.2778578953773
 30
0.0
 10
62.4773868050381
 20
128.0353680995338
 30
0.0
 10
62.43602504747648
 20
128.0062156101028
 30
0.0
  0
SPLINE
  5
168
330
1F
100
AcDbEntity
  8
0
  6
Continuous
 62
     7
370
    25
100
AcDbSpline
210
0.0
220
0.0
230
1.0
 70
     8
 71
     3
 72
    10
 73
     6
 74
     0
 42
0.00000001
 43
0.00000001
 40
0.0
 40
0.0
 40
0.0
 40
0.0
 40
0.074196312473195
 40
0.5910850698862191
 40
1.0
 40
1.0
 40
1.0
 40
1.0
 10
62.24085794103641
 20
127.7324139365895
 30
0.0
 10
62.24337942481346
 20
127.7404625078242
 30
0.0
 10
62.26346683030436
 20
127.8045814664648
 30
0.0
 10
62.31893811129638
 20
127.9083185826543
 30
0.0
 10
62.40015336958684
 20
127.9762231041106
 30
0.0
 10
62.43602504747648
 20
128.0062156101028
 30
0.0
  0
LINE
  5
169
330
1F
100
AcDbEntity
  8
0
  6
Continuous
 62
     7
370
    25
100
AcDbLine
 10
62.2192281659
 20
117.3229458202
 30
0.0
 11
62.2192281659
 21
127.4599401374
 31
0.0
  0
LINE
  5
16A
330
1F
100
AcDbEntity
  8
0
  6
Continuous
 62
     7
370
    25
100
AcDbLine
 10
62.2192281659
 20
127.4599401374
 30
0.0
 11
62.240857941
 21
127.7324139366
 31
0.0
  0
LINE
  5
16B
330
1F
100
AcDbEntity
  8
0
  6
Continuous
 62
     7
370
    25
100
AcDbLine
 10
83.4692281659
 20
115.6550981142
 30
0.0
 11
63.4692281659
 21
115.6550981142
 31
0.0
  0
LINE
  5
16C
330
1F
100
AcDbEntity
  8
0
  6
Continuous
 62
     7
370
    25
100
AcDbLine
 10
63.4692281659
 20
131.0289616566
 30
0.0
 11
63.4692281659
 21
115.6550981142
 31
0.0
  0
LINE
  5
16D
330
1F
100
AcDbEntity
  8
0
  6
Continuous
 62
     7
370
    25
100
AcDbLine
 10
83.4692281659
 20
103.0289616566
 30
0.0
 11
63.4692281659
 21
103.0289616566
 31
0.0
  0
LINE
  5
16E
330
1F
100
AcDbEntity
  8
0
  6
Continuous
 62
     7
370
    25
100
AcDbLine
 10
87.4692281659
 20
98.4463859616
 30
0.0
 11
83.4692281659
 21
98.4463859616
 31
0.0
  0
LINE
  5
16F
330
1F
100
AcDbEntity
  8
0
  6
Continuous
 62
     7
370
    25
100
AcDbLine
 10
87.4692281659
 20
98.4463859616
 30
0.0
 11
87.4692281659
 21
98.0289616566
 31
0.0
  0
SPLINE
  5
170
330
1F
100
AcDbEntity
  8
0
  6
Continuous
 62
     7
370
    25
100
AcDbSpline
210
0.0
220
0.0
230
1.0
 70
     8
 71
     3
 72
    17
 73
    13
 74
     0
 42
0.00000001
 43
0.00000001
 40
0.0
 40
0.0
 40
0.0
 40
0.0
 40
0.1045750031923614
 40
0.209058843891733
 40
0.3159344229206255
 40
0.4248216134977464
 40
0.5309913025888701
 40
0.6338971133902268
 40
0.7380952294649656
 40
0.846047807930392
 40
0.9545197873151233
 40
0.9999999999999999
 40
0.9999999999999999
 40
0.9999999999999999
 40
0.9999999999999999
 10
66.0692281659389
 20
98.02896165660069
 30
0.0
 10
66.08410485990221
 20
98.03323182776938
 30
0.0
 10
66.11384527917984
 20
98.04176844761635
 30
0.0
 10
66.34496940752577
 20
98.10172007046012
 30
0.0
 10
66.68977717409602
 20
98.17137151923296
 30
0.0
 10
67.12960891119077
 20
98.22464150617073
 30
0.0
 10
67.60431341001919
 20
98.23465755415216
 30
0.0
 10
68.05474501680202
 20
98.19947576839338
 30
0.0
 10
68.44470443769362
 20
98.13457947206994
 30
0.0
 10
68.72609463281407
 20
98.0687553699386
 30
0.0
 10
68.86957498275119
 20
98.0288804645204
 30
0.0
 10
68.85475397660466
 20
98.03299087028397
 30
0.0
 10
68.8503755880758
 20
98.03420515717288
 30
0.0
  0
SPLINE
  5
171
330
1F
100
AcDbEntity
  8
0
  6
Continuous
 62
     7
370
    25
100
AcDbSpline
210
0.0
220
0.0
230
1.0
 70
     8
 71
     3
 72
    17
 73
    13
 74
     0
 42
0.00000001
 43
0.00000001
 40
0.0
 40
0.0
 40
0.0
 40
0.0
 40
0.1045750031923615
 40
0.2090588438917331
 40
0.3159344229206256
 40
0.4248216134977467
 40
0.5309913025888704
 40
0.633897113390227
 40
0.738095229464966
 40
0.8460478079303915
 40
0.9545197873151234
 40
1.0
 40
1.0
 40
1.0
 40
1.0
 10
69.0692281659389
 20
98.02896165660069
 30
0.0
 10
69.08410485990221
 20
98.03323182776938
 30
0.0
 10
69.11384527917984
 20
98.04176844761635
 30
0.0
 10
69.34496940752577
 20
98.10172007046012
 30
0.0
 10
69.68977717409605
 20
98.17137151923296
 30
0.0
 10
70.12960891119077
 20
98.22464150617071
 30
0.0
 10
70.60431341001919
 20
98.23465755415216
 30
0.0
 10
71.05474501680202
 20
98.19947576839338
 30
0.0
 10
71.4447044376936
 20
98.13457947206993
 30
0.0
 10
71.72609463281407
 20
98.06875536993859
 30
0.0
 10
71.8695749827512
 20
98.02888046452041
 30
0.0
 10
71.85475397660466
 20
98.03299087028397
 30
0.0
 10
71.8503755880758
 20
98.03420515717288
 30
0.0
  0
SPLINE
  5
172
330
1F
100
AcDbEntity
  8
0
  6
Continuous
 62
     7
370
    25
100
AcDbSpline
210
0.0
220
0.0
230
1.0
 70
     8
 71
     3
 72
    17
 73
    13
 74
     0
 42
0.00000001
 43
0.00000001
 40
0.0
 40
0.0
 40
0.0
 40
0.0
 40
0.1045750031923617
 40
0.2090588438917325
 40
0.3159344229206261
 40
0.4248216134977457
 40
0.5309913025888708
 40
0.6338971133902275
 40
0.7380952294649669
 40
0.8460478079303916
 40
0.9545197873151234
 40
1.0
 40
1.0
 40
1.0
 40
1.0
 10
72.06922816593888
 20
98.02896165660069
 30
0.0
 10
72.0841048599022
 20
98.03323182776938
 30
0.0
 10
72.11384527917984
 20
98.04176844761633
 30
0.0
 10
72.34496940752577
 20
98.10172007046012
 30
0.0
 10
72.68977717409602
 20
98.17137151923296
 30
0.0
 10
73.12960891119077
 20
98.22464150617071
 30
0.0
 10
73.60431341001919
 20
98.23465755415216
 30
0.0
 10
74.05474501680202
 20
98.19947576839338
 30
0.0
 10
74.44470443769362
 20
98.13457947206994
 30
0.0
 10
74.72609463281407
 20
98.06875536993861
 30
0.0
 10
74.86957498275117
 20
98.0288804645204
 30
0.0
 10
74.85475397660466
 20
98.03299087028397
 30
0.0
 10
74.8503755880758
 20
98.03420515717288
 30
0.0
  0
SPLINE
  5
173
330
1F
100
AcDbEntity
  8
0
  6
Continuous
 62
     7
370
    25
100
AcDbSpline
210
0.0
220
0.0
230
1.0
 70
     8
 71
     3
 72
    17
 73
    13
 74
     0
 42
0.00000001
 43
0.00000001
 40
0.0
 40
0.0
 40
0.0
 40
0.0
 40
0.1045750031923614
 40
0.209058843891733
 40
0.3159344229206267
 40
0.4248216134977463
 40
0.5309913025888715
 40
0.6338971133902283
 40
0.7380952294649662
 40
0.8460478079303926
 40
0.9545197873151233
 40
1.0
 40
1.0
 40
1.0
 40
1.0
 10
75.0692281659389
 20
98.02896165660069
 30
0.0
 10
75.08410485990218
 20
98.03323182776938
 30
0.0
 10
75.11384527917981
 20
98.04176844761633
 30
0.0
 10
75.34496940752581
 20
98.10172007046015
 30
0.0
 10
75.68977717409602
 20
98.17137151923296
 30
0.0
 10
76.12960891119077
 20
98.22464150617071
 30
0.0
 10
76.60431341001919
 20
98.23465755415216
 30
0.0
 10
77.05474501680202
 20
98.19947576839338
 30
0.0
 10
77.44470443769362
 20
98.13457947206994
 30
0.0
 10
77.72609463281407
 20
98.0687553699386
 30
0.0
 10
77.86957498275117
 20
98.0288804645204
 30
0.0
 10
77.85475397660466
 20
98.03299087028397
 30
0.0
 10
77.8503755880758
 20
98.03420515717288
 30
0.0
  0
SPLINE
  5
174
330
1F
100
AcDbEntity
  8
0
  6
Continuous
 62
     7
370
    25
100
AcDbSpline
210
0.0
220
0.0
230
1.0
 70
     8
 71
     3
 72
    17
 73
    13
 74
     0
 42
0.00000001
 43
0.00000001
 40
0.0
 40
0.0
 40
0.0
 40
0.0
 40
0.1045750031923622
 40
0.2090588438917337
 40
0.3159344229206262
 40
0.4248216134977454
 40
0.5309913025888706
 40
0.6338971133902275
 40
0.7380952294649658
 40
0.846047807930391
 40
0.9545197873151225
 40
1.0
 40
1.0
 40
1.0
 40
1.0
 10
78.0692281659389
 20
98.02896165660069
 30
0.0
 10
78.08410485990221
 20
98.03323182776938
 30
0.0
 10
78.11384527917983
 20
98.04176844761633
 30
0.0
 10
78.34496940752578
 20
98.10172007046012
 30
0.0
 10
78.68977717409604
 20
98.17137151923296
 30
0.0
 10
79.12960891119079
 20
98.22464150617073
 30
0.0
 10
79.60431341001917
 20
98.23465755415216
 30
0.0
 10
80.05474501680202
 20
98.19947576839338
 30
0.0
 10
80.4447044376936
 20
98.13457947206993
 30
0.0
 10
80.72609463281408
 20
98.06875536993861
 30
0.0
 10
80.86957498275119
 20
98.0288804645204
 30
0.0
 10
80.85475397660464
 20
98.03299087028397
 30
0.0
 10
80.85037558807579
 20
98.03420515717288
 30
0.0
  0
LINE
  5
175
330
1F
100
AcDbEntity
  8
0
  6
Continuous
 62
     7
370
    25
100
AcDbLine
 10
63.4692281659
 20
103.0289616566
 30
0.0
 11
63.4692281659
 21
98.0289616566
 31
0.0
  0
LINE
  5
176
330
1F
100
AcDbEntity
  8
0
  6
Continuous
 62
     7
370
    25
100
AcDbLine
 10
63.4692281659
 20
115.6550981142
 30
0.0
 11
63.4692281659
 21
103.0289616566
 31
0.0
  0
LINE
  5
177
330
1F
100
AcDbEntity
  8
0
  6
Continuous
 62
     7
370
    25
100
AcDbLine
 10
113.4692281659
 20
115.6550981142
 30
0.0
 11
133.4692281659
 21
115.6550981142
 31
0.0
  0
LINE
  5
178
330
1F
100
AcDbEntity
  8
0
  6
Continuous
 62
     7
370
    25
100
AcDbLine
 10
133.4692281659
 20
115.6550981142
 30
0.0
 11
133.4692281659
 21
131.0289616566
 31
0.0
  0
LINE
  5
179
330
1F
100
AcDbEntity
  8
0
  6
Continuous
 62
     7
370
    25
100
AcDbLine
 10
113.4692281659
 20
103.0289616566
 30
0.0
 11
133.4692281659
 21
103.0289616566
 31
0.0
  0
LINE
  5
17A
330
1F
100
AcDbEntity
  8
0
  6
Continuous
 62
     7
370
    25
100
AcDbLine
 10
133.4692281659
 20
103.0289616566
 30
0.0
 11
133.4692281659
 21
115.6550981142
 31
0.0
  0
LINE
  5
17B
330
1F
100
AcDbEntity
  8
0
  6
Continuous
 62
     7
370
    25
100
AcDbLine
 10
109.4692281659
 20
98.0289616566
 30
0.0
 11
109.4692281659
 21
98.4463859616
 31
0.0
  0
LINE
  5
17C
330
1F
100
AcDbEntity
  8
0
  6
Continuous
 62
     7
370
    25
100
AcDbLine
 10
113.4692281659
 20
98.4463859616
 30
0.0
 11
109.4692281659
 21
98.4463859616
 31
0.0
  0
ARC
  5
17D
330
1F
100
AcDbEntity
  8
0
  6
Continuous
 62
     7
370
    25
100
AcDbCircle
 10
129.4694223565
 20
93.1348877401
 30
0.0
 40
5.090325707125105
100
AcDbArc
 50
74.0383810722
 51
105.7455713394
  0
ARC
  5
17E
330
1F
100
AcDbEntity
  8
0
  6
Continuous
 62
     7
370
    25
100
AcDbCircle
 10
126.4694223565
 20
93.1348877401
 30
0.0
 40
5.090325707125488
100
AcDbArc
 50
74.0383810722
 51
105.7455713394
  0
ARC
  5
17F
330
1F
100
AcDbEntity
  8
0
  6
Continuous
 62
     7
370
    25
100
AcDbCircle
 10
123.4694223565
 20
93.1348877401
 30
0.0
 40
5.090325707125078
100
AcDbArc
 50
74.0383810722
 51
105.7455713394
  0
ARC
  5
180
330
1F
100
AcDbEntity
  8
0
  6
Continuous
 62
     7
370
    25
100
AcDbCircle
 10
120.4694223565
 20
93.1348877401
 30
0.0
 40
5.090325707125047
100
AcDbArc
 50
74.0383810722
 51
105.7455713394
  0
ARC
  5
181
330
1F
100
AcDbEntity
  8
0
  6
Continuous
 62
     7
370
    25
100
AcDbCircle
 10
117.4694223565
 20
93.1348877401
 30
0.0
 40
5.090325707125132
100
AcDbArc
 50
74.0383810722
 51
105.7455713394
  0
LINE
  5
182
330
1F
100
AcDbEntity
  8
0
  6
Continuous
 62
     7
370
    25
100
AcDbLine
 10
133.4692281659
 20
98.0289616566
 30
0.0
 11
133.4692281659
 21
103.0289616566
 31
0.0
  0
LINE
  5
183
330
1F
100
AcDbEntity
  8
0
  6
Continuous
 62
     7
370
    25
100
AcDbLine
 10
128.4757018188
 20
98.1289616566
 30
0.0
 11
130.4557353941
 21
98.1289616566
 31
0.0
  0
LINE
  5
184
330
1F
100
AcDbEntity
  8
0
  6
Continuous
 62
     7
370
    25
100
AcDbLine
 10
75.4975382805
 20
98.1289616566
 30
0.0
 11
77.4564814186
 21
98.1289616566
 31
0.0
  0
LINE
  5
185
330
1F
100
AcDbEntity
  8
0
  6
Continuous
 62
     7
370
    25
100
AcDbLine
 10
66.4975382805
 20
98.1289616566
 30
0.0
 11
68.4564814186
 21
98.1289616566
 31
0.0
  0
LINE
  5
186
330
1F
100
AcDbEntity
  8
0
  6
Continuous
 62
     7
370
    25
100
AcDbLine
 10
125.4757018188
 20
98.1289616566
 30
0.0
 11
127.4557353941
 21
98.1289616566
 31
0.0
  0
LINE
  5
187
330
1F
100
AcDbEntity
  8
0
  6
Continuous
 62
     7
370
    25
100
AcDbLine
 10
116.4757018188
 20
98.1289616566
 30
0.0
 11
118.4557353941
 21
98.1289616566
 31
0.0
  0
LINE
  5
188
330
1F
100
AcDbEntity
  8
0
  6
Continuous
 62
     7
370
    25
100
AcDbLine
 10
119.4757018188
 20
98.1289616566
 30
0.0
 11
121.4557353941
 21
98.1289616566
 31
0.0
  0
LINE
  5
189
330
1F
100
AcDbEntity
  8
0
  6
Continuous
 62
     7
370
    25
100
AcDbLine
 10
78.4975382805
 20
98.1289616566
 30
0.0
 11
80.4564814186
 21
98.1289616566
 31
0.0
  0
LINE
  5
18A
330
1F
100
AcDbEntity
  8
0
  6
Continuous
 62
     7
370
    25
100
AcDbLine
 10
122.4757018188
 20
98.1289616566
 30
0.0
 11
124.4557353941
 21
98.1289616566
 31
0.0
  0
LINE
  5
18B
330
1F
100
AcDbEntity
  8
0
  6
Continuous
 62
     7
370
    25
100
AcDbLine
 10
72.4975382805
 20
98.1289616566
 30
0.0
 11
74.4564814186
 21
98.1289616566
 31
0.0
  0
LINE
  5
18C
330
1F
100
AcDbEntity
  8
0
  6
Continuous
 62
     7
370
    25
100
AcDbLine
 10
81.3289839144
 20
98.094640205
 30
0.0
 11
83.6512802175
 21
98.094640205
 31
0.0
  0
LINE
  5
18D
330
1F
100
AcDbEntity
  8
0
  6
Continuous
 62
     7
370
    25
100
AcDbLine
 10
69.4975382805
 20
98.1289616566
 30
0.0
 11
71.4564814186
 21
98.1289616566
 31
0.0
  0
LINE
  5
18E
330
1F
100
AcDbEntity
  8
0
  6
Continuous
 62
     7
370
    25
100
AcDbLine
 10
113.3233894541
 20
98.094640205
 30
0.0
 11
115.5732590777
 21
98.094640205
 31
0.0
  0
LINE
  5
18F
330
1F
100
AcDbEntity
  8
0
  6
Continuous
 62
     7
370
    25
100
AcDbLine
 10
134.5024312844
 20
116.9108827259
 30
0.0
 11
134.5024312844
 21
128.0062156101
 31
0.0
  0
LINE
  5
190
330
1F
100
AcDbEntity
  8
0
  6
Continuous
 62
     7
370
    25
100
AcDbLine
 10
62.4360250475
 20
128.0062156101
 30
0.0
 11
62.4360250475
 21
116.9108827259
 31
0.0
  0
LINE
  5
191
330
1F
100
AcDbEntity
  8
0
  6
Continuous
 62
     7
100
AcDbLine
 10
56.9664559967
 20
123.2070299496
 30
0.0
 11
56.9472229836
 21
123.2070299496
 31
0.0
  0
LINE
  5
192
330
1F
100
AcDbEntity
  8
0
  6
Continuous
 62
     7
100
AcDbLine
 10
56.9664559967
 20
123.2070299496
 30
0.0
 11
56.9664559967
 21
123.2454959758
 31
0.0
  0
LINE
  5
193
330
1F
100
AcDbEntity
  8
0
  6
Continuous
 62
     7
100
AcDbLine
 10
31.8630918581
 20
122.5289616566
 30
0.0
 11
31.843858845
 21
122.5289616566
 31
0.0
  0
LINE
  5
194
330
1F
100
AcDbEntity
  8
0
  6
Continuous
 62
     7
100
AcDbLine
 10
31.8630918581
 20
122.5289616566
 30
0.0
 11
31.8630918581
 21
122.5674276828
 31
0.0
  0
LINE
  5
195
330
1F
100
AcDbEntity
  8
0
  6
Continuous
 62
     7
100
AcDbLine
 10
21.1435971023
 20
113.9554498946
 30
0.0
 11
21.1628301154
 21
113.9554498946
 31
0.0
  0
LINE
  5
196
330
1F
100
AcDbEntity
  8
0
  6
Continuous
 62
     7
100
AcDbLine
 10
21.1435971023
 20
113.9554498946
 30
0.0
 11
21.1435971023
 21
113.9939159208
 31
0.0
  0
LINE
  5
197
330
1F
100
AcDbEntity
  8
0
  6
Continuous
 62
     7
100
AcDbLine
 10
31.8630918581
 20
98.0289616566
 30
0.0
 11
31.8823248712
 21
98.0289616566
 31
0.0
  0
LINE
  5
198
330
1F
100
AcDbEntity
  8
0
  6
Continuous
 62
     7
100
AcDbLine
 10
31.8630918581
 20
98.0289616566
 30
0.0
 11
31.8630918581
 21
98.0674276828
 31
0.0
  0
LINE
  5
199
330
1F
100
AcDbEntity
  8
0
  6
Continuous
 62
     7
100
AcDbLine
 10
31.8630918581
 20
98.0289616566
 30
0.0
 11
31.8823248712
 21
98.0289616566
 31
0.0
  0
LINE
  5
19A
330
1F
100
AcDbEntity
  8
0
  6
Continuous
 62
     7
100
AcDbLine
 10
31.8630918581
 20
98.0289616566
 30
0.0
 11
31.8630918581
 21
98.0674276828
 31
0.0
  0
LINE
  5
19B
330
1F
100
AcDbEntity
  8
0
  6
Continuous
 62
     7
100
AcDbLine
 10
31.8630918581
 20
98.0289616566
 30
0.0
 11
31.8823248712
 21
98.0289616566
 31
0.0
  0
LINE
  5
19C
330
1F
100
AcDbEntity
  8
0
  6
Continuous
 62
     7
100
AcDbLine
 10
31.8630918581
 20
98.0289616566
 30
0.0
 11
31.8630918581
 21
98.0674276828
 31
0.0
  0
LINE
  5
19D
330
1F
100
AcDbEntity
  8
0
  6
Continuous
 62
     7
100
AcDbLine
 10
31.8630918581
 20
113.5289616566
 30
0.0
 11
31.8823248712
 21
113.5289616566
 31
0.0
  0
LINE
  5
19E
330
1F
100
AcDbEntity
  8
0
  6
Continuous
 62
     7
100
AcDbLine
 10
31.8630918581
 20
113.5289616566
 30
0.0
 11
31.8630918581
 21
113.5674276828
 31
0.0
  0
LINE
  5
19F
330
1F
100
AcDbEntity
  8
0
  6
Continuous
 62
     7
100
AcDbLine
 10
31.8887142517
 20
97.994640205
 30
0.0
 11
31.9079472648
 21
97.994640205
 31
0.0
  0
LINE
  5
1A0
330
1F
100
AcDbEntity
  8
0
  6
Continuous
 62
     7
100
AcDbLine
 10
31.8887142517
 20
97.994640205
 30
0.0
 11
31.8887142517
 21
98.0331062312
 31
0.0
  0
LINE
  5
1A1
330
1F
100
AcDbEntity
  8
0
  6
Continuous
 62
     7
100
AcDbLine
 10
31.9030348934
 20
110.7076898013
 30
0.0
 11
31.9061474663
 21
110.7076898013
 31
0.0
  0
LINE
  5
1A2
330
1F
100
AcDbEntity
  8
0
  6
Continuous
 62
     7
100
AcDbLine
 10
31.9030348934
 20
110.7076898013
 30
0.0
 11
31.9030348934
 21
110.7461558275
 31
0.0
  0
LINE
  5
1A3
330
1F
100
AcDbEntity
  8
0
  6
Continuous
 62
     7
100
AcDbLine
 10
31.8630918581
 20
111.0289616566
 30
0.0
 11
31.8785863414
 21
111.0289616566
 31
0.0
  0
LINE
  5
1A4
330
1F
100
AcDbEntity
  8
0
  6
Continuous
 62
     7
100
AcDbLine
 10
31.8630918581
 20
111.0289616566
 30
0.0
 11
31.8630918581
 21
111.0674276828
 31
0.0
  0
LINE
  5
1A5
330
1F
100
AcDbEntity
  8
0
  6
Continuous
 62
     7
100
AcDbLine
 10
31.8275565079
 20
102.5078270233
 30
0.0
 11
31.8449426908
 21
102.5078270233
 31
0.0
  0
LINE
  5
1A6
330
1F
100
AcDbEntity
  8
0
  6
Continuous
 62
     7
100
AcDbLine
 10
31.8275565079
 20
102.5078270233
 30
0.0
 11
31.8275565079
 21
102.5462930495
 31
0.0
  0
LINE
  5
1A7
330
1F
100
AcDbEntity
  8
0
  6
Continuous
 62
     7
100
AcDbLine
 10
31.8630918581
 20
113.5289616566
 30
0.0
 11
31.8823248712
 21
113.5289616566
 31
0.0
  0
LINE
  5
1A8
330
1F
100
AcDbEntity
  8
0
  6
Continuous
 62
     7
100
AcDbLine
 10
31.8630918581
 20
113.5289616566
 30
0.0
 11
31.8630918581
 21
113.5674276828
 31
0.0
  0
LINE
  5
1A9
330
1F
100
AcDbEntity
  8
0
  6
Continuous
 62
     7
100
AcDbLine
 10
31.8630918581
 20
116.5289616566
 30
0.0
 11
31.8823248712
 21
116.5289616566
 31
0.0
  0
LINE
  5
1AA
330
1F
100
AcDbEntity
  8
0
  6
Continuous
 62
     7
100
AcDbLine
 10
31.8630918581
 20
116.5289616566
 30
0.0
 11
31.8630918581
 21
116.5674276828
 31
0.0
  0
LINE
  5
1AB
330
1F
100
AcDbEntity
  8
0
  6
Continuous
 62
     7
100
AcDbLine
 10
31.8630918581
 20
119.5289616566
 30
0.0
 11
31.8823248712
 21
119.5289616566
 31
0.0
  0
LINE
  5
1AC
330
1F
100
AcDbEntity
  8
0
  6
Continuous
 62
     7
100
AcDbLine
 10
31.8630918581
 20
119.5289616566
 30
0.0
 11
31.8630918581
 21
119.5674276828
 31
0.0
  0
LINE
  5
1AD
330
1F
100
AcDbEntity
  8
0
  6
Continuous
 62
     7
100
AcDbLine
 10
31.8630918581
 20
114.5289616566
 30
0.0
 11
31.8821235434
 21
114.5289616566
 31
0.0
  0
LINE
  5
1AE
330
1F
100
AcDbEntity
  8
0
  6
Continuous
 62
     7
100
AcDbLine
 10
31.8630918581
 20
114.5289616566
 30
0.0
 11
31.8630918581
 21
114.5674276828
 31
0.0
  0
LINE
  5
1AF
330
1F
100
AcDbEntity
  8
0
  6
Continuous
 62
     7
100
AcDbLine
 10
31.8630918581
 20
98.0289616566
 30
0.0
 11
31.8823248712
 21
98.0289616566
 31
0.0
  0
LINE
  5
1B0
330
1F
100
AcDbEntity
  8
0
  6
Continuous
 62
     7
100
AcDbLine
 10
31.8630918581
 20
98.0289616566
 30
0.0
 11
31.8630918581
 21
98.0674276828
 31
0.0
  0
LINE
  5
1B1
330
1F
100
AcDbEntity
  8
0
  6
Continuous
 62
     7
100
AcDbLine
 10
31.8630918581
 20
118.0289616566
 30
0.0
 11
31.844559353
 21
118.0289616566
 31
0.0
  0
LINE
  5
1B2
330
1F
100
AcDbEntity
  8
0
  6
Continuous
 62
     7
100
AcDbLine
 10
31.8630918581
 20
118.0289616566
 30
0.0
 11
31.8630918581
 21
118.0674276828
 31
0.0
  0
LINE
  5
1B3
330
1F
100
AcDbEntity
  8
0
  6
Continuous
 62
     7
100
AcDbLine
 10
31.8630918581
 20
115.5289616566
 30
0.0
 11
31.8823248712
 21
115.5289616566
 31
0.0
  0
LINE
  5
1B4
330
1F
100
AcDbEntity
  8
0
  6
Continuous
 62
     7
100
AcDbLine
 10
31.8630918581
 20
115.5289616566
 30
0.0
 11
31.8630918581
 21
115.5674276828
 31
0.0
  0
LINE
  5
1B5
330
1F
100
AcDbEntity
  8
0
  6
Continuous
 62
     7
100
AcDbLine
 10
31.8630918581
 20
118.0289616566
 30
0.0
 11
31.8823248712
 21
118.0289616566
 31
0.0
  0
LINE
  5
1B6
330
1F
100
AcDbEntity
  8
0
  6
Continuous
 62
     7
100
AcDbLine
 10
31.8630918581
 20
118.0289616566
 30
0.0
 11
31.8630918581
 21
118.0674276828
 31
0.0
  0
LINE
  5
1B7
330
1F
100
AcDbEntity
  8
0
  6
Continuous
 62
     7
100
AcDbLine
 10
31.9919263779
 20
101.6276680583
 30
0.0
 11
32.011159391
 21
101.6276680583
 31
0.0
  0
LINE
  5
1B8
330
1F
100
AcDbEntity
  8
0
  6
Continuous
 62
     7
100
AcDbLine
 10
31.9919263779
 20
101.6276680583
 30
0.0
 11
31.9919263779
 21
101.6661340845
 31
0.0
  0
LINE
  5
1B9
330
1F
100
AcDbEntity
  8
0
  6
Continuous
 62
     7
100
AcDbLine
 10
31.8630918581
 20
98.0289616566
 30
0.0
 11
31.8823248712
 21
98.0289616566
 31
0.0
  0
LINE
  5
1BA
330
1F
100
AcDbEntity
  8
0
  6
Continuous
 62
     7
100
AcDbLine
 10
31.8630918581
 20
98.0289616566
 30
0.0
 11
31.8630918581
 21
98.0674276828
 31
0.0
  0
LINE
  5
1BB
330
1F
100
AcDbEntity
  8
0
  6
Continuous
 62
     7
100
AcDbLine
 10
31.8630918581
 20
112.5289616566
 30
0.0
 11
31.8823248712
 21
112.5289616566
 31
0.0
  0
LINE
  5
1BC
330
1F
100
AcDbEntity
  8
0
  6
Continuous
 62
     7
100
AcDbLine
 10
31.8630918581
 20
112.5289616566
 30
0.0
 11
31.8630918581
 21
112.5674276828
 31
0.0
  0
LINE
  5
1BD
330
1F
100
AcDbEntity
  8
0
  6
Continuous
 62
     7
100
AcDbLine
 10
31.8263582589
 20
102.4807648667
 30
0.0
 11
31.8447257905
 21
102.4807648667
 31
0.0
  0
LINE
  5
1BE
330
1F
100
AcDbEntity
  8
0
  6
Continuous
 62
     7
100
AcDbLine
 10
31.8263582589
 20
102.4807648667
 30
0.0
 11
31.8263582589
 21
102.5192308929
 31
0.0
  0
LINE
  5
1BF
330
1F
100
AcDbEntity
  8
0
  6
Continuous
 62
     7
100
AcDbLine
 10
31.8630918581
 20
111.0289616566
 30
0.0
 11
31.8662044311
 21
111.0289616566
 31
0.0
  0
LINE
  5
1C0
330
1F
100
AcDbEntity
  8
0
  6
Continuous
 62
     7
100
AcDbLine
 10
31.8630918581
 20
111.0289616566
 30
0.0
 11
31.8630918581
 21
111.0674276828
 31
0.0
  0
LINE
  5
1C1
330
1F
100
AcDbEntity
  8
0
  6
Continuous
 62
     7
100
AcDbLine
 10
31.8630918581
 20
116.5289616566
 30
0.0
 11
31.8820477726
 21
116.5289616566
 31
0.0
  0
LINE
  5
1C2
330
1F
100
AcDbEntity
  8
0
  6
Continuous
 62
     7
100
AcDbLine
 10
31.8630918581
 20
116.5289616566
 30
0.0
 11
31.8630918581
 21
116.5674276828
 31
0.0
  0
LINE
  5
1C3
330
1F
100
AcDbEntity
  8
0
  6
Continuous
 62
     7
100
AcDbLine
 10
31.8630918581
 20
115.5289616566
 30
0.0
 11
31.8823248712
 21
115.5289616566
 31
0.0
  0
LINE
  5
1C4
330
1F
100
AcDbEntity
  8
0
  6
Continuous
 62
     7
100
AcDbLine
 10
31.8630918581
 20
115.5289616566
 30
0.0
 11
31.8630918581
 21
115.5674276828
 31
0.0
  0
LINE
  5
1C5
330
1F
100
AcDbEntity
  8
0
  6
Continuous
 62
     7
100
AcDbLine
 10
31.8432451376
 20
106.9588916897
 30
0.0
 11
31.8624781507
 21
106.9588916897
 31
0.0
  0
LINE
  5
1C6
330
1F
100
AcDbEntity
  8
0
  6
Continuous
 62
     7
100
AcDbLine
 10
31.8432451376
 20
106.9588916897
 30
0.0
 11
31.8432451376
 21
106.9973577159
 31
0.0
  0
LINE
  5
1C7
330
1F
100
AcDbEntity
  8
0
  6
Continuous
 62
     7
100
AcDbLine
 10
31.8630918581
 20
114.5289616566
 30
0.0
 11
31.8823248712
 21
114.5289616566
 31
0.0
  0
LINE
  5
1C8
330
1F
100
AcDbEntity
  8
0
  6
Continuous
 62
     7
100
AcDbLine
 10
31.8630918581
 20
114.5289616566
 30
0.0
 11
31.8630918581
 21
114.5674276828
 31
0.0
  0
LINE
  5
1C9
330
1F
100
AcDbEntity
  8
0
  6
Continuous
 62
     7
100
AcDbLine
 10
31.9193595648
 20
101.5951778433
 30
0.0
 11
31.9357127819
 21
101.5951778433
 31
0.0
  0
LINE
  5
1CA
330
1F
100
AcDbEntity
  8
0
  6
Continuous
 62
     7
100
AcDbLine
 10
31.9193595648
 20
101.5951778433
 30
0.0
 11
31.9193595648
 21
101.6336438695
 31
0.0
  0
LINE
  5
1CB
330
1F
100
AcDbEntity
  8
0
  6
Continuous
 62
     7
100
AcDbLine
 10
31.8521024299
 20
102.286678216
 30
0.0
 11
31.8694886128
 21
102.286678216
 31
0.0
  0
LINE
  5
1CC
330
1F
100
AcDbEntity
  8
0
  6
Continuous
 62
     7
100
AcDbLine
 10
31.8521024299
 20
102.286678216
 30
0.0
 11
31.8521024299
 21
102.3251442422
 31
0.0
  0
LINE
  5
1CD
330
1F
100
AcDbEntity
  8
0
  6
Continuous
 62
     7
100
AcDbLine
 10
31.8644697569
 20
117.7246592564
 30
0.0
 11
31.88370277
 21
117.7246592564
 31
0.0
  0
LINE
  5
1CE
330
1F
100
AcDbEntity
  8
0
  6
Continuous
 62
     7
100
AcDbLine
 10
31.8644697569
 20
117.7246592564
 30
0.0
 11
31.8644697569
 21
117.7631252826
 31
0.0
  0
LINE
  5
1CF
330
1F
100
AcDbEntity
  8
0
  6
Continuous
 62
     7
100
AcDbLine
 10
31.8630918581
 20
122.5289616566
 30
0.0
 11
31.8823248712
 21
122.5289616566
 31
0.0
  0
LINE
  5
1D0
330
1F
100
AcDbEntity
  8
0
  6
Continuous
 62
     7
100
AcDbLine
 10
31.8630918581
 20
122.5289616566
 30
0.0
 11
31.8630918581
 21
122.5674276828
 31
0.0
  0
LINE
  5
1D1
330
1F
100
AcDbEntity
  8
0
  6
Continuous
 62
     7
100
AcDbLine
 10
31.8630918581
 20
122.5289616566
 30
0.0
 11
31.8823248712
 21
122.5289616566
 31
0.0
  0
LINE
  5
1D2
330
1F
100
AcDbEntity
  8
0
  6
Continuous
 62
     7
100
AcDbLine
 10
31.8630918581
 20
122.5289616566
 30
0.0
 11
31.8630918581
 21
122.5674276828
 31
0.0
  0
LINE
  5
1D3
330
1F
100
AcDbEntity
  8
0
  6
Continuous
 62
     7
100
AcDbLine
 10
31.8630918581
 20
122.5289616566
 30
0.0
 11
31.843858845
 21
122.5289616566
 31
0.0
  0
LINE
  5
1D4
330
1F
100
AcDbEntity
  8
0
  6
Continuous
 62
     7
100
AcDbLine
 10
31.8630918581
 20
122.5289616566
 30
0.0
 11
31.8630918581
 21
122.5674276828
 31
0.0
  0
LINE
  5
1D5
330
1F
100
AcDbEntity
  8
0
  6
Continuous
 62
     7
100
AcDbLine
 10
56.6752034924
 20
124.9777939038
 30
0.0
 11
56.6936532627
 21
124.9723611543
 31
0.0
  0
LINE
  5
1D6
330
1F
100
AcDbEntity
  8
0
  6
Continuous
 62
     7
100
AcDbLine
 10
56.6752034924
 20
124.9777939038
 30
0.0
 11
56.6643379934
 21
124.9408943631
 31
0.0
  0
LINE
  5
1D7
330
1F
100
AcDbEntity
  8
0
  6
Continuous
 62
     7
100
AcDbLine
 10
41.5625481903
 20
120.8201975914
 30
0.0
 11
41.5809979606
 21
120.8147648419
 31
0.0
  0
LINE
  5
1D8
330
1F
100
AcDbEntity
  8
0
  6
Continuous
 62
     7
100
AcDbLine
 10
41.5625481903
 20
120.8201975914
 30
0.0
 11
41.5516826912
 21
120.7832980507
 31
0.0
  0
LINE
  5
1D9
330
1F
100
AcDbEntity
  8
0
  6
Continuous
 62
     7
100
AcDbLine
 10
31.8630918581
 20
122.5289616566
 30
0.0
 11
31.8439615074
 21
122.5269770972
 31
0.0
  0
LINE
  5
1DA
330
1F
100
AcDbEntity
  8
0
  6
Continuous
 62
     7
100
AcDbLine
 10
31.8630918581
 20
122.5289616566
 30
0.0
 11
31.8670609768
 21
122.4907009552
 31
0.0
  0
LINE
  5
1DB
330
1F
100
AcDbEntity
  8
0
  6
Continuous
 62
     7
100
AcDbLine
 10
31.8630918581
 20
122.5289616566
 30
0.0
 11
31.8815416285
 21
122.5235289071
 31
0.0
  0
LINE
  5
1DC
330
1F
100
AcDbEntity
  8
0
  6
Continuous
 62
     7
100
AcDbLine
 10
31.8630918581
 20
122.5289616566
 30
0.0
 11
31.8522263591
 21
122.4920621159
 31
0.0
  0
LINE
  5
1DD
330
1F
100
AcDbEntity
  8
0
  6
Continuous
 62
     7
100
AcDbLine
 10
31.8630918581
 20
122.5289616566
 30
0.0
 11
31.8815416285
 21
122.5235289071
 31
0.0
  0
LINE
  5
1DE
330
1F
100
AcDbEntity
  8
0
  6
Continuous
 62
     7
100
AcDbLine
 10
31.8630918581
 20
122.5289616566
 30
0.0
 11
31.8522263591
 21
122.4920621159
 31
0.0
  0
LINE
  5
1DF
330
1F
100
AcDbEntity
  8
0
  6
Continuous
 62
     7
100
AcDbLine
 10
22.8038312708
 20
126.392784295
 30
0.0
 11
22.7854077387
 21
126.3983053691
 31
0.0
  0
LINE
  5
1E0
330
1F
100
AcDbEntity
  8
0
  6
Continuous
 62
     7
100
AcDbLine
 10
22.8038312708
 20
126.392784295
 30
0.0
 11
22.7927891228
 21
126.3559372309
 31
0.0
  0
LINE
  5
1E1
330
1F
100
AcDbEntity
  8
0
  6
Continuous
 62
     7
100
AcDbLine
 10
31.8630918581
 20
122.5289616566
 30
0.0
 11
31.8780360856
 21
122.516854681
 31
0.0
  0
LINE
  5
1E2
330
1F
100
AcDbEntity
  8
0
  6
Continuous
 62
     7
100
AcDbLine
 10
31.8630918581
 20
122.5289616566
 30
0.0
 11
31.8388779069
 21
122.4990732017
 31
0.0
  0
LINE
  5
1E3
330
1F
100
AcDbEntity
  8
0
  6
Continuous
 62
     7
100
AcDbLine
 10
31.8630918581
 20
122.5289616566
 30
0.0
 11
31.844668326
 21
122.5344827306
 31
0.0
  0
LINE
  5
1E4
330
1F
100
AcDbEntity
  8
0
  6
Continuous
 62
     7
100
AcDbLine
 10
31.8630918581
 20
122.5289616566
 30
0.0
 11
31.8520497101
 21
122.4921145924
 31
0.0
  0
LINE
  5
1E5
330
1F
100
AcDbEntity
  8
0
  6
Continuous
 62
     7
100
AcDbLine
 10
31.8630918581
 20
122.5289616566
 30
0.0
 11
31.844668326
 21
122.5344827306
 31
0.0
  0
LINE
  5
1E6
330
1F
100
AcDbEntity
  8
0
  6
Continuous
 62
     7
100
AcDbLine
 10
31.8630918581
 20
122.5289616566
 30
0.0
 11
31.8520497101
 21
122.4921145924
 31
0.0
  0
LINE
  5
1E7
330
1F
100
AcDbEntity
  8
0
  6
Continuous
 62
     7
100
AcDbLine
 10
31.8630918581
 20
122.5289616566
 30
0.0
 11
31.8815416285
 21
122.5235289071
 31
0.0
  0
LINE
  5
1E8
330
1F
100
AcDbEntity
  8
0
  6
Continuous
 62
     7
100
AcDbLine
 10
31.8630918581
 20
122.5289616566
 30
0.0
 11
31.8522263591
 21
122.4920621159
 31
0.0
  0
LINE
  5
1E9
330
1F
100
AcDbEntity
  8
0
  6
Continuous
 62
     7
100
AcDbLine
 10
42.5825866139
 20
113.9554498946
 30
0.0
 11
42.5633536008
 21
113.9554498946
 31
0.0
  0
LINE
  5
1EA
330
1F
100
AcDbEntity
  8
0
  6
Continuous
 62
     7
100
AcDbLine
 10
42.5825866139
 20
113.9554498946
 30
0.0
 11
42.5825866139
 21
113.9939159208
 31
0.0
  0
LINE
  5
1EB
330
1F
100
AcDbEntity
  8
0
  6
Continuous
 62
     7
100
AcDbLine
 10
31.8630918581
 20
98.0289616566
 30
0.0
 11
31.843858845
 21
98.0289616566
 31
0.0
  0
LINE
  5
1EC
330
1F
100
AcDbEntity
  8
0
  6
Continuous
 62
     7
100
AcDbLine
 10
31.8630918581
 20
98.0289616566
 30
0.0
 11
31.8630918581
 21
98.0674276828
 31
0.0
  0
LINE
  5
1ED
330
1F
100
AcDbEntity
  8
0
  6
Continuous
 62
     7
100
AcDbLine
 10
31.8630918581
 20
98.0289616566
 30
0.0
 11
31.843858845
 21
98.0289616566
 31
0.0
  0
LINE
  5
1EE
330
1F
100
AcDbEntity
  8
0
  6
Continuous
 62
     7
100
AcDbLine
 10
31.8630918581
 20
98.0289616566
 30
0.0
 11
31.8630918581
 21
98.0674276828
 31
0.0
  0
LINE
  5
1EF
330
1F
100
AcDbEntity
  8
0
  6
Continuous
 62
     7
100
AcDbLine
 10
31.8630918581
 20
98.0289616566
 30
0.0
 11
31.843858845
 21
98.0289616566
 31
0.0
  0
LINE
  5
1F0
330
1F
100
AcDbEntity
  8
0
  6
Continuous
 62
     7
100
AcDbLine
 10
31.8630918581
 20
98.0289616566
 30
0.0
 11
31.8630918581
 21
98.0674276828
 31
0.0
  0
LINE
  5
1F1
330
1F
100
AcDbEntity
  8
0
  6
Continuous
 62
     7
100
AcDbLine
 10
31.8630918581
 20
113.5289616566
 30
0.0
 11
31.843858845
 21
113.5289616566
 31
0.0
  0
LINE
  5
1F2
330
1F
100
AcDbEntity
  8
0
  6
Continuous
 62
     7
100
AcDbLine
 10
31.8630918581
 20
113.5289616566
 30
0.0
 11
31.8630918581
 21
113.5674276828
 31
0.0
  0
LINE
  5
1F3
330
1F
100
AcDbEntity
  8
0
  6
Continuous
 62
     7
100
AcDbLine
 10
31.8374694645
 20
97.994640205
 30
0.0
 11
31.8182364514
 21
97.994640205
 31
0.0
  0
LINE
  5
1F4
330
1F
100
AcDbEntity
  8
0
  6
Continuous
 62
     7
100
AcDbLine
 10
31.8374694645
 20
97.994640205
 30
0.0
 11
31.8374694645
 21
98.0331062312
 31
0.0
  0
LINE
  5
1F5
330
1F
100
AcDbEntity
  8
0
  6
Continuous
 62
     7
100
AcDbLine
 10
31.8231488229
 20
110.7076898013
 30
0.0
 11
31.8200362499
 21
110.7076898013
 31
0.0
  0
LINE
  5
1F6
330
1F
100
AcDbEntity
  8
0
  6
Continuous
 62
     7
100
AcDbLine
 10
31.8231488229
 20
110.7076898013
 30
0.0
 11
31.8231488229
 21
110.7461558275
 31
0.0
  0
LINE
  5
1F7
330
1F
100
AcDbEntity
  8
0
  6
Continuous
 62
     7
100
AcDbLine
 10
31.8630918581
 20
111.0289616566
 30
0.0
 11
31.8475973748
 21
111.0289616566
 31
0.0
  0
LINE
  5
1F8
330
1F
100
AcDbEntity
  8
0
  6
Continuous
 62
     7
100
AcDbLine
 10
31.8630918581
 20
111.0289616566
 30
0.0
 11
31.8630918581
 21
111.0674276828
 31
0.0
  0
LINE
  5
1F9
330
1F
100
AcDbEntity
  8
0
  6
Continuous
 62
     7
100
AcDbLine
 10
31.8986272083
 20
102.5078270233
 30
0.0
 11
31.8812410254
 21
102.5078270233
 31
0.0
  0
LINE
  5
1FA
330
1F
100
AcDbEntity
  8
0
  6
Continuous
 62
     7
100
AcDbLine
 10
31.8986272083
 20
102.5078270233
 30
0.0
 11
31.8986272083
 21
102.5462930495
 31
0.0
  0
LINE
  5
1FB
330
1F
100
AcDbEntity
  8
0
  6
Continuous
 62
     7
100
AcDbLine
 10
31.8630918581
 20
113.5289616566
 30
0.0
 11
31.843858845
 21
113.5289616566
 31
0.0
  0
LINE
  5
1FC
330
1F
100
AcDbEntity
  8
0
  6
Continuous
 62
     7
100
AcDbLine
 10
31.8630918581
 20
113.5289616566
 30
0.0
 11
31.8630918581
 21
113.5674276828
 31
0.0
  0
LINE
  5
1FD
330
1F
100
AcDbEntity
  8
0
  6
Continuous
 62
     7
100
AcDbLine
 10
31.8630918581
 20
116.5289616566
 30
0.0
 11
31.843858845
 21
116.5289616566
 31
0.0
  0
LINE
  5
1FE
330
1F
100
AcDbEntity
  8
0
  6
Continuous
 62
     7
100
AcDbLine
 10
31.8630918581
 20
116.5289616566
 30
0.0
 11
31.8630918581
 21
116.5674276828
 31
0.0
  0
LINE
  5
1FF
330
1F
100
AcDbEntity
  8
0
  6
Continuous
 62
     7
100
AcDbLine
 10
31.8630918581
 20
119.5289616566
 30
0.0
 11
31.843858845
 21
119.5289616566
 31
0.0
  0
LINE
  5
200
330
1F
100
AcDbEntity
  8
0
  6
Continuous
 62
     7
100
AcDbLine
 10
31.8630918581
 20
119.5289616566
 30
0.0
 11
31.8630918581
 21
119.5674276828
 31
0.0
  0
LINE
  5
201
330
1F
100
AcDbEntity
  8
0
  6
Continuous
 62
     7
100
AcDbLine
 10
31.8630918581
 20
114.5289616566
 30
0.0
 11
31.8440601728
 21
114.5289616566
 31
0.0
  0
LINE
  5
202
330
1F
100
AcDbEntity
  8
0
  6
Continuous
 62
     7
100
AcDbLine
 10
31.8630918581
 20
114.5289616566
 30
0.0
 11
31.8630918581
 21
114.5674276828
 31
0.0
  0
LINE
  5
203
330
1F
100
AcDbEntity
  8
0
  6
Continuous
 62
     7
100
AcDbLine
 10
31.8630918581
 20
98.0289616566
 30
0.0
 11
31.843858845
 21
98.0289616566
 31
0.0
  0
LINE
  5
204
330
1F
100
AcDbEntity
  8
0
  6
Continuous
 62
     7
100
AcDbLine
 10
31.8630918581
 20
98.0289616566
 30
0.0
 11
31.8630918581
 21
98.0674276828
 31
0.0
  0
LINE
  5
205
330
1F
100
AcDbEntity
  8
0
  6
Continuous
 62
     7
100
AcDbLine
 10
31.8630918581
 20
118.0289616566
 30
0.0
 11
31.8816243633
 21
118.0289616566
 31
0.0
  0
LINE
  5
206
330
1F
100
AcDbEntity
  8
0
  6
Continuous
 62
     7
100
AcDbLine
 10
31.8630918581
 20
118.0289616566
 30
0.0
 11
31.8630918581
 21
118.0674276828
 31
0.0
  0
LINE
  5
207
330
1F
100
AcDbEntity
  8
0
  6
Continuous
 62
     7
100
AcDbLine
 10
31.8630918581
 20
115.5289616566
 30
0.0
 11
31.843858845
 21
115.5289616566
 31
0.0
  0
LINE
  5
208
330
1F
100
AcDbEntity
  8
0
  6
Continuous
 62
     7
100
AcDbLine
 10
31.8630918581
 20
115.5289616566
 30
0.0
 11
31.8630918581
 21
115.5674276828
 31
0.0
  0
LINE
  5
209
330
1F
100
AcDbEntity
  8
0
  6
Continuous
 62
     7
100
AcDbLine
 10
31.8630918581
 20
118.0289616566
 30
0.0
 11
31.843858845
 21
118.0289616566
 31
0.0
  0
LINE
  5
20A
330
1F
100
AcDbEntity
  8
0
  6
Continuous
 62
     7
100
AcDbLine
 10
31.8630918581
 20
118.0289616566
 30
0.0
 11
31.8630918581
 21
118.0674276828
 31
0.0
  0
LINE
  5
20B
330
1F
100
AcDbEntity
  8
0
  6
Continuous
 62
     7
100
AcDbLine
 10
31.7342573383
 20
101.6276680583
 30
0.0
 11
31.7150243252
 21
101.6276680583
 31
0.0
  0
LINE
  5
20C
330
1F
100
AcDbEntity
  8
0
  6
Continuous
 62
     7
100
AcDbLine
 10
31.7342573383
 20
101.6276680583
 30
0.0
 11
31.7342573383
 21
101.6661340845
 31
0.0
  0
LINE
  5
20D
330
1F
100
AcDbEntity
  8
0
  6
Continuous
 62
     7
100
AcDbLine
 10
31.8630918581
 20
98.0289616566
 30
0.0
 11
31.843858845
 21
98.0289616566
 31
0.0
  0
LINE
  5
20E
330
1F
100
AcDbEntity
  8
0
  6
Continuous
 62
     7
100
AcDbLine
 10
31.8630918581
 20
98.0289616566
 30
0.0
 11
31.8630918581
 21
98.0674276828
 31
0.0
  0
LINE
  5
20F
330
1F
100
AcDbEntity
  8
0
  6
Continuous
 62
     7
100
AcDbLine
 10
31.8630918581
 20
112.5289616566
 30
0.0
 11
31.843858845
 21
112.5289616566
 31
0.0
  0
LINE
  5
210
330
1F
100
AcDbEntity
  8
0
  6
Continuous
 62
     7
100
AcDbLine
 10
31.8630918581
 20
112.5289616566
 30
0.0
 11
31.8630918581
 21
112.5674276828
 31
0.0
  0
LINE
  5
211
330
1F
100
AcDbEntity
  8
0
  6
Continuous
 62
     7
100
AcDbLine
 10
31.8998254573
 20
102.4807648667
 30
0.0
 11
31.8814579257
 21
102.4807648667
 31
0.0
  0
LINE
  5
212
330
1F
100
AcDbEntity
  8
0
  6
Continuous
 62
     7
100
AcDbLine
 10
31.8998254573
 20
102.4807648667
 30
0.0
 11
31.8998254573
 21
102.5192308929
 31
0.0
  0
LINE
  5
213
330
1F
100
AcDbEntity
  8
0
  6
Continuous
 62
     7
100
AcDbLine
 10
31.8630918581
 20
111.0289616566
 30
0.0
 11
31.8599792852
 21
111.0289616566
 31
0.0
  0
LINE
  5
214
330
1F
100
AcDbEntity
  8
0
  6
Continuous
 62
     7
100
AcDbLine
 10
31.8630918581
 20
111.0289616566
 30
0.0
 11
31.8630918581
 21
111.0674276828
 31
0.0
  0
LINE
  5
215
330
1F
100
AcDbEntity
  8
0
  6
Continuous
 62
     7
100
AcDbLine
 10
31.8630918581
 20
116.5289616566
 30
0.0
 11
31.8441359437
 21
116.5289616566
 31
0.0
  0
LINE
  5
216
330
1F
100
AcDbEntity
  8
0
  6
Continuous
 62
     7
100
AcDbLine
 10
31.8630918581
 20
116.5289616566
 30
0.0
 11
31.8630918581
 21
116.5674276828
 31
0.0
  0
LINE
  5
217
330
1F
100
AcDbEntity
  8
0
  6
Continuous
 62
     7
100
AcDbLine
 10
31.8630918581
 20
115.5289616566
 30
0.0
 11
31.843858845
 21
115.5289616566
 31
0.0
  0
LINE
  5
218
330
1F
100
AcDbEntity
  8
0
  6
Continuous
 62
     7
100
AcDbLine
 10
31.8630918581
 20
115.5289616566
 30
0.0
 11
31.8630918581
 21
115.5674276828
 31
0.0
  0
LINE
  5
219
330
1F
100
AcDbEntity
  8
0
  6
Continuous
 62
     7
100
AcDbLine
 10
31.8829385786
 20
106.9588916897
 30
0.0
 11
31.8637055655
 21
106.9588916897
 31
0.0
  0
LINE
  5
21A
330
1F
100
AcDbEntity
  8
0
  6
Continuous
 62
     7
100
AcDbLine
 10
31.8829385786
 20
106.9588916897
 30
0.0
 11
31.8829385786
 21
106.9973577159
 31
0.0
  0
LINE
  5
21B
330
1F
100
AcDbEntity
  8
0
  6
Continuous
 62
     7
100
AcDbLine
 10
31.8630918581
 20
114.5289616566
 30
0.0
 11
31.843858845
 21
114.5289616566
 31
0.0
  0
LINE
  5
21C
330
1F
100
AcDbEntity
  8
0
  6
Continuous
 62
     7
100
AcDbLine
 10
31.8630918581
 20
114.5289616566
 30
0.0
 11
31.8630918581
 21
114.5674276828
 31
0.0
  0
LINE
  5
21D
330
1F
100
AcDbEntity
  8
0
  6
Continuous
 62
     7
100
AcDbLine
 10
31.8068241515
 20
101.5951778433
 30
0.0
 11
31.7904709344
 21
101.5951778433
 31
0.0
  0
LINE
  5
21E
330
1F
100
AcDbEntity
  8
0
  6
Continuous
 62
     7
100
AcDbLine
 10
31.8068241515
 20
101.5951778433
 30
0.0
 11
31.8068241515
 21
101.6336438695
 31
0.0
  0
LINE
  5
21F
330
1F
100
AcDbEntity
  8
0
  6
Continuous
 62
     7
100
AcDbLine
 10
31.8740812864
 20
102.286678216
 30
0.0
 11
31.8566951035
 21
102.286678216
 31
0.0
  0
LINE
  5
220
330
1F
100
AcDbEntity
  8
0
  6
Continuous
 62
     7
100
AcDbLine
 10
31.8740812864
 20
102.286678216
 30
0.0
 11
31.8740812864
 21
102.3251442422
 31
0.0
  0
LINE
  5
221
330
1F
100
AcDbEntity
  8
0
  6
Continuous
 62
     7
100
AcDbLine
 10
31.8617139594
 20
117.7246592564
 30
0.0
 11
31.8424809463
 21
117.7246592564
 31
0.0
  0
LINE
  5
222
330
1F
100
AcDbEntity
  8
0
  6
Continuous
 62
     7
100
AcDbLine
 10
31.8617139594
 20
117.7246592564
 30
0.0
 11
31.8617139594
 21
117.7631252826
 31
0.0
  0
LINE
  5
223
330
1F
100
AcDbEntity
  8
0
  6
Continuous
 62
     7
100
AcDbLine
 10
31.8630918581
 20
122.5289616566
 30
0.0
 11
31.843858845
 21
122.5289616566
 31
0.0
  0
LINE
  5
224
330
1F
100
AcDbEntity
  8
0
  6
Continuous
 62
     7
100
AcDbLine
 10
31.8630918581
 20
122.5289616566
 30
0.0
 11
31.8630918581
 21
122.5674276828
 31
0.0
  0
LINE
  5
225
330
1F
100
AcDbEntity
  8
0
  6
Continuous
 62
     7
100
AcDbLine
 10
31.8630918581
 20
122.5289616566
 30
0.0
 11
31.8823248712
 21
122.5289616566
 31
0.0
  0
LINE
  5
226
330
1F
100
AcDbEntity
  8
0
  6
Continuous
 62
     7
100
AcDbLine
 10
31.8630918581
 20
122.5289616566
 30
0.0
 11
31.8630918581
 21
122.5674276828
 31
0.0
  0
POINT
  5
227
330
1F
100
AcDbEntity
  8
0
  6
Continuous
 62
     7
100
AcDbPoint
 10
56.9664559967
 20
123.2070299496
 30
0.0
  0
POINT
  5
228
330
1F
100
AcDbEntity
  8
0
  6
Continuous
 62
     7
100
AcDbPoint
 10
31.8630918581
 20
122.5289616566
 30
0.0
  0
POINT
  5
229
330
1F
100
AcDbEntity
  8
0
  6
Continuous
 62
     7
100
AcDbPoint
 10
21.1435971023
 20
113.9554498946
 30
0.0
  0
POINT
  5
22A
330
1F
100
AcDbEntity
  8
0
  6
Continuous
 62
     7
100
AcDbPoint
 10
31.8630918581
 20
98.0289616566
 30
0.0
  0
POINT
  5
22B
330
1F
100
AcDbEntity
  8
0
  6
Continuous
 62
     7
100
AcDbPoint
 10
31.8630918581
 20
98.0289616566
 30
0.0
  0
POINT
  5
22C
330
1F
100
AcDbEntity
  8
0
  6
Continuous
 62
     7
100
AcDbPoint
 10
31.8630918581
 20
98.0289616566
 30
0.0
  0
POINT
  5
22D
330
1F
100
AcDbEntity
  8
0
  6
Continuous
 62
     7
100
AcDbPoint
 10
31.8630918581
 20
113.5289616566
 30
0.0
  0
POINT
  5
22E
330
1F
100
AcDbEntity
  8
0
  6
Continuous
 62
     7
100
AcDbPoint
 10
31.8887142517
 20
97.994640205
 30
0.0
  0
POINT
  5
22F
330
1F
100
AcDbEntity
  8
0
  6
Continuous
 62
     7
100
AcDbPoint
 10
31.9030348934
 20
110.7076898013
 30
0.0
  0
POINT
  5
230
330
1F
100
AcDbEntity
  8
0
  6
Continuous
 62
     7
100
AcDbPoint
 10
31.8630918581
 20
111.0289616566
 30
0.0
  0
POINT
  5
231
330
1F
100
AcDbEntity
  8
0
  6
Continuous
 62
     7
100
AcDbPoint
 10
31.8275565079
 20
102.5078270233
 30
0.0
  0
POINT
  5
232
330
1F
100
AcDbEntity
  8
0
  6
Continuous
 62
     7
100
AcDbPoint
 10
31.8630918581
 20
113.5289616566
 30
0.0
  0
POINT
  5
233
330
1F
100
AcDbEntity
  8
0
  6
Continuous
 62
     7
100
AcDbPoint
 10
31.8630918581
 20
116.5289616566
 30
0.0
  0
POINT
  5
234
330
1F
100
AcDbEntity
  8
0
  6
Continuous
 62
     7
100
AcDbPoint
 10
31.8630918581
 20
119.5289616566
 30
0.0
  0
POINT
  5
235
330
1F
100
AcDbEntity
  8
0
  6
Continuous
 62
     7
100
AcDbPoint
 10
31.8630918581
 20
114.5289616566
 30
0.0
  0
POINT
  5
236
330
1F
100
AcDbEntity
  8
0
  6
Continuous
 62
     7
100
AcDbPoint
 10
31.8630918581
 20
98.0289616566
 30
0.0
  0
POINT
  5
237
330
1F
100
AcDbEntity
  8
0
  6
Continuous
 62
     7
100
AcDbPoint
 10
31.8630918581
 20
118.0289616566
 30
0.0
  0
POINT
  5
238
330
1F
100
AcDbEntity
  8
0
  6
Continuous
 62
     7
100
AcDbPoint
 10
31.8630918581
 20
115.5289616566
 30
0.0
  0
POINT
  5
239
330
1F
100
AcDbEntity
  8
0
  6
Continuous
 62
     7
100
AcDbPoint
 10
31.8630918581
 20
118.0289616566
 30
0.0
  0
POINT
  5
23A
330
1F
100
AcDbEntity
  8
0
  6
Continuous
 62
     7
100
AcDbPoint
 10
31.9919263779
 20
101.6276680583
 30
0.0
  0
POINT
  5
23B
330
1F
100
AcDbEntity
  8
0
  6
Continuous
 62
     7
100
AcDbPoint
 10
31.8630918581
 20
98.0289616566
 30
0.0
  0
POINT
  5
23C
330
1F
100
AcDbEntity
  8
0
  6
Continuous
 62
     7
100
AcDbPoint
 10
31.8630918581
 20
112.5289616566
 30
0.0
  0
POINT
  5
23D
330
1F
100
AcDbEntity
  8
0
  6
Continuous
 62
     7
100
AcDbPoint
 10
31.8263582589
 20
102.4807648667
 30
0.0
  0
POINT
  5
23E
330
1F
100
AcDbEntity
  8
0
  6
Continuous
 62
     7
100
AcDbPoint
 10
31.8630918581
 20
111.0289616566
 30
0.0
  0
POINT
  5
23F
330
1F
100
AcDbEntity
  8
0
  6
Continuous
 62
     7
100
AcDbPoint
 10
31.8630918581
 20
116.5289616566
 30
0.0
  0
POINT
  5
240
330
1F
100
AcDbEntity
  8
0
  6
Continuous
 62
     7
100
AcDbPoint
 10
31.8630918581
 20
115.5289616566
 30
0.0
  0
POINT
  5
241
330
1F
100
AcDbEntity
  8
0
  6
Continuous
 62
     7
100
AcDbPoint
 10
31.8432451376
 20
106.9588916897
 30
0.0
  0
POINT
  5
242
330
1F
100
AcDbEntity
  8
0
  6
Continuous
 62
     7
100
AcDbPoint
 10
31.8630918581
 20
114.5289616566
 30
0.0
  0
POINT
  5
243
330
1F
100
AcDbEntity
  8
0
  6
Continuous
 62
     7
100
AcDbPoint
 10
31.9193595648
 20
101.5951778433
 30
0.0
  0
POINT
  5
244
330
1F
100
AcDbEntity
  8
0
  6
Continuous
 62
     7
100
AcDbPoint
 10
31.8521024299
 20
102.286678216
 30
0.0
  0
POINT
  5
245
330
1F
100
AcDbEntity
  8
0
  6
Continuous
 62
     7
100
AcDbPoint
 10
31.8644697569
 20
117.7246592564
 30
0.0
  0
POINT
  5
246
330
1F
100
AcDbEntity
  8
0
  6
Continuous
 62
     7
100
AcDbPoint
 10
31.8630918581
 20
122.5289616566
 30
0.0
  0
POINT
  5
247
330
1F
100
AcDbEntity
  8
0
  6
Continuous
 62
     7
100
AcDbPoint
 10
31.8630918581
 20
122.5289616566
 30
0.0
  0
POINT
  5
248
330
1F
100
AcDbEntity
  8
0
  6
Continuous
 62
     7
100
AcDbPoint
 10
31.8630918581
 20
122.5289616566
 30
0.0
  0
POINT
  5
249
330
1F
100
AcDbEntity
  8
0
  6
Continuous
 62
     7
100
AcDbPoint
 10
56.6752034924
 20
124.9777939038
 30
0.0
  0
POINT
  5
24A
330
1F
100
AcDbEntity
  8
0
  6
Continuous
 62
     7
100
AcDbPoint
 10
41.5625481903
 20
120.8201975914
 30
0.0
  0
POINT
  5
24B
330
1F
100
AcDbEntity
  8
0
  6
Continuous
 62
     7
100
AcDbPoint
 10
31.8630918581
 20
122.5289616566
 30
0.0
  0
POINT
  5
24C
330
1F
100
AcDbEntity
  8
0
  6
Continuous
 62
     7
100
AcDbPoint
 10
31.8630918581
 20
122.5289616566
 30
0.0
  0
POINT
  5
24D
330
1F
100
AcDbEntity
  8
0
  6
Continuous
 62
     7
100
AcDbPoint
 10
31.8630918581
 20
122.5289616566
 30
0.0
  0
POINT
  5
24E
330
1F
100
AcDbEntity
  8
0
  6
Continuous
 62
     7
100
AcDbPoint
 10
22.8038312708
 20
126.392784295
 30
0.0
  0
POINT
  5
24F
330
1F
100
AcDbEntity
  8
0
  6
Continuous
 62
     7
100
AcDbPoint
 10
31.8630918581
 20
122.5289616566
 30
0.0
  0
POINT
  5
250
330
1F
100
AcDbEntity
  8
0
  6
Continuous
 62
     7
100
AcDbPoint
 10
31.8630918581
 20
122.5289616566
 30
0.0
  0
POINT
  5
251
330
1F
100
AcDbEntity
  8
0
  6
Continuous
 62
     7
100
AcDbPoint
 10
31.8630918581
 20
122.5289616566
 30
0.0
  0
POINT
  5
252
330
1F
100
AcDbEntity
  8
0
  6
Continuous
 62
     7
100
AcDbPoint
 10
31.8630918581
 20
122.5289616566
 30
0.0
  0
POINT
  5
253
330
1F
100
AcDbEntity
  8
0
  6
Continuous
 62
     7
100
AcDbPoint
 10
42.5825866139
 20
113.9554498946
 30
0.0
  0
POINT
  5
254
330
1F
100
AcDbEntity
  8
0
  6
Continuous
 62
     7
100
AcDbPoint
 10
31.8630918581
 20
98.0289616566
 30
0.0
  0
POINT
  5
255
330
1F
100
AcDbEntity
  8
0
  6
Continuous
 62
     7
100
AcDbPoint
 10
31.8630918581
 20
98.0289616566
 30
0.0
  0
POINT
  5
256
330
1F
100
AcDbEntity
  8
0
  6
Continuous
 62
     7
100
AcDbPoint
 10
31.8630918581
 20
98.0289616566
 30
0.0
  0
POINT
  5
257
330
1F
100
AcDbEntity
  8
0
  6
Continuous
 62
     7
100
AcDbPoint
 10
31.8630918581
 20
113.5289616566
 30
0.0
  0
POINT
  5
258
330
1F
100
AcDbEntity
  8
0
  6
Continuous
 62
     7
100
AcDbPoint
 10
31.8374694645
 20
97.994640205
 30
0.0
  0
POINT
  5
259
330
1F
100
AcDbEntity
  8
0
  6
Continuous
 62
     7
100
AcDbPoint
 10
31.8231488229
 20
110.7076898013
 30
0.0
  0
POINT
  5
25A
330
1F
100
AcDbEntity
  8
0
  6
Continuous
 62
     7
100
AcDbPoint
 10
31.8630918581
 20
111.0289616566
 30
0.0
  0
POINT
  5
25B
330
1F
100
AcDbEntity
  8
0
  6
Continuous
 62
     7
100
AcDbPoint
 10
31.8986272083
 20
102.5078270233
 30
0.0
  0
POINT
  5
25C
330
1F
100
AcDbEntity
  8
0
  6
Continuous
 62
     7
100
AcDbPoint
 10
31.8630918581
 20
113.5289616566
 30
0.0
  0
POINT
  5
25D
330
1F
100
AcDbEntity
  8
0
  6
Continuous
 62
     7
100
AcDbPoint
 10
31.8630918581
 20
116.5289616566
 30
0.0
  0
POINT
  5
25E
330
1F
100
AcDbEntity
  8
0
  6
Continuous
 62
     7
100
AcDbPoint
 10
31.8630918581
 20
119.5289616566
 30
0.0
  0
POINT
  5
25F
330
1F
100
AcDbEntity
  8
0
  6
Continuous
 62
     7
100
AcDbPoint
 10
31.8630918581
 20
114.5289616566
 30
0.0
  0
POINT
  5
260
330
1F
100
AcDbEntity
  8
0
  6
Continuous
 62
     7
100
AcDbPoint
 10
31.8630918581
 20
98.0289616566
 30
0.0
  0
POINT
  5
261
330
1F
100
AcDbEntity
  8
0
  6
Continuous
 62
     7
100
AcDbPoint
 10
31.8630918581
 20
118.0289616566
 30
0.0
  0
POINT
  5
262
330
1F
100
AcDbEntity
  8
0
  6
Continuous
 62
     7
100
AcDbPoint
 10
31.8630918581
 20
115.5289616566
 30
0.0
  0
POINT
  5
263
330
1F
100
AcDbEntity
  8
0
  6
Continuous
 62
     7
100
AcDbPoint
 10
31.8630918581
 20
118.0289616566
 30
0.0
  0
POINT
  5
264
330
1F
100
AcDbEntity
  8
0
  6
Continuous
 62
     7
100
AcDbPoint
 10
31.7342573383
 20
101.6276680583
 30
0.0
  0
POINT
  5
265
330
1F
100
AcDbEntity
  8
0
  6
Continuous
 62
     7
100
AcDbPoint
 10
31.8630918581
 20
98.0289616566
 30
0.0
  0
POINT
  5
266
330
1F
100
AcDbEntity
  8
0
  6
Continuous
 62
     7
100
AcDbPoint
 10
31.8630918581
 20
112.5289616566
 30
0.0
  0
POINT
  5
267
330
1F
100
AcDbEntity
  8
0
  6
Continuous
 62
     7
100
AcDbPoint
 10
31.8998254573
 20
102.4807648667
 30
0.0
  0
POINT
  5
268
330
1F
100
AcDbEntity
  8
0
  6
Continuous
 62
     7
100
AcDbPoint
 10
31.8630918581
 20
111.0289616566
 30
0.0
  0
POINT
  5
269
330
1F
100
AcDbEntity
  8
0
  6
Continuous
 62
     7
100
AcDbPoint
 10
31.8630918581
 20
116.5289616566
 30
0.0
  0
POINT
  5
26A
330
1F
100
AcDbEntity
  8
0
  6
Continuous
 62
     7
100
AcDbPoint
 10
31.8630918581
 20
115.5289616566
 30
0.0
  0
POINT
  5
26B
330
1F
100
AcDbEntity
  8
0
  6
Continuous
 62
     7
100
AcDbPoint
 10
31.8829385786
 20
106.9588916897
 30
0.0
  0
POINT
  5
26C
330
1F
100
AcDbEntity
  8
0
  6
Continuous
 62
     7
100
AcDbPoint
 10
31.8630918581
 20
114.5289616566
 30
0.0
  0
POINT
  5
26D
330
1F
100
AcDbEntity
  8
0
  6
Continuous
 62
     7
100
AcDbPoint
 10
31.8068241515
 20
101.5951778433
 30
0.0
  0
POINT
  5
26E
330
1F
100
AcDbEntity
  8
0
  6
Continuous
 62
     7
100
AcDbPoint
 10
31.8740812864
 20
102.286678216
 30
0.0
  0
POINT
  5
26F
330
1F
100
AcDbEntity
  8
0
  6
Continuous
 62
     7
100
AcDbPoint
 10
31.8617139594
 20
117.7246592564
 30
0.0
  0
POINT
  5
270
330
1F
100
AcDbEntity
  8
0
  6
Continuous
 62
     7
100
AcDbPoint
 10
31.8630918581
 20
122.5289616566
 30
0.0
  0
POINT
  5
271
330
1F
100
AcDbEntity
  8
0
  6
Continuous
 62
     7
100
AcDbPoint
 10
31.8630918581
 20
122.5289616566
 30
0.0
  0
LINE
  5
272
330
1F
100
AcDbEntity
  8
0
  6
Continuous
 62
     7
370
    25
100
AcDbLine
 10
36.7913990107
 20
102.1852860024
 30
0.0
 11
36.8630918581
 21
102.3094616566
 31
0.0
  0
LINE
  5
273
330
1F
100
AcDbEntity
  8
0
  6
Continuous
 62
     7
370
    25
100
AcDbLine
 10
26.8630918581
 20
102.3094616566
 30
0.0
 11
26.9347847055
 21
102.1852860024
 31
0.0
  0
LINE
  5
274
330
1F
100
AcDbEntity
  8
0
  6
Continuous
 62
     7
370
    25
100
AcDbLine
 10
31.4338025362
 20
122.9996723347
 30
0.0
 11
30.9419413084
 21
122.5078111069
 31
0.0
  0
ARC
  5
275
330
1F
100
AcDbEntity
  8
0
  6
Continuous
 62
     7
370
    25
100
AcDbCircle
 10
31.5045132144
 20
122.9289616566
 30
0.0
 40
0.1000000000000085
100
AcDbArc
 50
90.0
 51
135.0
  0
SPLINE
  5
276
330
1F
100
AcDbEntity
  8
0
  6
Continuous
 62
     7
370
    25
100
AcDbSpline
210
0.0
220
0.0
230
1.0
 70
     8
 71
     3
 72
    11
 73
     7
 74
     0
 42
0.00000001
 43
0.00000001
 40
0.0
 40
0.0
 40
0.0
 40
0.0
 40
0.2109256821418481
 40
0.620660091335305
 40
0.940522137594764
 40
1.0
 40
1.0
 40
1.0
 40
1.0
 10
33.14317013378845
 20
108.8348849159462
 30
0.0
 10
33.15142079071953
 20
108.8448087424436
 30
0.0
 10
33.1756987896451
 20
108.8740101322305
 30
0.0
 10
33.18899598169094
 20
108.9380828891725
 30
0.0
 10
33.18825827682703
 20
108.9864315606539
 30
0.0
 10
33.17975289342743
 20
109.008520228506
 30
0.0
 10
33.17841930839725
 20
109.0119835781753
 30
0.0
  0
SPLINE
  5
277
330
1F
100
AcDbEntity
  8
0
  6
Continuous
 62
     7
370
    25
100
AcDbSpline
210
0.0
220
0.0
230
1.0
 70
     8
 71
     3
 72
    14
 73
    10
 74
     0
 42
0.00000001
 43
0.00000001
 40
0.0
 40
0.0
 40
0.0
 40
0.0
 40
0.2044916073579369
 40
0.5827532110656176
 40
0.6947129816487602
 40
0.739289844702824
 40
0.7894725969390491
 40
0.9072430714225583
 40
1.0
 40
1.0
 40
1.0
 40
1.0
 10
32.85257270335428
 20
106.373992555449
 30
0.0
 10
32.88508339612159
 20
106.3778408831346
 30
0.0
 10
32.97773126000661
 20
106.3888077161745
 30
0.0
 10
33.03725902961771
 20
106.4060375698263
 30
0.0
 10
33.07987976828712
 20
106.4251156292917
 30
0.0
 10
33.10306131568211
 20
106.4402005267042
 30
0.0
 10
33.1328588167767
 20
106.4650139889902
 30
0.0
 10
33.16904733955146
 20
106.508938440439
 30
0.0
 10
33.17785771307815
 20
106.5540407602352
 30
0.0
 10
33.1817395031733
 20
106.5739125327227
 30
0.0
  0
SPLINE
  5
278
330
1F
100
AcDbEntity
  8
0
  6
Continuous
 62
     7
370
    25
100
AcDbSpline
210
0.0
220
0.0
230
1.0
 70
     8
 71
     3
 72
    13
 73
     9
 74
     0
 42
0.00000001
 43
0.00000001
 40
0.0
 40
0.0
 40
0.0
 40
0.0
 40
0.4652057508798641
 40
0.6668212070431154
 40
0.7504158856294472
 40
0.8450187398749159
 40
0.9551321504361785
 40
1.0
 40
1.0
 40
1.0
 40
1.0
 10
30.79644224311746
 20
108.0179487981901
 30
0.0
 10
30.74239653083692
 20
108.0107928094037
 30
0.0
 10
30.66492795477086
 20
108.0005354876249
 30
0.0
 10
30.59772072240491
 20
107.9758800037498
 30
0.0
 10
30.56075607513456
 20
107.9563678924824
 30
0.0
 10
30.52187449823153
 20
107.924978425757
 30
0.0
 10
30.49090529128519
 20
107.887777008711
 30
0.0
 10
30.48272741143795
 20
107.8586191214577
 30
0.0
 10
30.48035987434062
 20
107.8501777673364
 30
0.0
  0
LINE
  5
279
330
1F
100
AcDbEntity
  8
0
  6
Continuous
 62
     7
370
    25
100
AcDbLine
 10
33.2630918581
 20
98.1289616566
 30
0.0
 11
33.2630918581
 21
98.2289616566
 31
0.0
  0
LINE
  5
27A
330
1F
100
AcDbEntity
  8
0
  6
Continuous
 62
     7
370
    25
100
AcDbLine
 10
30.4630918581
 20
98.2289616566
 30
0.0
 11
30.4630918581
 21
98.1289616566
 31
0.0
  0
ARC
  5
27B
330
1F
100
AcDbEntity
  8
0
  6
Continuous
 62
     7
370
    25
100
AcDbCircle
 10
30.5630918581
 20
98.1289616566
 30
0.0
 40
0.1000000000000085
100
AcDbArc
 50
180.0
 51
270.0
  0
ARC
  5
27C
330
1F
100
AcDbEntity
  8
0
  6
Continuous
 62
     7
370
    25
100
AcDbCircle
 10
33.1630918581
 20
98.1289616566
 30
0.0
 40
0.1000000000000085
100
AcDbArc
 50
270.0
 51
0.0
  0
ARC
  5
27D
330
1F
100
AcDbEntity
  8
0
  6
Continuous
 62
     7
370
    25
100
AcDbCircle
 10
30.5374694645
 20
98.094640205
 30
0.0
 40
0.0999999999999979
100
AcDbArc
 50
180.0
 51
270.0
  0
LINE
  5
27E
330
1F
100
AcDbEntity
  8
0
  6
Continuous
 62
     7
370
    25
100
AcDbLine
 10
30.4374694645
 20
98.2365091747
 30
0.0
 11
30.4374694645
 21
98.094640205
 31
0.0
  0
ARC
  5
27F
330
1F
100
AcDbEntity
  8
0
  6
Continuous
 62
     7
370
    25
100
AcDbCircle
 10
30.5887142517
 20
98.094640205
 30
0.0
 40
0.0999999999999987
100
AcDbArc
 50
204.3770017283
 51
270.0
  0
ARC
  5
280
330
1F
100
AcDbEntity
  8
0
  6
Continuous
 62
     7
370
    25
100
AcDbCircle
 10
33.1887142517
 20
98.094640205
 30
0.0
 40
0.0999999999999943
100
AcDbArc
 50
270.0
 51
0.0
  0
LINE
  5
281
330
1F
100
AcDbEntity
  8
0
  6
Continuous
 62
     7
370
    25
100
AcDbLine
 10
33.2887142517
 20
98.094640205
 30
0.0
 11
33.2887142517
 21
98.2365091747
 31
0.0
  0
LINE
  5
282
330
1F
100
AcDbEntity
  8
0
  6
Continuous
 62
     7
370
    25
100
AcDbLine
 10
36.8630918581
 20
103.0289616566
 30
0.0
 11
36.8630918581
 21
102.3094616566
 31
0.0
  0
LINE
  5
283
330
1F
100
AcDbEntity
  8
0
  6
Continuous
 62
     7
370
    25
100
AcDbLine
 10
26.8630918581
 20
102.4018697658
 30
0.0
 11
26.8630918581
 21
103.0289616566
 31
0.0
  0
LINE
  5
284
330
1F
100
AcDbEntity
  8
0
  6
Continuous
 62
     7
370
    25
100
AcDbLine
 10
26.8630918581
 20
102.3094616566
 30
0.0
 11
26.8630918581
 21
102.4018697658
 31
0.0
  0
ARC
  5
285
330
1F
100
AcDbEntity
  8
0
  6
Continuous
 62
     7
370
    25
100
AcDbCircle
 10
31.8630918581
 20
122.5289616566
 30
0.0
 40
2.100000000000001
100
AcDbArc
 50
64.8288730819
 51
126.5296072297
  0
ARC
  5
286
330
1F
100
AcDbEntity
  8
0
  6
Continuous
 62
     7
370
    25
100
AcDbCircle
 10
31.8630918581
 20
122.5289616566
 30
0.0
 40
2.500000000000003
100
AcDbArc
 50
62.0404090547
 51
120.0
  0
ARC
  5
287
330
1F
100
AcDbEntity
  8
0
  6
Continuous
 62
     7
370
    25
100
AcDbCircle
 10
31.8630918581
 20
122.5289616566
 30
0.0
 40
5.793548494068268
100
AcDbArc
 50
77.5163891506
 51
102.4866785665
  0
SPLINE
  5
288
330
1F
100
AcDbEntity
  8
0
  6
Continuous
 62
     7
370
    25
100
AcDbSpline
210
0.0
220
0.0
230
1.0
 70
     8
 71
     3
 72
    13
 73
     9
 74
     0
 42
0.00000001
 43
0.00000001
 40
0.0
 40
0.0
 40
0.0
 40
0.0
 40
0.0642399604631253
 40
0.2406540720526892
 40
0.417172880273245
 40
0.6186372528560651
 40
0.8204315101706672
 40
1.0
 40
1.0
 40
1.0
 40
1.0
 10
30.6130918581217
 20
128.4155309369457
 30
0.0
 10
30.6506910410503
 20
128.4177261883376
 30
0.0
 10
30.79154412396617
 20
128.4259499821075
 30
0.0
 10
31.03677931650018
 20
128.4782132006536
 30
0.0
 10
31.34902337268304
 20
128.5686371759806
 30
0.0
 10
31.65059994972518
 20
128.6974846775637
 30
0.0
 10
31.92521395247494
 20
128.8492530508023
 30
0.0
 10
32.08123569513457
 20
128.9625922580722
 30
0.0
 10
32.15470010381044
 20
129.0159591651452
 30
0.0
  0
ARC
  5
289
330
1F
100
AcDbEntity
  8
0
  6
Continuous
 62
     7
370
    25
100
AcDbCircle
 10
31.8630918581
 20
122.5289616566
 30
0.0
 40
6.493548494068263
100
AcDbArc
 50
79.8057210762
 51
87.4261310897
  0
LINE
  5
28A
330
1F
100
AcDbEntity
  8
0
  6
Continuous
 62
     7
370
    25
100
AcDbLine
 10
32.9250106536
 20
128.4342413682
 30
0.0
 11
33.0123620573
 21
128.9199983529
 31
0.0
  0
LINE
  5
28B
330
1F
100
AcDbEntity
  8
0
  6
Continuous
 62
     7
370
    25
100
AcDbLine
 10
32.9250106536
 20
128.4342413682
 30
0.0
 11
33.1130918581
 21
128.3973089538
 31
0.0
  0
ARC
  5
28C
330
1F
100
AcDbEntity
  8
0
  6
Continuous
 62
     7
370
    25
100
AcDbCircle
 10
31.8630918581
 20
122.5289616566
 30
0.0
 40
5.350000000000024
100
AcDbArc
 50
76.4882446405
 51
103.5117553595
  0
ARC
  5
28D
330
1F
100
AcDbEntity
  8
0
  6
Continuous
 62
     7
370
    25
100
AcDbCircle
 10
31.8630918581
 20
122.5289616566
 30
0.0
 40
4.85
100
AcDbArc
 50
75.0644729462
 51
104.9355270538
  0
LINE
  5
28E
330
1F
100
AcDbEntity
  8
0
  6
Continuous
 62
     7
370
    25
100
AcDbLine
 10
33.0123620573
 20
128.9199983529
 30
0.0
 11
33.0135038866
 21
128.9263480108
 31
0.0
  0
ARC
  5
28F
330
1F
100
AcDbEntity
  8
0
  6
Continuous
 62
     7
370
    25
100
AcDbCircle
 10
30.3303208221
 20
131.3974797375
 30
0.0
 40
3.000000000000009
100
AcDbArc
 50
307.4541543999
 51
307.6452181884
  0
ARC
  5
290
330
1F
100
AcDbEntity
  8
0
  6
Continuous
 62
     7
370
    25
100
AcDbCircle
 10
31.8630918581
 20
122.5289616566
 30
0.0
 40
4.30000000000001
100
AcDbArc
 50
87.8380055391
 51
104.6829748089
  0
LWPOLYLINE
  5
291
330
1F
100
AcDbEntity
  8
0
  6
Continuous
 62
     7
370
    25
100
AcDbPolyline
 90
        3
 70
   128
 43
0.0
 10
32.6221305238
 20
125.5345997426
 10
33.0359708758
 20
125.3985182094
 10
33.1130918581
 20
125.3657732471
  0
LINE
  5
292
330
1F
100
AcDbEntity
  8
0
  6
Continuous
 62
     7
370
    25
100
AcDbLine
 10
32.6221305238
 20
125.5345997426
 30
0.0
 11
32.0253092198
 21
126.8259007448
 31
0.0
  0
LINE
  5
293
330
1F
100
AcDbEntity
  8
0
  6
Continuous
 62
     7
370
    25
100
AcDbLine
 10
33.0783374515
 20
124.8274781668
 30
0.0
 11
32.9116725488
 21
124.9081376768
 31
0.0
  0
LINE
  5
294
330
1F
100
AcDbEntity
  8
0
  6
Continuous
 62
     7
370
    25
100
AcDbLine
 10
32.9116725488
 20
124.9081376768
 30
0.0
 11
32.6221305238
 21
125.5345997426
 31
0.0
  0
LINE
  5
295
330
1F
100
AcDbEntity
  8
0
  6
Continuous
 62
     7
370
    25
100
AcDbLine
 10
30.9264484373
 20
128.8600515392
 30
0.0
 11
30.9156806525
 21
128.9595457675
 31
0.0
  0
LWPOLYLINE
  5
296
330
1F
100
AcDbEntity
  8
0
  6
Continuous
 62
     7
370
    25
100
AcDbPolyline
 90
        3
 70
   128
 43
0.0
 10
30.6124037535
 20
128.8055673687
 10
30.7401045727
 20
128.829667931
 10
30.9264484373
 20
128.8600515392
  0
LINE
  5
297
330
1F
100
AcDbEntity
  8
0
  6
Continuous
 62
     7
370
    25
100
AcDbLine
 10
31.1637118179
 20
128.9912265505
 30
0.0
 11
31.2013707431
 21
128.6432584409
 31
0.0
  0
LINE
  5
298
330
1F
100
AcDbEntity
  8
0
  6
Continuous
 62
     7
370
    25
100
AcDbLine
 10
31.2013707431
 20
128.6432584409
 30
0.0
 11
30.9264484373
 21
128.8600515392
 31
0.0
  0
ARC
  5
299
330
1F
100
AcDbEntity
  8
0
  6
Continuous
 62
     7
370
    25
100
AcDbCircle
 10
31.8630918581
 20
122.5289616566
 30
0.0
 40
6.150000000000003
100
AcDbArc
 50
96.176807516
 51
101.7271937984
  0
ARC
  5
29A
330
1F
100
AcDbEntity
  8
0
  6
Continuous
 62
     7
370
    25
100
AcDbCircle
 10
39.1055831962
 20
116.5367734738
 30
0.0
 40
1.000000000000006
100
AcDbArc
 50
164.8767574464
 51
221.176807516
  0
LINE
  5
29B
330
1F
100
AcDbEntity
  8
0
  6
Continuous
 62
     7
370
    25
100
AcDbLine
 10
41.8846780676
 20
111.8407764818
 30
0.0
 11
38.3529017212
 21
115.878388634
 31
0.0
  0
ARC
  5
29C
330
1F
100
AcDbEntity
  8
0
  6
Continuous
 62
     7
370
    25
100
AcDbCircle
 10
41.5083373301
 20
111.5115840619
 30
0.0
 40
0.5000000000000111
100
AcDbArc
 50
311.2007668987
 51
41.176807516
  0
ARC
  5
29D
330
1F
100
AcDbEntity
  8
0
  6
Continuous
 62
     7
370
    25
100
AcDbCircle
 10
31.8630918581
 20
122.5289616566
 30
0.0
 40
15.14286069316092
100
AcDbArc
 50
289.2802232507
 51
311.2007668987
  0
CIRCLE
  5
29E
330
1F
100
AcDbEntity
  8
0
  6
Continuous
 62
     7
370
    25
100
AcDbCircle
 10
38.4003016047
 20
111.2864454962
 30
0.0
 40
0.999999999999993
  0
LINE
  5
29F
330
1F
100
AcDbEntity
  8
0
  6
Continuous
 62
     7
370
    25
100
AcDbLine
 10
31.8630918581
 20
123.0289616566
 30
0.0
 11
32.1759657122
 21
123.0289616566
 31
0.0
  0
LINE
  5
2A0
330
1F
100
AcDbEntity
  8
0
  6
Continuous
 62
     7
370
    25
100
AcDbLine
 10
31.5045132144
 20
123.0289616566
 30
0.0
 11
31.8630918581
 21
123.0289616566
 31
0.0
  0
LINE
  5
2A1
330
1F
100
AcDbEntity
  8
0
  6
Continuous
 62
     7
370
    25
100
AcDbLine
 10
31.8630918581
 20
98.0289616566
 30
0.0
 11
30.5630918581
 21
98.0289616566
 31
0.0
  0
LINE
  5
2A2
330
1F
100
AcDbEntity
  8
0
  6
Continuous
 62
     7
370
    25
100
AcDbLine
 10
33.1630918581
 20
98.0289616566
 30
0.0
 11
31.8630918581
 21
98.0289616566
 31
0.0
  0
LINE
  5
2A3
330
1F
100
AcDbEntity
  8
0
  6
Continuous
 62
     7
370
    25
100
AcDbLine
 10
30.5887142517
 20
97.994640205
 30
0.0
 11
30.5374694645
 21
97.994640205
 31
0.0
  0
LINE
  5
2A4
330
1F
100
AcDbEntity
  8
0
  6
Continuous
 62
     7
370
    25
100
AcDbLine
 10
31.8887142517
 20
97.994640205
 30
0.0
 11
30.5887142517
 21
97.994640205
 31
0.0
  0
LINE
  5
2A5
330
1F
100
AcDbEntity
  8
0
  6
Continuous
 62
     7
370
    25
100
AcDbLine
 10
33.1887142517
 20
97.994640205
 30
0.0
 11
31.8887142517
 21
97.994640205
 31
0.0
  0
SPLINE
  5
2A6
330
1F
100
AcDbEntity
  8
0
  6
Continuous
 62
     7
370
    25
100
AcDbSpline
210
0.0
220
0.0
230
1.0
 70
    24
 71
     3
 72
    10
 73
     6
 74
     0
 42
0.00000001
 43
0.00000001
 40
0.0
 40
0.0
 40
0.0
 40
0.0
 40
0.0741963124731917
 40
0.5910850698862199
 40
1.0
 40
1.0
 40
1.0
 40
1.0
 10
33.11309185812146
 20
127.7324139365895
 30
0.0
 10
33.11309185812149
 20
127.7404625078242
 30
0.0
 10
33.11309185812171
 20
127.8045814664648
 30
0.0
 10
33.11309185812148
 20
127.9083185826543
 30
0.0
 10
33.11309185812151
 20
127.9762231041106
 30
0.0
 10
33.11309185812153
 20
128.0062156101028
 30
0.0
  0
ARC
  5
2A7
330
1F
100
AcDbEntity
  8
0
  6
Continuous
 62
     7
370
    25
100
AcDbCircle
 10
31.8630918581
 20
122.5289616566
 30
0.0
 40
5.61807893066771
100
AcDbArc
 50
102.8556765726
 51
77.1443234273
  0
SPLINE
  5
2A8
330
1F
100
AcDbEntity
  8
0
  6
Continuous
 62
     7
370
    25
100
AcDbSpline
210
0.0
220
0.0
230
1.0
 70
    24
 71
     3
 72
     9
 73
     5
 74
     0
 42
0.00000001
 43
0.00000001
 40
0.0
 40
0.0
 40
0.0
 40
0.0
 40
0.5010346027485828
 40
1.0
 40
1.0
 40
1.0
 40
1.0
 10
30.61309185812153
 20
128.0062156101081
 30
0.0
 10
30.61309185812153
 20
127.9687335630783
 30
0.0
 10
30.61309185812153
 20
127.8939242648299
 30
0.0
 10
30.61309185812153
 20
127.7861763951751
 30
0.0
 10
30.61309185812153
 20
127.7324139365898
 30
0.0
  0
LINE
  5
2A9
330
1F
100
AcDbEntity
  8
0
  6
Continuous
 62
     7
370
    25
100
AcDbLine
 10
30.6130918581
 20
127.7324139366
 30
0.0
 11
30.1933457367
 21
127.4599401374
 31
0.0
  0
ARC
  5
2AA
330
1F
100
AcDbEntity
  8
0
  6
Continuous
 62
     7
370
    25
100
AcDbCircle
 10
31.8630918581
 20
122.5289616566
 30
0.0
 40
5.206015836351684
100
AcDbArc
 50
108.707318013
 51
71.2926819871
  0
LINE
  5
2AB
330
1F
100
AcDbEntity
  8
0
  6
Continuous
 62
     7
370
    25
100
AcDbLine
 10
33.5328379795
 20
127.4599401374
 30
0.0
 11
33.1130918581
 21
127.7324139366
 31
0.0
  0
LINE
  5
2AC
330
1F
100
AcDbEntity
  8
0
  6
Continuous
 62
     7
370
    25
100
AcDbLine
 10
30.6130918581
 20
127.7324139366
 30
0.0
 11
30.6130918581
 21
126.7359025019
 31
0.0
  0
LINE
  5
2AD
330
1F
100
AcDbEntity
  8
0
  6
Continuous
 62
     7
370
    25
100
AcDbLine
 10
30.6130918581
 20
126.7359025019
 30
0.0
 11
31.4309352322
 21
126.4939091018
 31
0.0
  0
SPLINE
  5
2AE
330
1F
100
AcDbEntity
  8
0
  6
Continuous
 62
     7
370
    25
100
AcDbSpline
210
0.0
220
0.0
230
1.0
 70
     8
 71
     3
 72
    11
 73
     7
 74
     0
 42
0.00000001
 43
0.00000001
 40
0.0
 40
0.0
 40
0.0
 40
0.0
 40
0.2700108551241125
 40
0.5403309710776704
 40
0.8223783636389557
 40
1.0
 40
1.0
 40
1.0
 40
1.0
 10
31.43093523216444
 20
126.4939091017767
 30
0.0
 10
31.4527784616393
 20
126.4848985409495
 30
0.0
 10
31.49648993904712
 20
126.4668670989191
 30
0.0
 10
31.54433895885225
 20
126.4140649765094
 30
0.0
 10
31.57046350323722
 20
126.3567542685873
 30
0.0
 10
31.57315053015941
 20
126.3173533622257
 30
0.0
 10
31.57418882965064
 20
126.302128378549
 30
0.0
  0
LINE
  5
2AF
330
1F
100
AcDbEntity
  8
0
  6
Continuous
 62
     7
370
    25
100
AcDbLine
 10
31.5741888297
 20
126.3021283785
 30
0.0
 11
31.5741888297
 21
125.4782836602
 31
0.0
  0
SPLINE
  5
2B0
330
1F
100
AcDbEntity
  8
0
  6
Continuous
 62
     7
370
    25
100
AcDbSpline
210
0.0
220
0.0
230
1.0
 70
     8
 71
     3
 72
    11
 73
     7
 74
     0
 42
0.00000001
 43
0.00000001
 40
0.0
 40
0.0
 40
0.0
 40
0.0
 40
0.2570640100345201
 40
0.514864822247241
 40
0.7737524347266118
 40
1.0
 40
1.0
 40
1.0
 40
1.0
 10
31.57418882965064
 20
125.478283660224
 30
0.0
 10
31.57205692923949
 20
125.4561592227549
 30
0.0
 10
31.56778701792019
 20
125.4118469342967
 30
0.0
 10
31.5342797496214
 20
125.3529682887219
 30
0.0
 10
31.48739483458106
 20
125.3084818663614
 30
0.0
 10
31.44889159631339
 20
125.2934930970823
 30
0.0
 10
31.43093523216443
 20
125.2865029369963
 30
0.0
  0
LINE
  5
2B1
330
1F
100
AcDbEntity
  8
0
  6
Continuous
 62
     7
370
    25
100
AcDbLine
 10
31.4309352322
 20
125.286502937
 30
0.0
 11
30.6130918581
 21
125.0445095368
 31
0.0
  0
LINE
  5
2B2
330
1F
100
AcDbEntity
  8
0
  6
Continuous
 62
     7
370
    25
100
AcDbLine
 10
30.6130918581
 20
125.0445095368
 30
0.0
 11
30.6130918581
 21
123.1652139169
 31
0.0
  0
LINE
  5
2B3
330
1F
100
AcDbEntity
  8
0
  6
Continuous
 62
     7
370
    25
100
AcDbLine
 10
30.6130918581
 20
123.1652139169
 30
0.0
 11
30.6220455138
 21
123.0710147252
 31
0.0
  0
ARC
  5
2B4
330
1F
100
AcDbEntity
  8
0
  6
Continuous
 62
     7
370
    25
100
AcDbCircle
 10
31.8630918581
 20
125.4076370677
 30
0.0
 40
2.645751311064596
100
AcDbArc
 50
129.131673353
 51
242.0259622445
  0
SPLINE
  5
2B5
330
1F
100
AcDbEntity
  8
0
  6
Continuous
 62
     7
370
    25
100
AcDbSpline
210
0.0
220
0.0
230
1.0
 70
     8
 71
     3
 72
    10
 73
     6
 74
     0
 42
0.00000001
 43
0.00000001
 40
0.0
 40
0.0
 40
0.0
 40
0.0
 40
0.40552918411299
 40
0.8117984037494879
 40
1.0
 40
1.0
 40
1.0
 40
1.0
 10
32.96786676146463
 20
124.6426145908301
 30
0.0
 10
33.00163544349368
 20
124.6836421215592
 30
0.0
 10
33.06923443079682
 20
124.7657720526727
 30
0.0
 10
33.10851134781105
 20
124.8943316240851
 30
0.0
 10
33.11199042751186
 20
124.9707493823713
 30
0.0
 10
33.11309185812153
 20
124.9949422337393
 30
0.0
  0
LINE
  5
2B6
330
1F
100
AcDbEntity
  8
0
  6
Continuous
 62
     7
370
    25
100
AcDbLine
 10
33.1130918581
 20
124.9949422337
 30
0.0
 11
33.1130918581
 21
127.7324139366
 31
0.0
  0
ARC
  5
2B7
330
1F
100
AcDbEntity
  8
0
  6
Continuous
 62
     7
370
    25
100
AcDbCircle
 10
31.8630918581
 20
125.4076370677
 30
0.0
 40
2.645751311064608
100
AcDbArc
 50
279.9023673886
 51
50.8683266472
  0
LINE
  5
2B8
330
1F
100
AcDbEntity
  8
0
  6
Continuous
 62
     7
370
    25
100
AcDbLine
 10
32.3180811914
 20
122.8013015738
 30
0.0
 11
31.8630918581
 21
123.5301659441
 31
0.0
  0
LINE
  5
2B9
330
1F
100
AcDbEntity
  8
0
  6
Continuous
 62
     7
370
    25
100
AcDbLine
 10
31.8630918581
 20
123.5301659441
 30
0.0
 11
32.9678667615
 21
124.6426145908
 31
0.0
  0
ARC
  5
2BA
330
1F
100
AcDbEntity
  8
0
  6
Continuous
 62
     7
370
    25
100
AcDbCircle
 10
31.1130918581
 20
123.1652139169
 30
0.0
 40
0.5000000000000026
100
AcDbArc
 50
190.8593304166
 51
212.802001455
  0
LINE
  5
2BB
330
1F
100
AcDbEntity
  8
0
  6
Continuous
 62
     7
370
    25
100
AcDbLine
 10
30.6928180181
 20
122.8943451306
 30
0.0
 11
31.1130918581
 21
122.2422578118
 31
0.0
  0
LINE
  5
2BC
330
1F
100
AcDbEntity
  8
0
  6
Continuous
 62
     7
370
    25
100
AcDbLine
 10
31.1130918581
 20
122.2422578118
 30
0.0
 11
31.1130918581
 21
121.3170250851
 31
0.0
  0
LINE
  5
2BD
330
1F
100
AcDbEntity
  8
0
  6
Continuous
 62
     7
370
    25
100
AcDbLine
 10
31.1130918581
 20
121.3170250851
 30
0.0
 11
30.7335805013
 21
120.7806157261
 31
0.0
  0
LINE
  5
2BE
330
1F
100
AcDbEntity
  8
0
  6
Continuous
 62
     7
370
    25
100
AcDbLine
 10
30.7335805013
 20
120.7806157261
 30
0.0
 11
30.7335805013
 21
119.81618845
 31
0.0
  0
LINE
  5
2BF
330
1F
100
AcDbEntity
  8
0
  6
Continuous
 62
     7
370
    25
100
AcDbLine
 10
30.7335805013
 20
119.81618845
 30
0.0
 11
32.5840405573
 21
119.81618845
 31
0.0
  0
LINE
  5
2C0
330
1F
100
AcDbEntity
  8
0
  6
Continuous
 62
     7
370
    25
100
AcDbLine
 10
32.5840405573
 20
119.81618845
 30
0.0
 11
32.978037318
 21
121.090823787
 31
0.0
  0
ARC
  5
2C1
330
1F
100
AcDbEntity
  8
0
  6
Continuous
 62
     7
370
    25
100
AcDbCircle
 10
32.0226386032
 20
121.3861427601
 30
0.0
 40
1.000000000000004
100
AcDbArc
 50
342.8233346265
 51
31.9742312981
  0
LINE
  5
2C2
330
1F
100
AcDbEntity
  8
0
  6
Continuous
 62
     7
370
    25
100
AcDbLine
 10
32.8709249441
 20
121.9156805622
 30
0.0
 11
32.3180811914
 21
122.8013015738
 31
0.0
  0
ARC
  5
2C3
330
1F
100
AcDbEntity
  8
0
  6
Continuous
 62
     7
370
    25
100
AcDbCircle
 10
31.8630918581
 20
122.5289616566
 30
0.0
 40
6.456031547155528
100
AcDbArc
 50
101.1639668751
 51
78.8360331249
  0
LINE
  5
2C4
330
1F
100
AcDbEntity
  8
0
  6
Continuous
 62
     7
370
    25
100
AcDbLine
 10
30.6130918581
 20
128.0062156101
 30
0.0
 11
30.6130918581
 21
128.8628264592
 31
0.0
  0
SPLINE
  5
2C5
330
1F
100
AcDbEntity
  8
0
  6
Continuous
 62
     7
370
    25
100
AcDbSpline
210
0.0
220
0.0
230
1.0
 70
    24
 71
     3
 72
     9
 73
     5
 74
     0
 42
0.00000001
 43
0.00000001
 40
0.0
 40
0.0
 40
0.0
 40
0.0
 40
0.8981194060525339
 40
1.0
 40
1.0
 40
1.0
 40
1.0
 10
33.11309185812153
 20
128.8628264592206
 30
0.0
 10
33.11309185812154
 20
128.6066934933634
 30
0.0
 10
33.11309185812154
 20
128.3215053946194
 30
0.0
 10
33.11309185812153
 20
128.0353675079478
 30
0.0
 10
33.11309185812153
 20
128.0062156101028
 30
0.0
  0
ARC
  5
2C6
330
1F
100
AcDbEntity
  8
0
  6
Continuous
 62
     7
370
    25
100
AcDbCircle
 10
31.8630918581
 20
122.5289616566
 30
0.0
 40
6.500000000000011
100
AcDbArc
 50
101.087489211
 51
78.912510789
  0
SPLINE
  5
2C7
330
1F
100
AcDbEntity
  8
0
  6
Continuous
 62
     7
370
    25
100
AcDbSpline
210
0.0
220
0.0
230
1.0
 70
    24
 71
     3
 72
     9
 73
     5
 74
     0
 42
0.00000001
 43
0.00000001
 40
0.0
 40
0.0
 40
0.0
 40
0.0
 40
0.5508423864484292
 40
1.0
 40
1.0
 40
1.0
 40
1.0
 10
30.61309185812154
 20
128.9076370676872
 30
0.0
 10
30.61309185812153
 20
128.9051824496831
 30
0.0
 10
30.61309185812154
 20
128.900726332898
 30
0.0
 10
30.61309185812153
 20
128.8745732952127
 30
0.0
 10
30.61309185812153
 20
128.8628264592188
 30
0.0
  0
SPLINE
  5
2C8
330
1F
100
AcDbEntity
  8
0
  6
Continuous
 62
     7
370
    25
100
AcDbSpline
210
0.0
220
0.0
230
1.0
 70
    24
 71
     3
 72
     9
 73
     5
 74
     0
 42
0.00000001
 43
0.00000001
 40
0.0
 40
0.0
 40
0.0
 40
0.0
 40
0.5522211071780039
 40
0.9999999999999999
 40
0.9999999999999999
 40
0.9999999999999999
 40
0.9999999999999999
 10
33.11309185812153
 20
128.8628264592206
 30
0.0
 10
33.11309185812153
 20
128.8769192733972
 30
0.0
 10
33.11309185812154
 20
128.9024395115651
 30
0.0
 10
33.11309185812154
 20
128.9060295322153
 30
0.0
 10
33.11309185812153
 20
128.9076370676872
 30
0.0
  0
ARC
  5
2C9
330
1F
100
AcDbEntity
  8
0
  6
Continuous
 62
     7
370
    25
100
AcDbCircle
 10
31.1130918581
 20
124.9949422337
 30
0.0
 40
0.5
100
AcDbArc
 50
180.0
 51
211.375290236
  0
LINE
  5
2CA
330
1F
100
AcDbEntity
  8
0
  6
Continuous
 62
     7
370
    25
100
AcDbLine
 10
32.2952484841
 20
125.286502937
 30
0.0
 11
32.8067487515
 21
125.1351540445
 31
0.0
  0
ARC
  5
2CB
330
1F
100
AcDbEntity
  8
0
  6
Continuous
 62
     7
370
    25
100
AcDbCircle
 10
32.3519948866
 20
125.4782836602
 30
0.0
 40
0.2000000000000028
100
AcDbArc
 50
180.0
 51
253.5169302161
  0
LINE
  5
2CC
330
1F
100
AcDbEntity
  8
0
  6
Continuous
 62
     7
370
    25
100
AcDbLine
 10
32.1519948866
 20
126.3021283785
 30
0.0
 11
32.1519948866
 21
125.4782836602
 31
0.0
  0
ARC
  5
2CD
330
1F
100
AcDbEntity
  8
0
  6
Continuous
 62
     7
370
    25
100
AcDbCircle
 10
32.3519948866
 20
126.3021283785
 30
0.0
 40
0.2000000000000028
100
AcDbArc
 50
137.3871837453
 51
180.0
  0
SPLINE
  5
2CE
330
1F
100
AcDbEntity
  8
0
  6
Continuous
 62
     7
370
    25
100
AcDbSpline
210
0.0
220
0.0
230
1.0
 70
     8
 71
     3
 72
    14
 73
    10
 74
     0
 42
0.00000001
 43
0.00000001
 40
0.0
 40
0.0
 40
0.0
 40
0.0
 40
0.2135004148827091
 40
0.4101217977193838
 40
0.5868309889427914
 40
0.7051501007059606
 40
0.8114209467028883
 40
0.9079005619339383
 40
1.0
 40
1.0
 40
1.0
 40
1.0
 10
31.86309185812153
 20
106.2822616566007
 30
0.0
 10
31.50728229777015
 20
106.297149759048
 30
0.0
 10
30.82379296302006
 20
106.3257489322332
 30
0.0
 10
29.86792060419626
 20
106.5546633850532
 30
0.0
 10
29.10924511935517
 20
106.8728326220568
 30
0.0
 10
28.54932795855758
 20
107.2453945384782
 30
0.0
 10
28.17243872085757
 20
107.6275659417282
 30
0.0
 10
27.91384929868012
 20
108.0596023231051
 30
0.0
 10
27.87974697027643
 20
108.3749501017571
 30
0.0
 10
27.86309185812154
 20
108.5289616566007
 30
0.0
  0
SPLINE
  5
2CF
330
1F
100
AcDbEntity
  8
0
  6
Continuous
 62
     7
370
    25
100
AcDbSpline
210
0.0
220
0.0
230
1.0
 70
     8
 71
     3
 72
    14
 73
    10
 74
     0
 42
0.00000001
 43
0.00000001
 40
0.0
 40
0.0
 40
0.0
 40
0.0
 40
0.0920994380660618
 40
0.1885790532971118
 40
0.2948498992940395
 40
0.4131690110572087
 40
0.5898782022806163
 40
0.786499585117291
 40
1.0
 40
1.0
 40
1.0
 40
1.0
 10
35.86309185812154
 20
108.5289616566007
 30
0.0
 10
35.84643674596664
 20
108.3749501017571
 30
0.0
 10
35.81233441756294
 20
108.0596023231051
 30
0.0
 10
35.55374499538549
 20
107.6275659417282
 30
0.0
 10
35.17685575768548
 20
107.2453945384782
 30
0.0
 10
34.61693859688791
 20
106.8728326220568
 30
0.0
 10
33.85826311204681
 20
106.5546633850531
 30
0.0
 10
32.902390753223
 20
106.3257489322332
 30
0.0
 10
32.21890141847291
 20
106.297149759048
 30
0.0
 10
31.86309185812153
 20
106.2822616566007
 30
0.0
  0
SPLINE
  5
2D0
330
1F
100
AcDbEntity
  8
0
  6
Continuous
 62
     7
370
    25
100
AcDbSpline
210
0.0
220
0.0
230
1.0
 70
     8
 71
     3
 72
    14
 73
    10
 74
     0
 42
0.00000001
 43
0.00000001
 40
0.0
 40
0.0
 40
0.0
 40
0.0
 40
0.213500414882709
 40
0.4101217977193834
 40
0.586830988942791
 40
0.7051501007059601
 40
0.8114209467028877
 40
0.907900561933938
 40
1.0
 40
1.0
 40
1.0
 40
1.0
 10
31.86309185812153
 20
110.7756616566007
 30
0.0
 10
32.21890141847291
 20
110.7607735541534
 30
0.0
 10
32.90239075322299
 20
110.7321743809682
 30
0.0
 10
33.85826311204682
 20
110.5032599281482
 30
0.0
 10
34.6169385968879
 20
110.1850906911446
 30
0.0
 10
35.17685575768549
 20
109.8125287747231
 30
0.0
 10
35.55374499538549
 20
109.4303573714731
 30
0.0
 10
35.81233441756294
 20
108.9983209900962
 30
0.0
 10
35.84643674596664
 20
108.6829732114443
 30
0.0
 10
35.86309185812154
 20
108.5289616566007
 30
0.0
  0
SPLINE
  5
2D1
330
1F
100
AcDbEntity
  8
0
  6
Continuous
 62
     7
370
    25
100
AcDbSpline
210
0.0
220
0.0
230
1.0
 70
     8
 71
     3
 72
    14
 73
    10
 74
     0
 42
0.00000001
 43
0.00000001
 40
0.0
 40
0.0
 40
0.0
 40
0.0
 40
0.0920994380660621
 40
0.1885790532971124
 40
0.29484989929404
 40
0.4131690110572091
 40
0.5898782022806165
 40
0.7864995851172903
 40
1.0
 40
1.0
 40
1.0
 40
1.0
 10
27.86309185812154
 20
108.5289616566007
 30
0.0
 10
27.87974697027641
 20
108.6829732114443
 30
0.0
 10
27.91384929868012
 20
108.9983209900962
 30
0.0
 10
28.17243872085757
 20
109.4303573714731
 30
0.0
 10
28.54932795855759
 20
109.8125287747231
 30
0.0
 10
29.10924511935517
 20
110.1850906911446
 30
0.0
 10
29.86792060419625
 20
110.5032599281482
 30
0.0
 10
30.82379296302007
 20
110.7321743809682
 30
0.0
 10
31.50728229777015
 20
110.7607735541534
 30
0.0
 10
31.86309185812154
 20
110.7756616566007
 30
0.0
  0
LINE
  5
2D2
330
1F
100
AcDbEntity
  8
0
  6
Continuous
 62
     7
370
    25
100
AcDbLine
 10
36.8630918581
 20
115.6550981142
 30
0.0
 11
36.8630918581
 21
103.0289616566
 31
0.0
  0
ARC
  5
2D3
330
1F
100
AcDbEntity
  8
0
  6
Continuous
 62
     7
370
    25
100
AcDbCircle
 10
31.8630918581
 20
103.0289616566
 30
0.0
 40
5.000000000000007
100
AcDbArc
 50
180.0
 51
0.0
  0
LINE
  5
2D4
330
1F
100
AcDbEntity
  8
0
  6
Continuous
 62
     7
370
    25
100
AcDbLine
 10
26.8630918581
 20
103.0289616566
 30
0.0
 11
26.8630918581
 21
115.6550981142
 31
0.0
  0
CIRCLE
  5
2D5
330
1F
100
AcDbEntity
  8
0
  6
Continuous
 62
     7
370
    25
100
AcDbCircle
 10
31.8630918581
 20
122.5289616566
 30
0.0
 40
6.600000000000001
  0
ARC
  5
2D6
330
1F
100
AcDbEntity
  8
0
  6
Continuous
 62
     7
370
    25
100
AcDbCircle
 10
31.8630918581
 20
122.5289616566
 30
0.0
 40
8.500000000000018
100
AcDbArc
 50
306.0318790725
 51
233.9681209275
  0
LINE
  5
2D7
330
1F
100
AcDbEntity
  8
0
  6
Continuous
 62
     7
370
    25
100
AcDbLine
 10
30.2890918581
 20
107.7959616566
 30
0.0
 11
28.9920918581
 21
107.7959616566
 31
0.0
  0
SPLINE
  5
2D8
330
1F
100
AcDbEntity
  8
0
  6
Continuous
 62
     7
370
    25
100
AcDbSpline
210
0.0
220
0.0
230
1.0
 70
     8
 71
     3
 72
    11
 73
     7
 74
     0
 42
0.00000001
 43
0.00000001
 40
0.0
 40
0.0
 40
0.0
 40
0.0
 40
0.2833542951637112
 40
0.5581094066862274
 40
0.7754841034248645
 40
1.0
 40
1.0
 40
1.0
 40
1.0
 10
30.69899185812153
 20
108.2059616566007
 30
0.0
 10
30.69100441169812
 20
108.145005857409
 30
0.0
 10
30.67527192039519
 20
108.0249441343239
 30
0.0
 10
30.56565513800056
 20
107.8917611115292
 30
0.0
 10
30.43206534499203
 20
107.8106780461897
 30
0.0
 10
30.33726038750748
 20
107.8009196866515
 30
0.0
 10
30.28909185812154
 20
107.7959616566007
 30
0.0
  0
LINE
  5
2D9
330
1F
100
AcDbEntity
  8
0
  6
Continuous
 62
     7
370
    25
100
AcDbLine
 10
30.6989918581
 20
109.2619616566
 30
0.0
 11
30.6989918581
 21
108.2059616566
 31
0.0
  0
LINE
  5
2DA
330
1F
100
AcDbEntity
  8
0
  6
Continuous
 62
     7
370
    25
100
AcDbLine
 10
29.5300918581
 20
109.2619616566
 30
0.0
 11
30.6989918581
 21
109.2619616566
 31
0.0
  0
LINE
  5
2DB
330
1F
100
AcDbEntity
  8
0
  6
Continuous
 62
     7
370
    25
100
AcDbLine
 10
29.5300918581
 20
108.8978616566
 30
0.0
 11
29.5300918581
 21
109.2619616566
 31
0.0
  0
LINE
  5
2DC
330
1F
100
AcDbEntity
  8
0
  6
Continuous
 62
     7
370
    25
100
AcDbLine
 10
30.1432918581
 20
108.8978616566
 30
0.0
 11
29.5300918581
 21
108.8978616566
 31
0.0
  0
LINE
  5
2DD
330
1F
100
AcDbEntity
  8
0
  6
Continuous
 62
     7
370
    25
100
AcDbLine
 10
30.1432918581
 20
108.1696616566
 30
0.0
 11
30.1432918581
 21
108.8978616566
 31
0.0
  0
LINE
  5
2DE
330
1F
100
AcDbEntity
  8
0
  6
Continuous
 62
     7
370
    25
100
AcDbLine
 10
29.1372918581
 20
108.1696616566
 30
0.0
 11
30.1432918581
 21
108.1696616566
 31
0.0
  0
LINE
  5
2DF
330
1F
100
AcDbEntity
  8
0
  6
Continuous
 62
     7
370
    25
100
AcDbLine
 10
29.1372918581
 20
108.4475616566
 30
0.0
 11
29.1372918581
 21
108.1696616566
 31
0.0
  0
LINE
  5
2E0
330
1F
100
AcDbEntity
  8
0
  6
Continuous
 62
     7
370
    25
100
AcDbLine
 10
28.5816918581
 20
108.4475616566
 30
0.0
 11
29.1372918581
 21
108.4475616566
 31
0.0
  0
LINE
  5
2E1
330
1F
100
AcDbEntity
  8
0
  6
Continuous
 62
     7
370
    25
100
AcDbLine
 10
28.5816918581
 20
108.2064616566
 30
0.0
 11
28.5816918581
 21
108.4475616566
 31
0.0
  0
SPLINE
  5
2E2
330
1F
100
AcDbEntity
  8
0
  6
Continuous
 62
     7
370
    25
100
AcDbSpline
210
0.0
220
0.0
230
1.0
 70
     8
 71
     3
 72
    11
 73
     7
 74
     0
 42
0.00000001
 43
0.00000001
 40
0.0
 40
0.0
 40
0.0
 40
0.0
 40
0.2832855097648281
 40
0.558038983773154
 40
0.7754466768227386
 40
0.9999999999999999
 40
0.9999999999999999
 40
0.9999999999999999
 40
0.9999999999999999
 10
28.99209185812154
 20
107.7959616566007
 30
0.0
 10
28.93107767853931
 20
107.8039642112818
 30
0.0
 10
28.81088695364807
 20
107.8197282984938
 30
0.0
 10
28.67758431912463
 20
107.9295185594106
 30
0.0
 10
28.59642449828322
 20
108.0632937423454
 30
0.0
 10
28.58665538720395
 20
108.1582273891322
 30
0.0
 10
28.58169185812153
 20
108.2064616566007
 30
0.0
  0
SPLINE
  5
2E3
330
1F
100
AcDbEntity
  8
0
  6
Continuous
 62
     7
370
    25
100
AcDbSpline
210
0.0
220
0.0
230
1.0
 70
     8
 71
     3
 72
    14
 73
    10
 74
     0
 42
0.00000001
 43
0.00000001
 40
0.0
 40
0.0
 40
0.0
 40
0.0
 40
0.2152885489129946
 40
0.4132903719306764
 40
0.5907060828073115
 40
0.7089578805694456
 40
0.8145496441203856
 40
0.9097101493092521
 40
1.0
 40
1.0
 40
1.0
 40
1.0
 10
31.86309185812154
 20
106.4307616566007
 30
0.0
 10
31.52100040103516
 20
106.4446514542487
 30
0.0
 10
30.86428592993398
 20
106.4713157597354
 30
0.0
 10
29.94566942420934
 20
106.6847972289482
 30
0.0
 10
29.21624355420241
 20
106.9815606403398
 30
0.0
 10
28.677555851501
 20
107.3292905750032
 30
0.0
 10
28.31510040855125
 20
107.6857369861426
 30
0.0
 10
28.06558186328877
 20
108.089234518754
 30
0.0
 10
28.03249889697985
 20
108.3849750464698
 30
0.0
 10
28.01639185812153
 20
108.5289616566007
 30
0.0
  0
SPLINE
  5
2E4
330
1F
100
AcDbEntity
  8
0
  6
Continuous
 62
     7
370
    25
100
AcDbSpline
210
0.0
220
0.0
230
1.0
 70
     8
 71
     3
 72
    14
 73
    10
 74
     0
 42
0.00000001
 43
0.00000001
 40
0.0
 40
0.0
 40
0.0
 40
0.0
 40
0.0902898506907479
 40
0.1854503558796144
 40
0.2910421194305543
 40
0.4092939171926885
 40
0.5867096280693235
 40
0.7847114510870054
 40
1.0
 40
1.0
 40
1.0
 40
1.0
 10
28.01639185812153
 20
108.5289616566007
 30
0.0
 10
28.03249889697985
 20
108.6729482667315
 30
0.0
 10
28.06558186328877
 20
108.9686887944473
 30
0.0
 10
28.31510040855125
 20
109.3721863270588
 30
0.0
 10
28.67755585150101
 20
109.7286327381982
 30
0.0
 10
29.21624355420241
 20
110.0763626728615
 30
0.0
 10
29.94566942420933
 20
110.3731260842532
 30
0.0
 10
30.86428592993399
 20
110.586607553466
 30
0.0
 10
31.52100040103515
 20
110.6132718589527
 30
0.0
 10
31.86309185812154
 20
110.6271616566007
 30
0.0
  0
LINE
  5
2E5
330
1F
100
AcDbEntity
  8
0
  6
Continuous
 62
     7
370
    25
100
AcDbLine
 10
33.8989918581
 20
108.3805616566
 30
0.0
 11
34.8283918581
 21
108.3805616566
 31
0.0
  0
LINE
  5
2E6
330
1F
100
AcDbEntity
  8
0
  6
Continuous
 62
     7
370
    25
100
AcDbLine
 10
34.8283918581
 20
108.3805616566
 30
0.0
 11
34.8283918581
 21
108.6870616566
 31
0.0
  0
LINE
  5
2E7
330
1F
100
AcDbEntity
  8
0
  6
Continuous
 62
     7
370
    25
100
AcDbLine
 10
34.8283918581
 20
108.6870616566
 30
0.0
 11
33.8989918581
 21
108.6870616566
 31
0.0
  0
LINE
  5
2E8
330
1F
100
AcDbEntity
  8
0
  6
Continuous
 62
     7
370
    25
100
AcDbLine
 10
33.8989918581
 20
108.6870616566
 30
0.0
 11
33.8989918581
 21
108.3805616566
 31
0.0
  0
LINE
  5
2E9
330
1F
100
AcDbEntity
  8
0
  6
Continuous
 62
     7
370
    25
100
AcDbLine
 10
33.1420918581
 20
108.8514616566
 30
0.0
 11
33.1420918581
 21
107.7959616566
 31
0.0
  0
LINE
  5
2EA
330
1F
100
AcDbEntity
  8
0
  6
Continuous
 62
     7
370
    25
100
AcDbLine
 10
33.1420918581
 20
107.7959616566
 30
0.0
 11
33.6977918581
 21
107.7959616566
 31
0.0
  0
LINE
  5
2EB
330
1F
100
AcDbEntity
  8
0
  6
Continuous
 62
     7
370
    25
100
AcDbLine
 10
33.6977918581
 20
107.7959616566
 30
0.0
 11
33.6977918581
 21
108.8978616566
 31
0.0
  0
LINE
  5
2EC
330
1F
100
AcDbEntity
  8
0
  6
Continuous
 62
     7
370
    25
100
AcDbLine
 10
33.6977918581
 20
108.8978616566
 30
0.0
 11
35.1444918581
 21
108.8978616566
 31
0.0
  0
LINE
  5
2ED
330
1F
100
AcDbEntity
  8
0
  6
Continuous
 62
     7
370
    25
100
AcDbLine
 10
35.1444918581
 20
108.8978616566
 30
0.0
 11
35.1444918581
 21
109.2619616566
 31
0.0
  0
LINE
  5
2EE
330
1F
100
AcDbEntity
  8
0
  6
Continuous
 62
     7
370
    25
100
AcDbLine
 10
35.1444918581
 20
109.2619616566
 30
0.0
 11
33.5525918581
 21
109.2619616566
 31
0.0
  0
SPLINE
  5
2EF
330
1F
100
AcDbEntity
  8
0
  6
Continuous
 62
     7
370
    25
100
AcDbSpline
210
0.0
220
0.0
230
1.0
 70
     8
 71
     3
 72
    11
 73
     7
 74
     0
 42
0.00000001
 43
0.00000001
 40
0.0
 40
0.0
 40
0.0
 40
0.0
 40
0.2832851822643999
 40
0.5580591072386006
 40
0.7754666251336474
 40
0.9999999999999999
 40
0.9999999999999999
 40
0.9999999999999999
 40
0.9999999999999999
 10
33.55259185812154
 20
109.2619616566007
 30
0.0
 10
33.49157208503838
 20
109.2539580091321
 30
0.0
 10
33.37136586804358
 20
109.2381911824833
 30
0.0
 10
33.23803292561042
 20
109.1284093867739
 30
0.0
 10
33.15683421800166
 20
108.9946361504267
 30
0.0
 10
33.14705851921884
 20
108.899696755621
 30
0.0
 10
33.14209185812153
 20
108.8514616566007
 30
0.0
  0
LINE
  5
2F0
330
1F
100
AcDbEntity
  8
0
  6
Continuous
 62
     7
370
    25
100
AcDbLine
 10
30.8522918581
 20
109.2619616566
 30
0.0
 11
32.5975918581
 21
109.2619616566
 31
0.0
  0
LINE
  5
2F1
330
1F
100
AcDbEntity
  8
0
  6
Continuous
 62
     7
370
    25
100
AcDbLine
 10
30.8522918581
 20
107.7959616566
 30
0.0
 11
30.8522918581
 21
109.2619616566
 31
0.0
  0
LINE
  5
2F2
330
1F
100
AcDbEntity
  8
0
  6
Continuous
 62
     7
370
    25
100
AcDbLine
 10
31.3984918581
 20
107.7959616566
 30
0.0
 11
30.8522918581
 21
107.7959616566
 31
0.0
  0
LINE
  5
2F3
330
1F
100
AcDbEntity
  8
0
  6
Continuous
 62
     7
370
    25
100
AcDbLine
 10
31.3984918581
 20
108.8978616566
 30
0.0
 11
31.3984918581
 21
107.7959616566
 31
0.0
  0
LINE
  5
2F4
330
1F
100
AcDbEntity
  8
0
  6
Continuous
 62
     7
370
    25
100
AcDbLine
 10
32.4522918581
 20
108.8978616566
 30
0.0
 11
31.3984918581
 21
108.8978616566
 31
0.0
  0
LINE
  5
2F5
330
1F
100
AcDbEntity
  8
0
  6
Continuous
 62
     7
370
    25
100
AcDbLine
 10
32.4522918581
 20
107.7959616566
 30
0.0
 11
32.4522918581
 21
108.8978616566
 31
0.0
  0
LINE
  5
2F6
330
1F
100
AcDbEntity
  8
0
  6
Continuous
 62
     7
370
    25
100
AcDbLine
 10
33.0079918581
 20
107.7959616566
 30
0.0
 11
32.4522918581
 21
107.7959616566
 31
0.0
  0
LINE
  5
2F7
330
1F
100
AcDbEntity
  8
0
  6
Continuous
 62
     7
370
    25
100
AcDbLine
 10
33.0079918581
 20
108.8514616566
 30
0.0
 11
33.0079918581
 21
107.7959616566
 31
0.0
  0
SPLINE
  5
2F8
330
1F
100
AcDbEntity
  8
0
  6
Continuous
 62
     7
370
    25
100
AcDbSpline
210
0.0
220
0.0
230
1.0
 70
     8
 71
     3
 72
    11
 73
     7
 74
     0
 42
0.00000001
 43
0.00000001
 40
0.0
 40
0.0
 40
0.0
 40
0.0
 40
0.283285509764824
 40
0.5580389837731454
 40
0.7754466768227329
 40
1.0
 40
1.0
 40
1.0
 40
1.0
 10
32.59759185812153
 20
109.2619616566007
 30
0.0
 10
32.65860603770376
 20
109.2539591019196
 30
0.0
 10
32.77879676259499
 20
109.2381950147076
 30
0.0
 10
32.91209939711844
 20
109.1284047537908
 30
0.0
 10
32.99325921795985
 20
108.994629570856
 30
0.0
 10
33.00302832903912
 20
108.8996959240692
 30
0.0
 10
33.00799185812154
 20
108.8514616566007
 30
0.0
  0
SPLINE
  5
2F9
330
1F
100
AcDbEntity
  8
0
  6
Continuous
 62
     7
370
    25
100
AcDbSpline
210
0.0
220
0.0
230
1.0
 70
     8
 71
     3
 72
    14
 73
    10
 74
     0
 42
0.00000001
 43
0.00000001
 40
0.0
 40
0.0
 40
0.0
 40
0.0
 40
0.2152885489129947
 40
0.4132903719306757
 40
0.5907060828073117
 40
0.708957880569446
 40
0.8145496441203853
 40
0.9097101493092522
 40
0.9999999999999999
 40
0.9999999999999999
 40
0.9999999999999999
 40
0.9999999999999999
 10
31.86309185812154
 20
110.6271616566007
 30
0.0
 10
32.20518331520791
 20
110.6132718589527
 30
0.0
 10
32.86189778630909
 20
110.586607553466
 30
0.0
 10
33.78051429203374
 20
110.3731260842532
 30
0.0
 10
34.50994016204065
 20
110.0763626728615
 30
0.0
 10
35.04862786474207
 20
109.7286327381982
 30
0.0
 10
35.41108330769181
 20
109.3721863270588
 30
0.0
 10
35.66060185295429
 20
108.9686887944473
 30
0.0
 10
35.69368481926323
 20
108.6729482667315
 30
0.0
 10
35.70979185812153
 20
108.5289616566007
 30
0.0
  0
SPLINE
  5
2FA
330
1F
100
AcDbEntity
  8
0
  6
Continuous
 62
     7
370
    25
100
AcDbSpline
210
0.0
220
0.0
230
1.0
 70
     8
 71
     3
 72
    14
 73
    10
 74
     0
 42
0.00000001
 43
0.00000001
 40
0.0
 40
0.0
 40
0.0
 40
0.0
 40
0.0902898506907478
 40
0.1854503558796147
 40
0.2910421194305542
 40
0.4092939171926884
 40
0.5867096280693234
 40
0.7847114510870046
 40
1.0
 40
1.0
 40
1.0
 40
1.0
 10
35.70979185812153
 20
108.5289616566007
 30
0.0
 10
35.69368481926323
 20
108.3849750464698
 30
0.0
 10
35.66060185295429
 20
108.089234518754
 30
0.0
 10
35.41108330769183
 20
107.6857369861426
 30
0.0
 10
35.04862786474206
 20
107.3292905750032
 30
0.0
 10
34.50994016204066
 20
106.9815606403398
 30
0.0
 10
33.78051429203373
 20
106.6847972289482
 30
0.0
 10
32.86189778630908
 20
106.4713157597354
 30
0.0
 10
32.20518331520791
 20
106.4446514542487
 30
0.0
 10
31.86309185812154
 20
106.4307616566007
 30
0.0
  0
ARC
  5
2FB
330
1F
100
AcDbEntity
  8
0
  6
Continuous
 62
     7
370
    25
100
AcDbCircle
 10
31.8630918581
 20
122.5289616566
 30
0.0
 40
6.499999999999996
100
AcDbArc
 50
78.912510789
 51
101.087489211
  0
LINE
  5
2FC
330
1F
100
AcDbEntity
  8
0
  6
Continuous
 62
     7
370
    25
100
AcDbLine
 10
31.8630918581
 20
121.9875403004
 30
0.0
 11
31.1130918581
 21
121.9875403004
 31
0.0
  0
LINE
  5
2FD
330
1F
100
AcDbEntity
  8
0
  6
Continuous
 62
     7
370
    25
100
AcDbLine
 10
32.8260669215
 20
121.9875403004
 30
0.0
 11
31.8630918581
 21
121.9875403004
 31
0.0
  0
LINE
  5
2FE
330
1F
100
AcDbEntity
  8
0
  6
Continuous
 62
     7
370
    25
100
AcDbLine
 10
31.1130918581
 20
122.0582509785
 30
0.0
 11
32.781926193
 21
122.0582509785
 31
0.0
  0
LINE
  5
2FF
330
1F
100
AcDbEntity
  8
0
  6
Continuous
 62
     7
370
    25
100
AcDbLine
 10
31.8630918581
 20
122.9996723347
 30
0.0
 11
31.4338025362
 21
122.9996723347
 31
0.0
  0
LINE
  5
300
330
1F
100
AcDbEntity
  8
0
  6
Continuous
 62
     7
370
    25
100
AcDbLine
 10
32.1942494006
 20
122.9996723347
 30
0.0
 11
31.8630918581
 21
122.9996723347
 31
0.0
  0
LINE
  5
301
330
1F
100
AcDbEntity
  8
0
  6
Continuous
 62
     7
370
    25
100
AcDbLine
 10
32.8580792952
 20
98.1289616566
 30
0.0
 11
33.2630918581
 21
98.1289616566
 31
0.0
  0
LINE
  5
302
330
1F
100
AcDbEntity
  8
0
  6
Continuous
 62
     7
370
    25
100
AcDbLine
 10
30.4630918581
 20
98.1289616566
 30
0.0
 11
30.868104421
 21
98.1289616566
 31
0.0
  0
LINE
  5
303
330
1F
100
AcDbEntity
  8
0
  6
Continuous
 62
     7
370
    25
100
AcDbLine
 10
30.4374694645
 20
98.094640205
 30
0.0
 11
30.4691661536
 21
98.094640205
 31
0.0
  0
LINE
  5
304
330
1F
100
AcDbEntity
  8
0
  6
Continuous
 62
     7
370
    25
100
AcDbLine
 10
33.2570175626
 20
98.094640205
 30
0.0
 11
33.2887142517
 21
98.094640205
 31
0.0
  0
ENDSEC
  0
SECTION
  2
OBJECTS
  0
DICTIONARY
  5
C
330
0
100
AcDbDictionary
281
     1
  3
ACAD_GROUP
350
D
  3
ACAD_LAYOUT
350
1A
  3
ACAD_MLINESTYLE
350
17
  3
ACAD_PLOTSETTINGS
350
19
  3
ACAD_PLOTSTYLENAME
350
E
  3
ACAD_SCALELIST
350
47
  3
DWGPROPS
350
305
  0
DICTIONARY
  5
D
102
{ACAD_REACTORS
330
C
102
}
330
C
100
AcDbDictionary
281
     1
  0
DICTIONARY
  5
1A
102
{ACAD_REACTORS
330
C
102
}
330
C
100
AcDbDictionary
281
     1
  3
Layout1
350
1E
  3
Layout2
350
26
  3
Model
350
22
  0
DICTIONARY
  5
17
102
{ACAD_REACTORS
330
C
102
}
330
C
100
AcDbDictionary
281
     1
  3
Standard
350
18
  0
DICTIONARY
  5
19
102
{ACAD_REACTORS
330
C
102
}
330
C
100
AcDbDictionary
281
     1
  0
ACDBDICTIONARYWDFLT
  5
E
102
{ACAD_REACTORS
330
C
102
}
330
C
100
AcDbDictionary
281
     1
  3
Normal
350
F
100
AcDbDictionaryWithDefault
340
F
  0
DICTIONARY
  5
47
102
{ACAD_REACTORS
330
C
102
}
330
C
100
AcDbDictionary
281
     1
  3
A0
350
48
  3
A1
350
49
  3
A2
350
4A
  3
A3
350
4B
  3
A4
350
4C
  3
A5
350
4D
  3
A6
350
4E
  3
A7
350
4F
  3
A8
350
50
  3
A9
350
51
  3
B0
350
52
  3
B1
350
53
  3
B2
350
54
  3
B3
350
55
  3
B4
350
56
  3
B5
350
57
  3
B6
350
58
  0
XRECORD
  5
305
102
{ACAD_REACTORS
330
C
102
}
330
C
100
AcDbXrecord
280
     1
  1
DWGPROPS COOKIE
  2

  3

  4

  6

  7

  8
pedro.miguel
  9

300
=
301
=
302
=
303
=
304
=
305
=
306
=
307
=
308
=
309
=
 40
0.0
 41
2459648.709454294
 42
2459648.709454572
  1

 90
        0
  0
LAYOUT
  5
1E
102
{ACAD_REACTORS
330
1A
102
}
330
1A
100
AcDbPlotSettings
  1

  2
none_device
  4

  6

 40
0.0
 41
0.0
 42
0.0
 43
0.0
 44
0.0
 45
0.0
 46
0.0
 47
0.0
 48
0.0
 49
0.0
140
0.0
141
0.0
142
1.0
143
1.0
 70
   688
 72
     1
 73
     0
 74
     5
  7

 75
    16
147
1.0
148
0.0
149
0.0
100
AcDbLayout
  1
Layout1
 70
     1
 71
     1
 10
0.0
 20
0.0
 11
420.0
 21
297.0
 12
0.0
 22
0.0
 32
0.0
 14
1.0000000000E+20
 24
1.0000000000E+20
 34
1.0000000000E+20
 15
-1.0000000000E+20
 25
-1.0000000000E+20
 35
-1.0000000000E+20
146
0.0
 13
0.0
 23
0.0
 33
0.0
 16
1.0
 26
0.0
 36
0.0
 17
0.0
 27
1.0
 37
0.0
 76
     0
330
1B
  0
LAYOUT
  5
26
102
{ACAD_REACTORS
330
1A
102
}
330
1A
100
AcDbPlotSettings
  1

  2
none_device
  4

  6

 40
0.0
 41
0.0
 42
0.0
 43
0.0
 44
0.0
 45
0.0
 46
0.0
 47
0.0
 48
0.0
 49
0.0
140
0.0
141
0.0
142
1.0
143
1.0
 70
   688
 72
     1
 73
     0
 74
     5
  7

 75
    16
147
1.0
148
0.0
149
0.0
100
AcDbLayout
  1
Layout2
 70
     1
 71
     2
 10
0.0
 20
0.0
 11
0.0
 21
0.0
 12
0.0
 22
0.0
 32
0.0
 14
0.0
 24
0.0
 34
0.0
 15
0.0
 25
0.0
 35
0.0
146
0.0
 13
0.0
 23
0.0
 33
0.0
 16
1.0
 26
0.0
 36
0.0
 17
0.0
 27
1.0
 37
0.0
 76
     0
330
23
  0
LAYOUT
  5
22
102
{ACAD_REACTORS
330
1A
102
}
330
1A
100
AcDbPlotSettings
  1

  2
none_device
  4
Letter_(8.50_x_11.00_Inches)
  6

 40
6.35
 41
6.35
 42
6.35000508
 43
6.35000508
 44
215.9
 45
279.4
 46
0.0
 47
0.0
 48
0.0
 49
0.0
140
0.0
141
0.0
142
1.0
143
1.0
 70
  1712
 72
     1
 73
     0
 74
     0
  7

 75
     0
147
1.0
148
0.0
149
0.0
100
AcDbLayout
  1
Model
 70
     1
 71
     0
 10
0.0
 20
0.0
 11
279.4
 21
215.9
 12
0.0
 22
0.0
 32
0.0
 14
0.0
 24
0.0
 34
0.0
 15
279.4
 25
215.9
 35
0.0
146
0.0
 13
0.0
 23
0.0
 33
0.0
 16
1.0
 26
0.0
 36
0.0
 17
0.0
 27
1.0
 37
0.0
 76
     0
330
1F
331
29
  0
MLINESTYLE
  5
18
102
{ACAD_REACTORS
330
17
102
}
330
17
100
AcDbMlineStyle
  2
Standard
 70
     0
  3

 62
   256
 51
90.0
 52
90.0
 71
     2
 49
0.5
 62
   256
  6
BYLAYER
 49
-0.5
 62
   256
  6
BYLAYER
  0
ACDBPLACEHOLDER
  5
F
102
{ACAD_REACTORS
330
E
102
}
330
E
  0
SCALE
  5
48
102
{ACAD_REACTORS
330
47
102
}
330
47
100
AcDbScale
 70
     0
300
1:1
140
1.0
141
1.0
290
     1
  0
SCALE
  5
49
102
{ACAD_REACTORS
330
47
102
}
330
47
100
AcDbScale
 70
     0
300
1:2
140
1.0
141
2.0
290
     0
  0
SCALE
  5
4A
102
{ACAD_REACTORS
330
47
102
}
330
47
100
AcDbScale
 70
     0
300
1:4
140
1.0
141
4.0
290
     0
  0
SCALE
  5
4B
102
{ACAD_REACTORS
330
47
102
}
330
47
100
AcDbScale
 70
     0
300
1:5
140
1.0
141
5.0
290
     0
  0
SCALE
  5
4C
102
{ACAD_REACTORS
330
47
102
}
330
47
100
AcDbScale
 70
     0
300
1:8
140
1.0
141
8.0
290
     0
  0
SCALE
  5
4D
102
{ACAD_REACTORS
330
47
102
}
330
47
100
AcDbScale
 70
     0
300
1:10
140
1.0
141
10.0
290
     0
  0
SCALE
  5
4E
102
{ACAD_REACTORS
330
47
102
}
330
47
100
AcDbScale
 70
     0
300
1:16
140
1.0
141
16.0
290
     0
  0
SCALE
  5
4F
102
{ACAD_REACTORS
330
47
102
}
330
47
100
AcDbScale
 70
     0
300
1:20
140
1.0
141
20.0
290
     0
  0
SCALE
  5
50
102
{ACAD_REACTORS
330
47
102
}
330
47
100
AcDbScale
 70
     0
300
1:30
140
1.0
141
30.0
290
     0
  0
SCALE
  5
51
102
{ACAD_REACTORS
330
47
102
}
330
47
100
AcDbScale
 70
     0
300
1:40
140
1.0
141
40.0
290
     0
  0
SCALE
  5
52
102
{ACAD_REACTORS
330
47
102
}
330
47
100
AcDbScale
 70
     0
300
1:50
140
1.0
141
50.0
290
     0
  0
SCALE
  5
53
102
{ACAD_REACTORS
330
47
102
}
330
47
100
AcDbScale
 70
     0
300
1:100
140
1.0
141
100.0
290
     0
  0
SCALE
  5
54
102
{ACAD_REACTORS
330
47
102
}
330
47
100
AcDbScale
 70
     0
300
2:1
140
2.0
141
1.0
290
     0
  0
SCALE
  5
55
102
{ACAD_REACTORS
330
47
102
}
330
47
100
AcDbScale
 70
     0
300
4:1
140
4.0
141
1.0
290
     0
  0
SCALE
  5
56
102
{ACAD_REACTORS
330
47
102
}
330
47
100
AcDbScale
 70
     0
300
8:1
140
8.0
141
1.0
290
     0
  0
SCALE
  5
57
102
{ACAD_REACTORS
330
47
102
}
330
47
100
AcDbScale
 70
     0
300
10:1
140
10.0
141
1.0
290
     0
  0
SCALE
  5
58
102
{ACAD_REACTORS
330
47
102
}
330
47
100
AcDbScale
 70
     0
300
100:1
140
100.0
141
1.0
290
     0
  0
ENDSEC
  0
EOF
